  0
SECTION
  2
HEADER
  9
$ACADVER
  1
AC1006
  9
$INSBASE
 10
0.0
 20
0.0
 30
0.0
  9
$EXTMIN
 10
226.134942
 20
106.023959
  9
$EXTMAX
 10
1786.568936
 20
1238.042017
  9
$LIMMIN
 10
0.0
 20
0.0
  9
$LIMMAX
 10
1900.0
 20
1360.0
  9
$ORTHOMODE
 70
     1
  9
$REGENMODE
 70
     0
  9
$FILLMODE
 70
     1
  9
$QTEXTMODE
 70
     0
  9
$MIRRTEXT
 70
     1
  9
$DRAGMODE
 70
     2
  9
$LTSCALE
 40
10.0
  9
$OSMODE
 70
     0
  9
$ATTMODE
 70
     1
  9
$TEXTSIZE
 40
25.0
  9
$TRACEWID
 40
0.05
  9
$TEXTSTYLE
  7
KANJI
  9
$CLAYER
  8
C4
  9
$CELTYPE
  6
BYLAYER
  9
$CECOLOR
 62
   256
  9
$DIMSCALE
 40
1.0
  9
$DIMASZ
 40
3.0
  9
$DIMEXO
 40
1.041667
  9
$DIMDLI
 40
6.0
  9
$DIMRND
 40
0.0
  9
$DIMDLE
 40
0.0
  9
$DIMEXE
 40
3.0
  9
$DIMTP
 40
0.0
  9
$DIMTM
 40
0.0
  9
$DIMTXT
 40
3.0
  9
$DIMCEN
 40
1.5
  9
$DIMTSZ
 40
0.0
  9
$DIMTOL
 70
     0
  9
$DIMLIM
 70
     0
  9
$DIMTIH
 70
     0
  9
$DIMTOH
 70
     0
  9
$DIMSE1
 70
     0
  9
$DIMSE2
 70
     0
  9
$DIMTAD
 70
     1
  9
$DIMZIN
 70
     0
  9
$DIMBLK
  1

  9
$DIMASO
 70
     0
  9
$DIMSHO
 70
     0
  9
$DIMPOST
  1

  9
$DIMAPOST
  1

  9
$DIMALT
 70
     0
  9
$DIMALTD
 70
     2
  9
$DIMALTF
 40
25.4
  9
$DIMLFAC
 40
1.0
  9
$DIMTOFL
 70
     0
  9
$DIMTVP
 40
0.0
  9
$DIMTIX
 70
     0
  9
$DIMSOXD
 70
     0
  9
$DIMSAH
 70
     0
  9
$DIMBLK1
  1

  9
$DIMBLK2
  1

  9
$LUNITS
 70
     2
  9
$LUPREC
 70
     4
  9
$AXISMODE
 70
     0
  9
$AXISUNIT
 10
0.0
 20
0.0
  9
$SKETCHINC
 40
0.1
  9
$FILLETRAD
 40
0.0
  9
$AUNITS
 70
     0
  9
$AUPREC
 70
     0
  9
$MENU
  1
ACAD
  9
$ELEVATION
 40
0.0
  9
$THICKNESS
 40
0.0
  9
$LIMCHECK
 70
     0
  9
$BLIPMODE
 70
     1
  9
$CHAMFERA
 40
1.5
  9
$CHAMFERB
 40
1.5
  9
$SKPOLY
 70
     0
  9
$TDCREATE
 40
2448426.6966087963
  9
$TDUPDATE
 40
2448426.6966087963
  9
$TDINDWG
 40
0.0000000000
  9
$TDUSRTIMER
 40
0.0000000000
  9
$USRTIMER
 70
     1
  9
$ANGBASE
 50
0.0
  9
$ANGDIR
 70
     0
  9
$PDMODE
 70
    35
  9
$PDSIZE
 40
18.095238
  9
$PLINEWID
 40
0.0
  9
$COORDS
 70
     1
  9
$SPLFRAME
 70
     0
  9
$SPLINETYPE
 70
     6
  9
$SPLINESEGS
 70
     8
  9
$ATTDIA
 70
     0
  9
$ATTREQ
 70
     1
  9
$HANDLING
 70
     0
  9
$HANDSEED
  5
0
  9
$SURFTAB1
 70
     6
  9
$SURFTAB2
 70
     6
  9
$SURFTYPE
 70
     6
  9
$SURFU
 70
     6
  9
$SURFV
 70
     6
  9
$FLATLAND
 70
     0
  9
$UCSNAME
  2

  9
$UCSORG
 10
0.0
 20
0.0
 30
0.0
  9
$UCSXDIR
 10
1.0
 20
0.0
 30
0.0
  9
$UCSYDIR
 10
0.0
 20
1.0
 30
0.0
  9
$USERI1
 70
     0
  9
$USERI2
 70
     0
  9
$USERI3
 70
     0
  9
$USERI4
 70
     0
  9
$USERI5
 70
     0
  9
$USERR1
 40
0.000509
  9
$USERR2
 40
0.0
  9
$USERR3
 40
0.0
  9
$USERR4
 40
0.0
  9
$USERR5
 40
0.0
  9
$WORLDVIEW
 70
     1
  0
ENDSEC
  0
SECTION
  2
TABLES
  0
TABLE
  2
VPORT
 70
     2
  0
VPORT
  2
*ACTIVE
 70
     0
 10
0.0
 20
0.0
 11
1.0
 21
1.0
 12
1151.033189
 22
672.032988
 13
0.0
 23
0.0
 14
1.0
 24
1.0
 15
0.0
 25
0.0
 16
0.0
 26
0.0
 36
1.0
 17
0.0
 27
0.0
 37
0.0
 40
1132.018057
 41
1.63407
 42
50.0
 43
0.0
 44
0.0
 50
0.0
 51
0.0
 71
     0
 72
  1000
 73
     1
 74
     0
 75
     0
 76
     0
 77
     0
 78
     0
  0
ENDTAB
  0
TABLE
  2
LTYPE
 70
     2
  0
LTYPE
  2
CONTINUOUS
 70
    64
  3
実線
 72
    65
 73
     0
 40
0.0
  0
LTYPE
  2
HIDDEN
 70
    64
  3
_ _ _ _ _ _ _ _ _ _ _ _ _ _ _ _ _ _ _ _ _ _ _
 72
    65
 73
     2
 40
0.375
 49
0.25
 49
-0.125
  0
ENDTAB
  0
TABLE
  2
LAYER
 70
    15
  0
LAYER
  2
0
 70
    64
 62
     7
  6
CONTINUOUS
  0
LAYER
  2
C1
 70
     0
 62
     5
  6
CONTINUOUS
  0
LAYER
  2
C2
 70
     0
 62
     1
  6
CONTINUOUS
  0
LAYER
  2
C3
 70
     0
 62
     6
  6
CONTINUOUS
  0
LAYER
  2
C4
 70
    64
 62
     3
  6
CONTINUOUS
  0
LAYER
  2
C5
 70
     0
 62
     4
  6
CONTINUOUS
  0
LAYER
  2
C6
 70
     0
 62
     2
  6
CONTINUOUS
  0
LAYER
  2
C7
 70
    64
 62
     7
  6
CONTINUOUS
  0
LAYER
  2
HOJYOSEN
 70
     0
 62
     5
  6
CONTINUOUS
  0
LAYER
  2
BUNKATUTEN
 70
     0
 62
     5
  6
CONTINUOUS
  0
LAYER
  2
SUNPOU
 70
     0
 62
     2
  6
CONTINUOUS
  0
LAYER
  2
SUNPOUN
 70
     0
 62
     2
  6
CONTINUOUS
  0
LAYER
  2
SUNPOUA
 70
     0
 62
     2
  6
CONTINUOUS
  0
LAYER
  2
WAKU
 70
    64
 62
     5
  6
CONTINUOUS
  0
LAYER
  2
L1
 70
    64
 62
     7
  6
CONTINUOUS
  0
ENDTAB
  0
TABLE
  2
STYLE
 70
     2
  0
STYLE
  2
STANDARD
 70
     0
 40
0.0
 41
1.0
 50
0.0
 71
     0
 42
0.2
  3
txt
  4

  0
STYLE
  2
KANJI
 70
    64
 40
0.0
 41
1.0
 50
0.0
 71
     0
 42
25.0
  3
SIMPLEX
  4
BIGFONT
  0
ENDTAB
  0
TABLE
  2
VIEW
 70
     0
  0
ENDTAB
  0
TABLE
  2
UCS
 70
     0
  0
ENDTAB
  0
TABLE
  2
DWGMGR
 70
     0
  0
ENDTAB
  0
ENDSEC
  0
SECTION
  2
BLOCKS
  0
BLOCK
  8
0
  2
YA
 70
     0
 10
1.0
 20
0.5
 30
0.0
  0
LINE
  8
0
 10
1.0
 20
0.5
 30
0.0
 11
0.4
 21
0.2
 31
0.0
  0
LINE
  8
0
 10
0.0
 20
0.5
 30
0.0
 11
1.0
 21
0.5
 31
0.0
  0
LINE
  8
0
 10
1.0
 20
0.5
 30
0.0
 11
0.4
 21
0.8
 31
0.0
  0
ENDBLK
  8
0
  0
BLOCK
  8
C4
  2
YA3
 70
     0
 10
8.428651
 20
5.465008
 30
0.0
  0
LINE
  8
0
 10
8.428651
 20
5.465008
 30
0.0
 11
5.564948
 21
6.232335
 31
0.0
  0
LINE
  8
0
 10
8.428651
 20
5.465008
 30
0.0
 11
4.428651
 21
5.465008
 31
0.0
  0
LINE
  8
0
 10
8.428651
 20
5.465008
 30
0.0
 11
5.564948
 21
4.697681
 31
0.0
  0
ENDBLK
  8
C4
  0
BLOCK
  8
0
  2
YA5
 70
     0
 10
8.697591
 20
4.268747
 30
0.0
  0
LINE
  8
0
 10
8.697591
 20
4.268747
 30
0.0
 11
3.697591
 21
6.339815
 31
0.0
  0
LINE
  8
0
 10
3.697591
 20
4.268747
 30
0.0
 11
8.697591
 21
4.268747
 31
0.0
  0
LINE
  8
0
 10
3.697591
 20
4.268747
 30
0.0
 11
1.697591
 21
4.268747
 31
0.0
  0
LINE
  8
0
 10
8.697591
 20
4.268747
 30
0.0
 11
3.697591
 21
2.19768
 31
0.0
  0
ENDBLK
  8
0
  0
BLOCK
  8
0
  2
YA6
 70
     0
 10
9.189961
 20
5.111463
 30
0.0
  0
LINE
  8
0
 10
9.189961
 20
5.111463
 30
0.0
 11
4.028482
 21
3.484055
 31
0.0
  0
LINE
  8
0
 10
2.174973
 20
5.111463
 30
0.0
 11
9.189961
 21
5.111463
 31
0.0
  0
LINE
  8
0
 10
9.189961
 20
5.111463
 30
0.0
 11
4.028482
 21
6.738871
 31
0.0
  0
ENDBLK
  8
0
  0
BLOCK
  8
0
  2
YAR
 70
    64
 10
5.171362
 20
2.742512
 30
0.0
  0
LINE
  8
0
 10
4.290753
 20
2.937738
 30
0.0
 11
5.171362
 21
2.742512
 31
0.0
  0
LINE
  8
0
 10
5.171362
 20
2.742512
 30
0.0
 11
4.290753
 21
2.547286
 31
0.0
  0
LINE
  8
0
 10
5.171362
 20
2.742512
 30
0.0
 11
4.002202
 21
2.742512
 31
0.0
  0
ENDBLK
  8
0
  0
BLOCK
  8
0
  2
YAL
 70
    64
 10
3.494111
 20
2.727053
 30
0.0
  0
LINE
  8
0
 10
3.494111
 20
2.727053
 30
0.0
 11
4.663271
 21
2.727053
 31
0.0
  0
LINE
  8
0
 10
3.494111
 20
2.727053
 30
0.0
 11
4.374721
 21
2.531827
 31
0.0
  0
LINE
  8
0
 10
4.374721
 20
2.922279
 30
0.0
 11
3.494111
 21
2.727053
 31
0.0
  0
ENDBLK
  8
0
  0
BLOCK
  8
0
  2
TCAD
 70
    64
 10
0.0
 20
0.0
 30
0.0
  0
ENDBLK
  8
0
  0
BLOCK
  8
0
  2
DOT1
 70
     0
 10
4.0
 20
2.0
 30
0.0
  0
CIRCLE
  8
0
 10
4.0
 20
2.0
 30
0.0
 40
0.25
  0
CIRCLE
  8
0
 10
4.0
 20
2.0
 30
0.0
 40
0.12
  0
LINE
  8
0
 10
4.0
 20
2.0
 30
0.0
 11
5.0
 21
2.0
 31
0.0
  0
ENDBLK
  8
0
  0
BLOCK
  8
0
  2
DOT2
 70
     0
 10
3.105611
 20
2.0
 30
0.0
  0
LINE
  8
0
 10
3.105611
 20
2.0
 30
0.0
 11
2.105611
 21
2.0
 31
0.0
  0
CIRCLE
  8
0
 10
3.105611
 20
2.0
 30
0.0
 40
0.12
  0
CIRCLE
  8
0
 10
3.105611
 20
2.0
 30
0.0
 40
0.25
  0
ENDBLK
  8
0
  0
BLOCK
  8
0
  2
YAL1
 70
     0
 10
3.736859
 20
2.40955
 30
0.0
  0
SOLID
  8
0
 10
4.617468
 20
2.604777
 30
0.0
 11
4.617468
 21
2.214324
 31
0.0
 12
3.736859
 22
2.40955
 32
0.0
 13
3.736859
 23
2.40955
 33
0.0
  0
INSERT
  8
0
  2
YAL
 10
3.736859
 20
2.40955
 30
0.0
  0
ENDBLK
  8
0
  0
BLOCK
  8
0
  2
YAR1
 70
     0
 10
3.719951
 20
2.652062
 30
0.0
  0
SOLID
  8
0
 10
2.839342
 20
2.847289
 30
0.0
 11
2.839342
 21
2.456836
 31
0.0
 12
3.719951
 22
2.652062
 32
0.0
 13
3.719951
 23
2.652062
 33
0.0
  0
INSERT
  8
0
  2
YAR
 10
3.719951
 20
2.652062
 30
0.0
  0
ENDBLK
  8
0
  0
BLOCK
  8
C4
  2
SE
 70
    64
 10
0.0
 20
0.0
 30
0.0
  0
LINE
  8
0
  6
CONTINUOUS
 62
     7
 10
-195.661
 20
119.89
 30
0.0
 11
-174.055
 21
104.529
 31
0.0
  0
LINE
  8
0
  6
CONTINUOUS
 62
     7
 10
-201.661
 20
109.497
 30
0.0
 11
-177.555
 21
98.467
 31
0.0
  0
ARC
  8
0
  6
CONTINUOUS
 62
     7
 10
-189.661
 20
109.498
 30
0.0
 40
11.999736
 50
120.000728
 51
180.004775
  0
ARC
  8
0
  6
CONTINUOUS
 62
     7
 10
189.661
 20
109.497
 30
0.0
 40
12.0
 50
0.0
 51
60.001659
  0
LINE
  8
0
  6
CONTINUOUS
 62
     7
 10
195.661
 20
119.89
 30
0.0
 11
174.054
 21
104.529
 31
0.0
  0
LINE
  8
0
  6
CONTINUOUS
 62
     7
 10
201.661
 20
109.497
 30
0.0
 11
177.554
 21
98.466
 31
0.0
  0
ENDBLK
  8
C4
  0
BLOCK
  8
C4
  2
TIYO-2
 70
     0
 10
0.0
 20
0.0
 30
0.0
  0
CIRCLE
  8
C7
 10
0.0
 20
0.0
 30
0.0
 40
2.25
  0
ARC
  8
C7
 10
1.983638
 20
-5.450246
 30
0.0
 40
0.8
 50
109.999173
 51
178.510045
  0
ARC
  8
C7
 10
2.012049
 20
-4.357942
 30
0.0
 40
0.8
 50
114.782637
 51
178.510045
  0
ARC
  8
C7
 10
-1.983638
 20
-5.450246
 30
0.0
 40
0.8
 50
1.489955
 51
70.000827
  0
ARC
  8
C7
 10
-2.012049
 20
-4.357942
 30
0.0
 40
0.8
 50
1.489955
 51
65.217363
  0
ARC
  8
C7
 10
2.012049
 20
4.357942
 30
0.0
 40
0.8
 50
181.489955
 51
245.217363
  0
ARC
  8
C7
 10
1.983638
 20
5.450246
 30
0.0
 40
0.8
 50
181.489955
 51
250.000827
  0
ARC
  8
C7
 10
-1.983638
 20
5.450246
 30
0.0
 40
0.8
 50
289.999173
 51
358.510045
  0
ARC
  8
C7
 10
-2.012049
 20
4.357942
 30
0.0
 40
0.8
 50
294.782637
 51
358.510045
  0
LINE
  8
C7
 10
1.23493
 20
3.467881
 30
0.0
 11
1.020267
 21
11.720801
 31
0.0
  0
LINE
  8
C7
 10
-1.23493
 20
3.467881
 30
0.0
 11
-1.020267
 21
11.720801
 31
0.0
  0
LINE
  8
C7
 10
-1.23493
 20
-3.467881
 30
0.0
 11
-1.020267
 21
-11.720801
 31
0.0
  0
ARC
  8
C7
 10
2.234592
 20
3.493882
 30
0.0
 40
1.0
 50
181.489955
 51
237.398129
  0
ARC
  8
C7
 10
-2.234592
 20
3.493882
 30
0.0
 40
1.0
 50
302.601871
 51
358.510045
  0
ARC
  8
C7
 10
2.234592
 20
-3.493882
 30
0.0
 40
1.0
 50
122.601871
 51
178.510045
  0
ARC
  8
C7
 10
-2.234592
 20
-3.493882
 30
0.0
 40
1.0
 50
1.489955
 51
57.398129
  0
ARC
  8
C7
 10
0.220538
 20
11.7
 30
0.0
 40
0.8
 50
1.489955
 51
90.0
  0
ARC
  8
C7
 10
-0.220538
 20
11.7
 30
0.0
 40
0.8
 50
90.0
 51
178.510045
  0
ARC
  8
C7
 10
0.220538
 20
-11.7
 30
0.0
 40
0.8
 50
270.0
 51
358.510045
  0
ARC
  8
C7
 10
-0.220538
 20
-11.7
 30
0.0
 40
0.8
 50
181.489955
 51
270.0
  0
ARC
  8
C7
 10
0.0
 20
0.0
 30
0.0
 40
4.0
 50
114.782637
 51
245.217363
  0
ARC
  8
C7
 10
0.0
 20
0.0
 30
0.0
 40
5.0
 50
109.999173
 51
250.000827
  0
LINE
  8
C7
 10
1.020267
 20
-11.720801
 30
0.0
 11
1.23493
 21
-3.467881
 31
0.0
  0
LINE
  8
C7
 10
-0.220538
 20
12.5
 30
0.0
 11
0.220538
 21
12.5
 31
0.0
  0
LINE
  8
C7
 10
-0.220538
 20
-12.5
 30
0.0
 11
0.220538
 21
-12.5
 31
0.0
  0
CIRCLE
  8
C7
 10
0.0
 20
0.0
 30
0.0
 40
2.5
  0
ARC
  8
C7
 10
0.0
 20
0.0
 30
0.0
 40
4.0
 50
294.782637
 51
65.217363
  0
ARC
  8
C7
 10
0.0
 20
0.0
 30
0.0
 40
5.0
 50
289.999173
 51
70.000827
  0
ENDBLK
  8
C4
  0
BLOCK
  8
C4
  2
A3
 70
     0
 10
0.0
 20
0.0
 30
0.0
  0
INSERT
  8
0
  2
TCAD
 10
0.0
 20
0.0
 30
0.0
  0
POLYLINE
  8
WAKU
  6
CONTINUOUS
 66
     1
 10
0.0
 20
0.0
 30
0.0
 70
     1
  0
VERTEX
  8
WAKU
  6
CONTINUOUS
 10
0.0
 20
0.0
 30
0.0
  0
VERTEX
  8
WAKU
  6
CONTINUOUS
 10
380.0
 20
0.0
 30
0.0
  0
VERTEX
  8
WAKU
  6
CONTINUOUS
 10
380.0
 20
272.0
 30
0.0
  0
VERTEX
  8
WAKU
  6
CONTINUOUS
 10
0.0
 20
272.0
 30
0.0
  0
SEQEND
  8
WAKU
 62
     7
  0
ENDBLK
  8
C4
  0
ENDSEC
  0
SECTION
  2
ENTITIES
  0
INSERT
  8
0
  2
TCAD
 10
0.0
 20
0.0
 30
0.0
  0
LINE
  8
0
 62
     7
 10
261.134942
 20
147.89916
 30
0.0
 11
346.134942
 21
147.89916
 31
0.0
  0
LINE
  8
0
 62
     7
 10
256.134942
 20
152.89916
 30
0.0
 11
662.134942
 21
152.89916
 31
0.0
  0
LINE
  8
0
 62
     7
 10
256.134942
 20
157.89916
 30
0.0
 11
662.134942
 21
157.89916
 31
0.0
  0
LINE
  8
0
 62
     7
 10
256.134942
 20
159.49916
 30
0.0
 11
662.134942
 21
159.49916
 31
0.0
  0
LINE
  8
0
 62
     7
 10
662.134942
 20
159.49916
 30
0.0
 11
662.134942
 21
152.89916
 31
0.0
  0
LINE
  8
0
 62
     7
 10
256.134942
 20
159.49916
 30
0.0
 11
256.134942
 21
152.89916
 31
0.0
  0
LINE
  8
0
 62
     7
 10
512.134942
 20
152.89916
 30
0.0
 11
512.134942
 21
147.89916
 31
0.0
  0
LINE
  8
0
 62
     7
 10
406.134942
 20
152.89916
 30
0.0
 11
406.134942
 21
147.89916
 31
0.0
  0
LINE
  8
0
 62
     7
 10
494.134942
 20
164.896003
 30
0.0
 11
494.134942
 21
142.816662
 31
0.0
  0
LINE
  8
0
 62
     7
 10
424.134942
 20
164.896003
 30
0.0
 11
424.134942
 21
142.816662
 31
0.0
  0
LINE
  8
0
 62
     7
 10
261.134942
 20
152.89916
 30
0.0
 11
261.134942
 21
147.89916
 31
0.0
  0
LINE
  8
0
 62
     7
 10
346.134942
 20
152.89916
 30
0.0
 11
346.134942
 21
147.89916
 31
0.0
  0
LINE
  8
0
 62
     7
 10
657.134942
 20
152.89916
 30
0.0
 11
657.134942
 21
147.89916
 31
0.0
  0
LINE
  8
0
 62
     7
 10
602.134942
 20
152.89916
 30
0.0
 11
602.134942
 21
147.89916
 31
0.0
  0
LINE
  8
0
 62
     7
 10
294.134942
 20
164.896003
 30
0.0
 11
294.134942
 21
142.816662
 31
0.0
  0
LINE
  8
0
 62
     7
 10
624.134942
 20
164.896003
 30
0.0
 11
624.134942
 21
142.816662
 31
0.0
  0
LINE
  8
0
 62
     7
 10
406.134942
 20
147.89916
 30
0.0
 11
512.134942
 21
147.89916
 31
0.0
  0
LINE
  8
0
  6
HIDDEN
 62
     7
 10
429.634942
 20
159.49916
 30
0.0
 11
429.634942
 21
147.89916
 31
0.0
  0
LINE
  8
0
  6
HIDDEN
 62
     7
 10
418.634942
 20
159.49916
 30
0.0
 11
418.634942
 21
147.89916
 31
0.0
  0
LINE
  8
0
  6
HIDDEN
 62
     7
 10
288.634942
 20
147.89916
 30
0.0
 11
288.634942
 21
159.49916
 31
0.0
  0
LINE
  8
0
  6
HIDDEN
 62
     7
 10
299.634942
 20
147.89916
 30
0.0
 11
299.634942
 21
159.49916
 31
0.0
  0
LINE
  8
0
 62
     7
 10
324.51614
 20
160.79916
 30
0.0
 11
333.753744
 21
160.79916
 31
0.0
  0
LINE
  8
0
 62
     7
 10
333.734942
 20
160.79916
 30
0.0
 11
333.734942
 21
159.49916
 31
0.0
  0
LINE
  8
0
 62
     7
 10
324.534942
 20
160.79916
 30
0.0
 11
324.534942
 21
159.49916
 31
0.0
  0
ARC
  8
0
 62
     7
 10
332.694343
 20
162.180358
 30
0.0
 40
2.118802
 50
59.999999
 51
120.000001
  0
ARC
  8
0
 62
     7
 10
329.134942
 20
153.148499
 30
0.0
 40
11.150661
 50
77.044045
 51
102.955955
  0
ARC
  8
0
 62
     7
 10
325.575541
 20
162.180358
 30
0.0
 40
2.118802
 50
59.999999
 51
120.000001
  0
LINE
  8
0
 62
     7
 10
332.694343
 20
164.29916
 30
0.0
 11
325.575541
 21
164.29916
 31
0.0
  0
POLYLINE
  8
0
 62
     7
 66
     1
 10
0.0
 20
0.0
 30
0.0
  0
VERTEX
  8
0
 62
     7
 10
326.634942
 20
160.79916
 30
0.0
  0
VERTEX
  8
0
 62
     7
 10
326.634942
 20
164.015294
 30
0.0
  0
SEQEND
  8
0
 62
     7
  0
POLYLINE
  8
0
 62
     7
 66
     1
 10
0.0
 20
0.0
 30
0.0
  0
VERTEX
  8
0
 62
     7
 10
331.634942
 20
164.015294
 30
0.0
  0
VERTEX
  8
0
 62
     7
 10
331.634942
 20
160.79916
 30
0.0
  0
SEQEND
  8
0
 62
     7
  0
LINE
  8
0
 62
     7
 10
324.51614
 20
164.015294
 30
0.0
 11
324.51614
 21
160.79916
 31
0.0
  0
LINE
  8
0
 62
     7
 10
333.753744
 20
160.79916
 30
0.0
 11
333.753744
 21
164.015294
 31
0.0
  0
LINE
  8
0
 62
     7
 10
329.134942
 20
159.49916
 30
0.0
 11
327.814312
 21
160.79916
 31
0.0
  0
LINE
  8
0
 62
     7
 10
329.134942
 20
160.79916
 30
0.0
 11
330.433904
 21
159.49916
 31
0.0
  0
LINE
  8
0
 62
     7
 10
389.134942
 20
160.79916
 30
0.0
 11
390.433904
 21
159.49916
 31
0.0
  0
LINE
  8
0
 62
     7
 10
389.134942
 20
159.49916
 30
0.0
 11
387.814312
 21
160.79916
 31
0.0
  0
LINE
  8
0
 62
     7
 10
393.753744
 20
160.79916
 30
0.0
 11
393.753744
 21
164.015294
 31
0.0
  0
LINE
  8
0
 62
     7
 10
384.51614
 20
164.015294
 30
0.0
 11
384.51614
 21
160.79916
 31
0.0
  0
POLYLINE
  8
0
 62
     7
 66
     1
 10
0.0
 20
0.0
 30
0.0
  0
VERTEX
  8
0
 62
     7
 10
391.634942
 20
164.015294
 30
0.0
  0
VERTEX
  8
0
 62
     7
 10
391.634942
 20
160.79916
 30
0.0
  0
SEQEND
  8
0
 62
     7
  0
POLYLINE
  8
0
 62
     7
 66
     1
 10
0.0
 20
0.0
 30
0.0
  0
VERTEX
  8
0
 62
     7
 10
386.634942
 20
160.79916
 30
0.0
  0
VERTEX
  8
0
 62
     7
 10
386.634942
 20
164.015294
 30
0.0
  0
SEQEND
  8
0
 62
     7
  0
LINE
  8
0
 62
     7
 10
392.694343
 20
164.29916
 30
0.0
 11
385.575541
 21
164.29916
 31
0.0
  0
ARC
  8
0
 62
     7
 10
385.575541
 20
162.180358
 30
0.0
 40
2.118802
 50
59.999999
 51
120.000001
  0
ARC
  8
0
 62
     7
 10
389.134942
 20
153.148499
 30
0.0
 40
11.150661
 50
77.044045
 51
102.955955
  0
ARC
  8
0
 62
     7
 10
392.694343
 20
162.180358
 30
0.0
 40
2.118802
 50
59.999999
 51
120.000001
  0
LINE
  8
0
 62
     7
 10
384.534942
 20
160.79916
 30
0.0
 11
384.534942
 21
159.49916
 31
0.0
  0
LINE
  8
0
 62
     7
 10
393.734942
 20
160.79916
 30
0.0
 11
393.734942
 21
159.49916
 31
0.0
  0
LINE
  8
0
 62
     7
 10
384.51614
 20
160.79916
 30
0.0
 11
393.753744
 21
160.79916
 31
0.0
  0
LINE
  8
0
 62
     7
 10
524.51614
 20
160.79916
 30
0.0
 11
533.753744
 21
160.79916
 31
0.0
  0
LINE
  8
0
 62
     7
 10
533.734942
 20
160.79916
 30
0.0
 11
533.734942
 21
159.49916
 31
0.0
  0
LINE
  8
0
 62
     7
 10
524.534942
 20
160.79916
 30
0.0
 11
524.534942
 21
159.49916
 31
0.0
  0
ARC
  8
0
 62
     7
 10
532.694343
 20
162.180358
 30
0.0
 40
2.118802
 50
59.999999
 51
120.000001
  0
ARC
  8
0
 62
     7
 10
529.134942
 20
153.148499
 30
0.0
 40
11.150661
 50
77.044045
 51
102.955955
  0
ARC
  8
0
 62
     7
 10
525.575541
 20
162.180358
 30
0.0
 40
2.118802
 50
59.999999
 51
120.000001
  0
LINE
  8
0
 62
     7
 10
532.694343
 20
164.29916
 30
0.0
 11
525.575541
 21
164.29916
 31
0.0
  0
POLYLINE
  8
0
 62
     7
 66
     1
 10
0.0
 20
0.0
 30
0.0
  0
VERTEX
  8
0
 62
     7
 10
526.634942
 20
160.79916
 30
0.0
  0
VERTEX
  8
0
 62
     7
 10
526.634942
 20
164.015294
 30
0.0
  0
SEQEND
  8
0
 62
     7
  0
POLYLINE
  8
0
 62
     7
 66
     1
 10
0.0
 20
0.0
 30
0.0
  0
VERTEX
  8
0
 62
     7
 10
531.634942
 20
164.015294
 30
0.0
  0
VERTEX
  8
0
 62
     7
 10
531.634942
 20
160.79916
 30
0.0
  0
SEQEND
  8
0
 62
     7
  0
LINE
  8
0
 62
     7
 10
524.51614
 20
164.015294
 30
0.0
 11
524.51614
 21
160.79916
 31
0.0
  0
LINE
  8
0
 62
     7
 10
533.753744
 20
160.79916
 30
0.0
 11
533.753744
 21
164.015294
 31
0.0
  0
LINE
  8
0
 62
     7
 10
529.134942
 20
159.49916
 30
0.0
 11
527.814312
 21
160.79916
 31
0.0
  0
LINE
  8
0
 62
     7
 10
529.134942
 20
160.79916
 30
0.0
 11
530.433904
 21
159.49916
 31
0.0
  0
LINE
  8
0
 62
     7
 10
589.134942
 20
160.79916
 30
0.0
 11
590.433904
 21
159.49916
 31
0.0
  0
LINE
  8
0
 62
     7
 10
589.134942
 20
159.49916
 30
0.0
 11
587.814312
 21
160.79916
 31
0.0
  0
LINE
  8
0
 62
     7
 10
593.753744
 20
160.79916
 30
0.0
 11
593.753744
 21
164.015294
 31
0.0
  0
LINE
  8
0
 62
     7
 10
584.51614
 20
164.015294
 30
0.0
 11
584.51614
 21
160.79916
 31
0.0
  0
POLYLINE
  8
0
 62
     7
 66
     1
 10
0.0
 20
0.0
 30
0.0
  0
VERTEX
  8
0
 62
     7
 10
591.634942
 20
164.015294
 30
0.0
  0
VERTEX
  8
0
 62
     7
 10
591.634942
 20
160.79916
 30
0.0
  0
SEQEND
  8
0
 62
     7
  0
POLYLINE
  8
0
 62
     7
 66
     1
 10
0.0
 20
0.0
 30
0.0
  0
VERTEX
  8
0
 62
     7
 10
586.634942
 20
160.79916
 30
0.0
  0
VERTEX
  8
0
 62
     7
 10
586.634942
 20
164.015294
 30
0.0
  0
SEQEND
  8
0
 62
     7
  0
LINE
  8
0
 62
     7
 10
592.694343
 20
164.29916
 30
0.0
 11
585.575541
 21
164.29916
 31
0.0
  0
ARC
  8
0
 62
     7
 10
585.575541
 20
162.180358
 30
0.0
 40
2.118802
 50
59.999999
 51
120.000001
  0
ARC
  8
0
 62
     7
 10
589.134942
 20
153.148499
 30
0.0
 40
11.150661
 50
77.044045
 51
102.955955
  0
ARC
  8
0
 62
     7
 10
592.694343
 20
162.180358
 30
0.0
 40
2.118802
 50
59.999999
 51
120.000001
  0
LINE
  8
0
 62
     7
 10
584.534942
 20
160.79916
 30
0.0
 11
584.534942
 21
159.49916
 31
0.0
  0
LINE
  8
0
 62
     7
 10
593.734942
 20
160.79916
 30
0.0
 11
593.734942
 21
159.49916
 31
0.0
  0
LINE
  8
0
 62
     7
 10
584.51614
 20
160.79916
 30
0.0
 11
593.753744
 21
160.79916
 31
0.0
  0
LINE
  8
0
 62
     7
 10
602.134942
 20
147.89916
 30
0.0
 11
657.134942
 21
147.89916
 31
0.0
  0
LINE
  8
0
  6
HIDDEN
 62
     7
 10
499.634942
 20
159.49916
 30
0.0
 11
499.634942
 21
147.89916
 31
0.0
  0
LINE
  8
0
  6
HIDDEN
 62
     7
 10
488.634942
 20
159.49916
 30
0.0
 11
488.634942
 21
147.89916
 31
0.0
  0
LINE
  8
0
  6
HIDDEN
 62
     7
 10
618.634942
 20
147.89916
 30
0.0
 11
618.634942
 21
159.49916
 31
0.0
  0
LINE
  8
0
  6
HIDDEN
 62
     7
 10
629.634942
 20
147.89916
 30
0.0
 11
629.634942
 21
159.49916
 31
0.0
  0
LINE
  8
0
 62
     7
 10
226.134942
 20
432.89916
 30
0.0
 11
401.134942
 21
432.89916
 31
0.0
  0
LINE
  8
0
 62
     7
 10
662.134942
 20
431.29916
 30
0.0
 11
662.134942
 21
159.49916
 31
0.0
  0
LINE
  8
0
 62
     7
 10
256.134942
 20
431.29916
 30
0.0
 11
256.134942
 21
159.49916
 31
0.0
  0
LINE
  8
0
 62
     7
 10
226.134942
 20
431.29916
 30
0.0
 11
256.134942
 21
431.29916
 31
0.0
  0
LINE
  8
0
 62
     7
 10
257.734942
 20
432.89916
 30
0.0
 11
257.734942
 21
159.49916
 31
0.0
  0
LINE
  8
0
 62
     7
 10
660.534942
 20
432.89916
 30
0.0
 11
660.534942
 21
159.49916
 31
0.0
  0
LINE
  8
0
 62
     7
 10
662.134942
 20
431.29916
 30
0.0
 11
692.134942
 21
431.29916
 31
0.0
  0
CIRCLE
  8
0
 62
     7
 10
459.134942
 20
432.89916
 30
0.0
 40
58.0
  0
LINE
  8
0
 62
     7
 10
479.134942
 20
309.49916
 30
0.0
 11
479.134942
 21
219.49916
 31
0.0
  0
LINE
  8
0
 62
     7
 10
439.134942
 20
309.49916
 30
0.0
 11
439.134942
 21
219.49916
 31
0.0
  0
LINE
  8
0
 62
     7
 10
439.134942
 20
219.49916
 30
0.0
 11
479.134942
 21
219.49916
 31
0.0
  0
LINE
  8
0
 62
     7
 10
439.134942
 20
309.49916
 30
0.0
 11
479.134942
 21
309.49916
 31
0.0
  0
LINE
  8
0
 62
     7
 10
460.734942
 20
309.49916
 30
0.0
 11
460.734942
 21
219.49916
 31
0.0
  0
LINE
  8
0
 62
     7
 10
457.534942
 20
309.49916
 30
0.0
 11
457.534942
 21
219.49916
 31
0.0
  0
LINE
  8
0
 62
     7
 10
1014.751795
 20
1007.942017
 30
0.0
 11
1005.514191
 21
1007.942017
 31
0.0
  0
LINE
  8
0
 62
     7
 10
1014.732993
 20
1007.942017
 30
0.0
 11
1014.732993
 21
1006.642017
 31
0.0
  0
LINE
  8
0
 62
     7
 10
1005.532993
 20
1007.942017
 30
0.0
 11
1005.532993
 21
1006.642017
 31
0.0
  0
LINE
  8
0
 62
     7
 10
1010.132993
 20
1007.942017
 30
0.0
 11
1011.282364
 21
1006.642017
 31
0.0
  0
LINE
  8
0
 62
     7
 10
1010.132993
 20
1006.642017
 30
0.0
 11
1008.83471
 21
1007.942017
 31
0.0
  0
ARC
  8
0
 62
     7
 10
1013.692394
 20
1009.823215
 30
0.0
 40
2.118802
 50
59.999999
 51
120.000001
  0
ARC
  8
0
 62
     7
 10
1010.132993
 20
1000.791356
 30
0.0
 40
11.150661
 50
77.044045
 51
102.955955
  0
ARC
  8
0
 62
     7
 10
1006.573592
 20
1009.823215
 30
0.0
 40
2.118802
 50
59.999999
 51
120.000001
  0
LINE
  8
0
 62
     7
 10
1007.632993
 20
1012.642017
 30
0.0
 11
1012.632993
 21
1012.642017
 31
0.0
  0
LINE
  8
0
 62
     7
 10
1008.432993
 20
1011.942017
 30
0.0
 11
1008.432993
 21
1013.442017
 31
0.0
  0
LINE
  8
0
 62
     7
 10
1011.832993
 20
1011.942017
 30
0.0
 11
1011.832993
 21
1013.442017
 31
0.0
  0
LINE
  8
0
 62
     7
 10
1013.692394
 20
1011.942017
 30
0.0
 11
1006.573592
 21
1011.942017
 31
0.0
  0
LINE
  8
0
 62
     7
 10
1014.751795
 20
1007.942017
 30
0.0
 11
1014.751795
 21
1011.658151
 31
0.0
  0
LINE
  8
0
 62
     7
 10
1005.514191
 20
1011.658151
 30
0.0
 11
1005.514191
 21
1007.942017
 31
0.0
  0
POLYLINE
  8
0
 62
     7
 66
     1
 10
0.0
 20
0.0
 30
0.0
  0
VERTEX
  8
0
 62
     7
 10
1007.632993
 20
1011.942017
 30
0.0
 50
270.0
  0
VERTEX
  8
0
 62
     7
 10
1007.632993
 20
1012.642017
 30
0.0
 50
270.0
  0
VERTEX
  8
0
 62
     7
 10
1008.432993
 20
1013.442017
 30
0.0
 50
270.0
  0
VERTEX
  8
0
 62
     7
 10
1011.832993
 20
1013.442017
 30
0.0
 50
270.0
  0
VERTEX
  8
0
 62
     7
 10
1012.632993
 20
1012.642017
 30
0.0
 50
270.0
  0
VERTEX
  8
0
 62
     7
 10
1012.632993
 20
1011.942017
 30
0.0
 50
270.0
  0
SEQEND
  8
0
 62
     7
  0
POLYLINE
  8
0
 62
     7
 66
     1
 10
0.0
 20
0.0
 30
0.0
  0
VERTEX
  8
0
 62
     7
 10
1007.632993
 20
1007.942017
 30
0.0
 50
90.0
  0
VERTEX
  8
0
 62
     7
 10
1007.632993
 20
1011.658151
 30
0.0
 50
90.0
  0
SEQEND
  8
0
 62
     7
  0
POLYLINE
  8
0
 62
     7
 66
     1
 10
0.0
 20
0.0
 30
0.0
  0
VERTEX
  8
0
 62
     7
 10
1012.632993
 20
1011.658151
 30
0.0
 50
90.0
  0
VERTEX
  8
0
 62
     7
 10
1012.632993
 20
1007.942017
 30
0.0
 50
90.0
  0
SEQEND
  8
0
 62
     7
  0
POLYLINE
  8
0
 62
     7
 66
     1
 10
0.0
 20
0.0
 30
0.0
  0
VERTEX
  8
0
 62
     7
 10
1007.632993
 20
1000.225882
 30
0.0
 50
270.0
  0
VERTEX
  8
0
 62
     7
 10
1007.632993
 20
1003.442017
 30
0.0
 50
270.0
  0
SEQEND
  8
0
 62
     7
  0
POLYLINE
  8
0
 62
     7
 66
     1
 10
0.0
 20
0.0
 30
0.0
  0
VERTEX
  8
0
 62
     7
 10
1012.632993
 20
1003.442017
 30
0.0
 50
270.0
  0
VERTEX
  8
0
 62
     7
 10
1012.632993
 20
1000.225882
 30
0.0
 50
270.0
  0
SEQEND
  8
0
 62
     7
  0
LINE
  8
0
 62
     7
 10
1014.751795
 20
1000.225882
 30
0.0
 11
1014.751795
 21
1003.442017
 31
0.0
  0
LINE
  8
0
 62
     7
 10
1005.514191
 20
1003.442017
 30
0.0
 11
1005.514191
 21
1000.225882
 31
0.0
  0
LINE
  8
0
 62
     7
 10
1006.573592
 20
999.942017
 30
0.0
 11
1013.692394
 21
999.942017
 31
0.0
  0
ARC
  8
0
 62
     7
 10
1013.692394
 20
1002.060819
 30
0.0
 40
2.118802
 50
239.999999
 51
300.000001
  0
ARC
  8
0
 62
     7
 10
1010.132993
 20
1011.092678
 30
0.0
 40
11.150661
 50
257.044045
 51
282.955955
  0
ARC
  8
0
 62
     7
 10
1006.573592
 20
1002.060819
 30
0.0
 40
2.118802
 50
239.999999
 51
300.000001
  0
ARC
  8
0
 62
     7
 10
462.11614
 20
235.939759
 30
0.0
 40
2.118802
 50
329.999999
 51
30.000001
  0
ARC
  8
0
 62
     7
 10
453.084281
 20
239.49916
 30
0.0
 40
11.150661
 50
347.044045
 51
12.955955
  0
ARC
  8
0
 62
     7
 10
462.11614
 20
243.058561
 30
0.0
 40
2.118802
 50
329.999999
 51
30.000001
  0
LINE
  8
0
 62
     7
 10
464.234942
 20
235.939759
 30
0.0
 11
464.234942
 21
243.058561
 31
0.0
  0
LINE
  8
0
 62
     7
 10
460.734942
 20
234.880357
 30
0.0
 11
463.951076
 21
234.880357
 31
0.0
  0
LINE
  8
0
 62
     7
 10
463.951076
 20
244.117962
 30
0.0
 11
460.734942
 21
244.117962
 31
0.0
  0
POLYLINE
  8
0
 62
     7
 66
     1
 10
0.0
 20
0.0
 30
0.0
  0
VERTEX
  8
0
 62
     7
 10
460.734942
 20
241.99916
 30
0.0
  0
VERTEX
  8
0
 62
     7
 10
463.951076
 20
241.99916
 30
0.0
  0
SEQEND
  8
0
 62
     7
  0
POLYLINE
  8
0
 62
     7
 66
     1
 10
0.0
 20
0.0
 30
0.0
  0
VERTEX
  8
0
 62
     7
 10
463.951076
 20
236.99916
 30
0.0
  0
VERTEX
  8
0
 62
     7
 10
460.734942
 20
236.99916
 30
0.0
  0
SEQEND
  8
0
 62
     7
  0
POLYLINE
  8
0
 62
     7
 66
     1
 10
0.0
 20
0.0
 30
0.0
  0
VERTEX
  8
0
 62
     7
 10
452.518807
 20
241.99916
 30
0.0
 50
180.0
  0
VERTEX
  8
0
 62
     7
 10
456.234942
 20
241.99916
 30
0.0
 50
180.0
  0
SEQEND
  8
0
 62
     7
  0
POLYLINE
  8
0
 62
     7
 66
     1
 10
0.0
 20
0.0
 30
0.0
  0
VERTEX
  8
0
 62
     7
 10
456.234942
 20
236.99916
 30
0.0
 50
180.0
  0
VERTEX
  8
0
 62
     7
 10
452.518807
 20
236.99916
 30
0.0
 50
180.0
  0
SEQEND
  8
0
 62
     7
  0
POLYLINE
  8
0
 62
     7
 66
     1
 10
0.0
 20
0.0
 30
0.0
  0
VERTEX
  8
0
 62
     7
 10
452.234942
 20
236.99916
 30
0.0
  0
VERTEX
  8
0
 62
     7
 10
451.534942
 20
236.99916
 30
0.0
  0
VERTEX
  8
0
 62
     7
 10
450.734942
 20
237.79916
 30
0.0
  0
VERTEX
  8
0
 62
     7
 10
450.734942
 20
241.19916
 30
0.0
  0
VERTEX
  8
0
 62
     7
 10
451.534942
 20
241.99916
 30
0.0
  0
VERTEX
  8
0
 62
     7
 10
452.234942
 20
241.99916
 30
0.0
  0
SEQEND
  8
0
 62
     7
  0
LINE
  8
0
 62
     7
 10
452.518807
 20
234.880357
 30
0.0
 11
456.234942
 21
234.880357
 31
0.0
  0
LINE
  8
0
 62
     7
 10
456.234942
 20
244.117962
 30
0.0
 11
452.518807
 21
244.117962
 31
0.0
  0
LINE
  8
0
 62
     7
 10
452.234942
 20
243.058561
 30
0.0
 11
452.234942
 21
235.939759
 31
0.0
  0
LINE
  8
0
 62
     7
 10
452.234942
 20
241.19916
 30
0.0
 11
450.734942
 21
241.19916
 31
0.0
  0
LINE
  8
0
 62
     7
 10
452.234942
 20
237.79916
 30
0.0
 11
450.734942
 21
237.79916
 31
0.0
  0
LINE
  8
0
 62
     7
 10
451.534942
 20
236.99916
 30
0.0
 11
451.534942
 21
241.99916
 31
0.0
  0
ARC
  8
0
 62
     7
 10
454.353744
 20
235.939759
 30
0.0
 40
2.118802
 50
149.999999
 51
210.000001
  0
ARC
  8
0
 62
     7
 10
463.385603
 20
239.49916
 30
0.0
 40
11.150661
 50
167.044045
 51
192.955955
  0
ARC
  8
0
 62
     7
 10
454.353744
 20
243.058561
 30
0.0
 40
2.118802
 50
149.999999
 51
210.000001
  0
LINE
  8
0
 62
     7
 10
457.534942
 20
239.49916
 30
0.0
 11
456.234942
 21
238.200877
 31
0.0
  0
LINE
  8
0
 62
     7
 10
456.234942
 20
239.49916
 30
0.0
 11
457.534942
 21
240.64853
 31
0.0
  0
LINE
  8
0
 62
     7
 10
456.234942
 20
234.89916
 30
0.0
 11
457.534942
 21
234.89916
 31
0.0
  0
LINE
  8
0
 62
     7
 10
456.234942
 20
244.09916
 30
0.0
 11
457.534942
 21
244.09916
 31
0.0
  0
LINE
  8
0
 62
     7
 10
456.234942
 20
244.117962
 30
0.0
 11
456.234942
 21
234.880357
 31
0.0
  0
LINE
  8
0
 62
     7
 10
692.134942
 20
434.49916
 30
0.0
 11
692.134942
 21
431.29916
 31
0.0
  0
LINE
  8
0
 62
     7
 10
226.134942
 20
434.49916
 30
0.0
 11
226.134942
 21
431.29916
 31
0.0
  0
ARC
  8
0
 62
     7
 10
459.134942
 20
432.89916
 30
0.0
 40
203.0
 50
0.451597
 51
179.548403
  0
ARC
  8
0
 62
     7
 10
459.134942
 20
432.89916
 30
0.0
 40
201.4
 50
0.0
 51
180.0
  0
CIRCLE
  8
0
 62
     7
 10
459.134942
 20
432.89916
 30
0.0
 40
54.0
  0
ARC
  8
0
 62
     7
 10
459.134942
 20
432.89916
 30
0.0
 40
32.5
 50
106.07665
 51
73.92335
  0
ARC
  8
0
 62
     7
 10
459.134942
 20
432.89916
 30
0.0
 40
25.0
 50
111.100196
 51
68.899804
  0
LINE
  8
0
 62
     7
 10
450.134942
 20
471.39916
 30
0.0
 11
468.134942
 21
471.39916
 31
0.0
  0
LINE
  8
0
 62
     7
 10
468.134942
 20
471.39916
 30
0.0
 11
468.134942
 21
456.222967
 31
0.0
  0
LINE
  8
0
 62
     7
 10
450.134942
 20
471.39916
 30
0.0
 11
450.134942
 21
456.222967
 31
0.0
  0
LINE
  8
0
 62
     7
 10
662.128636
 20
434.49916
 30
0.0
 11
692.134942
 21
434.49916
 31
0.0
  0
LINE
  8
0
 62
     7
 10
226.134942
 20
434.49916
 30
0.0
 11
256.141247
 21
434.49916
 31
0.0
  0
LINE
  8
0
 62
     7
 10
988.632993
 20
147.89916
 30
0.0
 11
1128.632993
 21
147.89916
 31
0.0
  0
LINE
  8
0
 62
     7
 10
988.632993
 20
152.89916
 30
0.0
 11
1448.632993
 21
152.89916
 31
0.0
  0
LINE
  8
0
 62
     7
 10
988.632993
 20
157.89916
 30
0.0
 11
1448.632993
 21
157.89916
 31
0.0
  0
LINE
  8
0
 62
     7
 10
988.632993
 20
159.49916
 30
0.0
 11
1025.132993
 21
159.49916
 31
0.0
  0
LINE
  8
0
 62
     7
 10
1448.632993
 20
159.49916
 30
0.0
 11
1448.632993
 21
147.89916
 31
0.0
  0
LINE
  8
0
 62
     7
 10
988.632993
 20
159.49916
 30
0.0
 11
988.632993
 21
147.89916
 31
0.0
  0
LINE
  8
0
 62
     7
 10
1403.632993
 20
152.89916
 30
0.0
 11
1403.632993
 21
147.89916
 31
0.0
  0
LINE
  8
0
 62
     7
 10
1006.632993
 20
164.896003
 30
0.0
 11
1006.632993
 21
142.313568
 31
0.0
  0
LINE
  8
0
 62
     7
 10
1128.632993
 20
152.89916
 30
0.0
 11
1128.632993
 21
147.89916
 31
0.0
  0
LINE
  8
0
 62
     7
 10
992.132993
 20
432.89916
 30
0.0
 11
1034.132993
 21
432.89916
 31
0.0
  0
LINE
  8
0
 62
     7
 10
1412.132993
 20
431.29916
 30
0.0
 11
1412.132993
 21
157.89916
 31
0.0
  0
LINE
  8
0
 62
     7
 10
1025.132993
 20
431.29916
 30
0.0
 11
1025.132993
 21
157.89916
 31
0.0
  0
LINE
  8
0
 62
     7
 10
1020.132993
 20
635.89916
 30
0.0
 11
1417.132993
 21
635.89916
 31
0.0
  0
LINE
  8
0
 62
     7
 10
1417.132993
 20
635.89916
 30
0.0
 11
1417.132993
 21
378.89916
 31
0.0
  0
LINE
  8
0
 62
     7
 10
1020.132993
 20
635.89916
 30
0.0
 11
1020.132993
 21
378.89916
 31
0.0
  0
LINE
  8
0
 62
     7
 10
1025.132993
 20
634.29916
 30
0.0
 11
1025.132993
 21
496.187295
 31
0.0
  0
LINE
  8
0
 62
     7
 10
1412.132993
 20
634.29916
 30
0.0
 11
1412.132993
 21
486.89916
 31
0.0
  0
LINE
  8
0
 62
     7
 10
1020.132993
 20
634.29916
 30
0.0
 11
1417.132993
 21
634.29916
 31
0.0
  0
LINE
  8
0
 62
     7
 10
1026.732993
 20
634.29916
 30
0.0
 11
1026.732993
 21
496.29358
 31
0.0
  0
LINE
  8
0
 62
     7
 10
1410.532993
 20
634.29916
 30
0.0
 11
1410.532993
 21
490.89916
 31
0.0
  0
LINE
  8
0
 62
     7
 10
1025.132993
 20
490.89916
 30
0.0
 11
1026.732993
 21
490.89916
 31
0.0
  0
LINE
  8
0
 62
     7
 10
1025.132993
 20
431.29916
 30
0.0
 11
1025.132993
 21
374.89916
 31
0.0
  0
LINE
  8
0
 62
     7
 10
1410.532993
 20
490.89916
 30
0.0
 11
1412.132993
 21
490.89916
 31
0.0
  0
LINE
  8
0
 62
     7
 10
1020.132993
 20
431.29916
 30
0.0
 11
1417.132993
 21
431.29916
 31
0.0
  0
LINE
  8
0
 62
     7
 10
1167.832993
 20
531.34916
 30
0.0
 11
1167.832993
 21
526.79416
 31
0.0
  0
LINE
  8
0
 62
     7
 10
1150.532993
 20
530.99416
 30
0.0
 11
1150.532993
 21
508.69916
 31
0.0
  0
LINE
  8
0
 62
     7
 10
1165.432993
 20
547.19916
 30
0.0
 11
1165.432993
 21
531.34916
 31
0.0
  0
LINE
  8
0
 62
     7
 10
1150.532993
 20
529.74916
 30
0.0
 11
1167.832993
 21
529.74916
 31
0.0
  0
LINE
  8
0
 62
     7
 10
1074.032993
 20
531.39916
 30
0.0
 11
1074.032993
 21
521.39916
 31
0.0
  0
LINE
  8
0
 62
     7
 10
1086.732993
 20
531.39916
 30
0.0
 11
1086.732993
 21
521.39916
 31
0.0
  0
LINE
  8
0
 62
     7
 10
1020.132993
 20
486.89916
 30
0.0
 11
1025.716314
 21
486.89916
 31
0.0
  0
LINE
  8
0
 62
     7
 10
1074.032993
 20
528.09916
 30
0.0
 11
1086.732993
 21
528.09916
 31
0.0
  0
LINE
  8
0
 62
     7
 10
1129.432993
 20
508.69916
 30
0.0
 11
1150.532993
 21
508.69916
 31
0.0
  0
LINE
  8
0
 62
     7
 10
1129.432993
 20
508.69916
 30
0.0
 11
1114.583524
 21
493.849691
 31
0.0
  0
LINE
  8
0
  6
HIDDEN
 62
     7
 10
1086.732993
 20
486.89916
 30
0.0
 11
1107.632993
 21
486.89916
 31
0.0
  0
LINE
  8
0
 62
     7
 10
1135.132993
 20
496.39916
 30
0.0
 11
1167.832993
 21
496.39916
 31
0.0
  0
LINE
  8
0
  6
CONTINUOUS
 62
     7
 10
1302.132993
 20
458.01416
 30
0.0
 11
1417.132993
 21
465.39916
 31
0.0
  0
LINE
  8
0
  6
CONTINUOUS
 62
     7
 10
1302.132993
 20
464.026519
 30
0.0
 11
1417.132993
 21
471.411519
 31
0.0
  0
LINE
  8
0
  6
HIDDEN
 62
     7
 10
1091.832993
 20
486.89916
 30
0.0
 11
1091.832993
 21
500.088295
 31
0.0
  0
LINE
  8
0
  6
HIDDEN
 62
     7
 10
1106.832993
 20
486.89916
 30
0.0
 11
1106.832993
 21
497.273195
 31
0.0
  0
LINE
  8
0
 62
     7
 10
1053.732993
 20
534.39916
 30
0.0
 11
1068.732993
 21
534.39916
 31
0.0
  0
LINE
  8
0
 62
     7
 10
1053.732993
 20
534.39916
 30
0.0
 11
1053.732993
 21
521.39916
 31
0.0
  0
LINE
  8
0
 62
     7
 10
1068.732993
 20
534.39916
 30
0.0
 11
1068.732993
 21
521.39916
 31
0.0
  0
LINE
  8
0
 62
     7
 10
1091.832993
 20
534.39916
 30
0.0
 11
1106.832993
 21
534.39916
 31
0.0
  0
LINE
  8
0
 62
     7
 10
1048.432993
 20
531.39916
 30
0.0
 11
1053.732993
 21
531.39916
 31
0.0
  0
LINE
  8
0
  6
HIDDEN
 62
     7
 10
1048.432993
 20
499.39916
 30
0.0
 11
1053.732993
 21
499.39916
 31
0.0
  0
LINE
  8
0
 62
     7
 10
1053.732993
 20
505.39916
 30
0.0
 11
1068.732993
 21
505.39916
 31
0.0
  0
LINE
  8
0
 62
     7
 10
1048.432993
 20
531.39916
 30
0.0
 11
1048.432993
 21
504.955231
 31
0.0
  0
LINE
  8
0
 62
     7
 10
1112.132993
 20
499.39916
 30
0.0
 11
1112.132993
 21
531.39916
 31
0.0
  0
LINE
  8
0
  6
HIDDEN
 62
     7
 10
1068.732993
 20
499.39916
 30
0.0
 11
1074.032993
 21
499.39916
 31
0.0
  0
LINE
  8
0
 62
     7
 10
1068.732993
 20
531.39916
 30
0.0
 11
1074.032993
 21
531.39916
 31
0.0
  0
LINE
  8
0
 62
     7
 10
1091.832993
 20
505.39916
 30
0.0
 11
1106.832993
 21
505.39916
 31
0.0
  0
LINE
  8
0
 62
     7
 10
1106.832993
 20
499.39916
 30
0.0
 11
1112.132993
 21
499.39916
 31
0.0
  0
LINE
  8
0
  6
HIDDEN
 62
     7
 10
1086.732993
 20
499.39916
 30
0.0
 11
1091.832993
 21
499.39916
 31
0.0
  0
LINE
  8
0
 62
     7
 10
1106.832993
 20
531.39916
 30
0.0
 11
1112.132993
 21
531.39916
 31
0.0
  0
LINE
  8
0
 62
     7
 10
1086.732993
 20
531.39916
 30
0.0
 11
1091.832993
 21
531.39916
 31
0.0
  0
LINE
  8
0
 62
     7
 10
1045.432993
 20
526.484278
 30
0.0
 11
1045.432993
 21
504.314041
 31
0.0
  0
LINE
  8
0
 62
     7
 10
1115.132993
 20
526.484278
 30
0.0
 11
1115.132993
 21
504.314041
 31
0.0
  0
LINE
  8
0
 62
     7
 10
1045.432993
 20
526.14916
 30
0.0
 11
1048.432993
 21
526.14916
 31
0.0
  0
LINE
  8
0
 62
     7
 10
1045.432993
 20
504.64916
 30
0.0
 11
1048.432993
 21
504.64916
 31
0.0
  0
LINE
  8
0
 62
     7
 10
1112.132993
 20
526.14916
 30
0.0
 11
1115.132993
 21
526.14916
 31
0.0
  0
LINE
  8
0
 62
     7
 10
1112.132993
 20
504.64916
 30
0.0
 11
1115.132993
 21
504.64916
 31
0.0
  0
LINE
  8
0
 62
     7
 10
1045.432993
 20
515.39916
 30
0.0
 11
1048.432993
 21
518.041285
 31
0.0
  0
LINE
  8
0
 62
     7
 10
1048.432993
 20
515.39916
 30
0.0
 11
1045.432993
 21
512.757782
 31
0.0
  0
LINE
  8
0
 62
     7
 10
1112.132993
 20
515.39916
 30
0.0
 11
1115.132993
 21
518.041285
 31
0.0
  0
LINE
  8
0
 62
     7
 10
1115.132993
 20
515.39916
 30
0.0
 11
1112.132993
 21
512.757782
 31
0.0
  0
LINE
  8
0
 62
     7
 10
1095.432993
 20
521.39916
 30
0.0
 11
1095.432993
 21
509.39916
 31
0.0
  0
LINE
  8
0
 62
     7
 10
1128.682993
 20
521.39916
 30
0.0
 11
1128.682993
 21
509.39916
 31
0.0
  0
LINE
  8
0
 62
     7
 10
1095.432993
 20
519.64916
 30
0.0
 11
1112.132993
 21
519.64916
 31
0.0
  0
LINE
  8
0
 62
     7
 10
1095.432993
 20
519.64916
 30
0.0
 11
1092.401904
 21
521.39916
 31
0.0
  0
LINE
  8
0
 62
     7
 10
1095.432993
 20
511.14916
 30
0.0
 11
1112.132993
 21
511.14916
 31
0.0
  0
LINE
  8
0
 62
     7
 10
1095.432993
 20
511.14916
 30
0.0
 11
1092.401904
 21
509.39916
 31
0.0
  0
LINE
  8
0
 62
     7
 10
1053.732993
 20
509.39916
 30
0.0
 11
1053.732993
 21
504.43095
 31
0.0
  0
LINE
  8
0
 62
     7
 10
1068.732993
 20
509.39916
 30
0.0
 11
1068.732993
 21
501.665713
 31
0.0
  0
LINE
  8
0
 62
     7
 10
1074.032993
 20
509.39916
 30
0.0
 11
1074.032993
 21
502.530272
 31
0.0
  0
LINE
  8
0
 62
     7
 10
1086.732993
 20
509.39916
 30
0.0
 11
1086.732993
 21
501.456236
 31
0.0
  0
LINE
  8
0
 62
     7
 10
1091.832993
 20
521.39916
 30
0.0
 11
1091.832993
 21
534.39916
 31
0.0
  0
LINE
  8
0
 62
     7
 10
1106.832993
 20
521.39916
 30
0.0
 11
1106.832993
 21
534.39916
 31
0.0
  0
LINE
  8
0
 62
     7
 10
1125.132993
 20
519.64916
 30
0.0
 11
1130.432993
 21
519.64916
 31
0.0
  0
LINE
  8
0
 62
     7
 10
1125.132993
 20
511.14916
 30
0.0
 11
1130.432993
 21
511.14916
 31
0.0
  0
POLYLINE
  8
0
 62
     7
 66
     1
 10
0.0
 20
0.0
 30
0.0
  0
VERTEX
  8
0
 62
     7
 10
1125.132993
 20
521.39916
 30
0.0
  0
VERTEX
  8
0
 62
     7
 10
1128.682993
 20
521.39916
 30
0.0
  0
VERTEX
  8
0
 62
     7
 10
1130.432993
 20
519.64916
 30
0.0
  0
VERTEX
  8
0
 62
     7
 10
1130.432993
 20
511.14916
 30
0.0
  0
VERTEX
  8
0
 62
     7
 10
1128.682993
 20
509.39916
 30
0.0
  0
VERTEX
  8
0
 62
     7
 10
1125.132993
 20
509.39916
 30
0.0
  0
SEQEND
  8
0
 62
     7
  0
POLYLINE
  8
0
 62
     7
 66
     1
 10
0.0
 20
0.0
 30
0.0
  0
VERTEX
  8
0
 62
     7
 10
1048.432993
 20
521.39916
 30
0.0
  0
VERTEX
  8
0
 62
     7
 10
1112.132993
 20
521.39916
 30
0.0
  0
SEQEND
  8
0
 62
     7
  0
POLYLINE
  8
0
 62
     7
 66
     1
 10
0.0
 20
0.0
 30
0.0
  0
VERTEX
  8
0
 62
     7
 10
1112.132993
 20
509.39916
 30
0.0
  0
VERTEX
  8
0
 62
     7
 10
1048.432993
 20
509.39916
 30
0.0
  0
SEQEND
  8
0
 62
     7
  0
LINE
  8
0
 62
     7
 10
1115.132993
 20
504.314041
 30
0.0
 11
1124.505306
 21
504.314041
 31
0.0
  0
LINE
  8
0
 62
     7
 10
1124.505306
 20
526.484278
 30
0.0
 11
1115.132993
 21
526.484278
 31
0.0
  0
LINE
  8
0
 62
     7
 10
1125.132993
 20
506.656603
 30
0.0
 11
1125.132993
 21
524.141717
 31
0.0
  0
ARC
  8
0
 62
     7
 10
1120.447871
 20
524.141717
 30
0.0
 40
4.685122
 50
329.999999
 51
30.000001
  0
ARC
  8
0
 62
     7
 10
1092.191483
 20
515.39916
 30
0.0
 40
32.94151
 50
348.797122
 51
11.202878
  0
ARC
  8
0
 62
     7
 10
1120.447871
 20
506.656603
 30
0.0
 40
4.685122
 50
329.999999
 51
30.000001
  0
ARC
  8
0
 62
     7
 10
1042.11812
 20
524.141717
 30
0.0
 40
4.685122
 50
149.999999
 51
210.000001
  0
ARC
  8
0
 62
     7
 10
1070.374508
 20
515.39916
 30
0.0
 40
32.94151
 50
168.797122
 51
191.202878
  0
ARC
  8
0
 62
     7
 10
1042.11812
 20
506.656603
 30
0.0
 40
4.685122
 50
149.999999
 51
210.000001
  0
LINE
  8
0
 62
     7
 10
1037.432998
 20
524.141717
 30
0.0
 11
1037.432998
 21
506.656603
 31
0.0
  0
POLYLINE
  8
0
 62
     7
 66
     1
 10
0.0
 20
0.0
 30
0.0
  0
VERTEX
  8
0
 62
     7
 10
1038.060686
 20
521.799156
 30
0.0
  0
VERTEX
  8
0
 62
     7
 10
1045.432993
 20
521.799156
 30
0.0
  0
SEQEND
  8
0
 62
     7
  0
POLYLINE
  8
0
 62
     7
 66
     1
 10
0.0
 20
0.0
 30
0.0
  0
VERTEX
  8
0
 62
     7
 10
1045.432993
 20
508.999164
 30
0.0
  0
VERTEX
  8
0
 62
     7
 10
1038.060686
 20
508.999164
 30
0.0
  0
SEQEND
  8
0
 62
     7
  0
LINE
  8
0
 62
     7
 10
1038.060686
 20
504.314041
 30
0.0
 11
1045.432993
 21
504.314041
 31
0.0
  0
LINE
  8
0
 62
     7
 10
1045.432993
 20
526.484278
 30
0.0
 11
1038.060686
 21
526.484278
 31
0.0
  0
LINE
  8
0
 62
     7
 10
1124.505306
 20
508.999164
 30
0.0
 11
1115.132993
 21
508.999164
 31
0.0
  0
LINE
  8
0
 62
     7
 10
1115.132993
 20
521.799156
 30
0.0
 11
1124.505306
 21
521.799156
 31
0.0
  0
LINE
  8
0
 62
     7
 10
1237.732993
 20
519.49916
 30
0.0
 11
1237.732993
 21
432.89916
 31
0.0
  0
LINE
  8
0
 62
     7
 10
1228.332993
 20
544.89916
 30
0.0
 11
1237.532993
 21
544.89916
 31
0.0
  0
LINE
  8
0
 62
     7
 10
1165.432993
 20
547.19916
 30
0.0
 11
1215.632993
 21
547.19916
 31
0.0
  0
LINE
  8
0
 62
     7
 10
1215.632993
 20
569.39916
 30
0.0
 11
1228.332993
 21
569.39916
 31
0.0
  0
LINE
  8
0
 62
     7
 10
1215.632993
 20
569.39916
 30
0.0
 11
1215.632993
 21
547.19916
 31
0.0
  0
LINE
  8
0
 62
     7
 10
1228.332993
 20
569.39916
 30
0.0
 11
1228.332993
 21
563.29916
 31
0.0
  0
LINE
  8
0
 62
     7
 10
1237.532993
 20
544.89916
 30
0.0
 11
1237.532993
 21
519.49916
 31
0.0
  0
LINE
  8
0
 62
     7
 10
1237.532993
 20
519.49916
 30
0.0
 11
1237.732993
 21
519.49916
 31
0.0
  0
LINE
  8
0
 62
     7
 10
1165.432993
 20
531.34916
 30
0.0
 11
1167.832993
 21
531.34916
 31
0.0
  0
LINE
  8
0
 62
     7
 10
1177.127993
 20
526.19916
 30
0.0
 11
1186.732993
 21
526.19916
 31
0.0
  0
LINE
  8
0
 62
     7
 10
1186.732993
 20
547.19916
 30
0.0
 11
1186.732993
 21
526.19916
 31
0.0
  0
LINE
  8
0
 62
     7
 10
1156.398846
 20
533.90916
 30
0.0
 11
1266.363927
 21
533.90916
 31
0.0
  0
LINE
  8
0
 62
     7
 10
1186.732993
 20
539.15916
 30
0.0
 11
1237.532993
 21
539.15916
 31
0.0
  0
LINE
  8
0
 62
     7
 10
1186.732993
 20
528.65916
 30
0.0
 11
1237.532993
 21
528.65916
 31
0.0
  0
LINE
  8
0
 62
     7
 10
1148.032993
 20
530.99416
 30
0.0
 11
1148.032993
 21
512.59416
 31
0.0
  0
LINE
  8
0
 62
     7
 10
1213.132993
 20
567.49916
 30
0.0
 11
1213.132993
 21
549.09916
 31
0.0
  0
LINE
  8
0
 62
     7
 10
1148.032993
 20
530.99416
 30
0.0
 11
1150.532993
 21
530.99416
 31
0.0
  0
LINE
  8
0
 62
     7
 10
1148.032993
 20
512.59416
 30
0.0
 11
1150.532993
 21
512.59416
 31
0.0
  0
LINE
  8
0
 62
     7
 10
1213.132993
 20
567.49916
 30
0.0
 11
1215.632993
 21
567.49916
 31
0.0
  0
LINE
  8
0
 62
     7
 10
1213.132993
 20
549.09916
 30
0.0
 11
1215.632993
 21
549.09916
 31
0.0
  0
LINE
  8
0
 62
     7
 10
1148.032993
 20
521.79416
 30
0.0
 11
1150.532993
 21
523.693334
 31
0.0
  0
LINE
  8
0
 62
     7
 10
1150.532993
 20
521.79416
 30
0.0
 11
1148.032993
 21
519.894027
 31
0.0
  0
LINE
  8
0
 62
     7
 10
1213.132993
 20
558.29916
 30
0.0
 11
1215.632993
 21
560.926542
 31
0.0
  0
LINE
  8
0
 62
     7
 10
1215.632993
 20
558.29916
 30
0.0
 11
1213.132993
 21
555.8608
 31
0.0
  0
ARC
  8
0
 62
     7
 10
1145.870597
 20
528.912962
 30
0.0
 40
4.237604
 50
149.999999
 51
210.000001
  0
ARC
  8
0
 62
     7
 10
1163.934315
 20
521.79416
 30
0.0
 40
22.301322
 50
167.044045
 51
192.955955
  0
ARC
  8
0
 62
     7
 10
1145.870597
 20
514.675357
 30
0.0
 40
4.237604
 50
149.999999
 51
210.000001
  0
LINE
  8
0
 62
     7
 10
1176.532993
 20
526.79416
 30
0.0
 11
1176.532993
 21
516.79416
 31
0.0
  0
LINE
  8
0
 62
     7
 10
1150.532993
 20
525.29416
 30
0.0
 11
1178.032993
 21
525.29416
 31
0.0
  0
LINE
  8
0
 62
     7
 10
1150.532993
 20
518.29416
 30
0.0
 11
1178.032993
 21
518.29416
 31
0.0
  0
LINE
  8
0
 62
     7
 10
1141.632993
 20
528.912962
 30
0.0
 11
1141.632993
 21
514.675357
 31
0.0
  0
POLYLINE
  8
0
 62
     7
 66
     1
 10
0.0
 20
0.0
 30
0.0
  0
VERTEX
  8
0
 62
     7
 10
1148.032993
 20
516.79416
 30
0.0
  0
VERTEX
  8
0
 62
     7
 10
1142.200725
 20
516.79416
 30
0.0
  0
SEQEND
  8
0
 62
     7
  0
POLYLINE
  8
0
 62
     7
 66
     1
 10
0.0
 20
0.0
 30
0.0
  0
VERTEX
  8
0
 62
     7
 10
1142.200725
 20
526.79416
 30
0.0
  0
VERTEX
  8
0
 62
     7
 10
1148.032993
 20
526.79416
 30
0.0
  0
SEQEND
  8
0
 62
     7
  0
POLYLINE
  8
0
 62
     7
 66
     1
 10
0.0
 20
0.0
 30
0.0
  0
VERTEX
  8
0
 62
     7
 10
1150.532993
 20
526.79416
 30
0.0
  0
VERTEX
  8
0
 62
     7
 10
1176.532993
 20
526.79416
 30
0.0
  0
VERTEX
  8
0
 62
     7
 10
1178.032993
 20
525.29416
 30
0.0
  0
VERTEX
  8
0
 62
     7
 10
1178.032993
 20
518.29416
 30
0.0
  0
VERTEX
  8
0
 62
     7
 10
1176.532993
 20
516.79416
 30
0.0
  0
VERTEX
  8
0
 62
     7
 10
1150.532993
 20
516.79416
 30
0.0
  0
SEQEND
  8
0
 62
     7
  0
LINE
  8
0
 62
     7
 10
1148.032993
 20
531.031764
 30
0.0
 11
1142.200725
 21
531.031764
 31
0.0
  0
LINE
  8
0
 62
     7
 10
1142.200725
 20
512.556555
 30
0.0
 11
1148.032993
 21
512.556555
 31
0.0
  0
LINE
  8
0
 62
     7
 10
1207.300725
 20
549.061555
 30
0.0
 11
1213.132993
 21
549.061555
 31
0.0
  0
LINE
  8
0
 62
     7
 10
1213.132993
 20
567.536764
 30
0.0
 11
1207.300725
 21
567.536764
 31
0.0
  0
POLYLINE
  8
0
 62
     7
 66
     1
 10
0.0
 20
0.0
 30
0.0
  0
VERTEX
  8
0
 62
     7
 10
1207.300725
 20
563.29916
 30
0.0
  0
VERTEX
  8
0
 62
     7
 10
1213.132993
 20
563.29916
 30
0.0
  0
SEQEND
  8
0
 62
     7
  0
POLYLINE
  8
0
 62
     7
 66
     1
 10
0.0
 20
0.0
 30
0.0
  0
VERTEX
  8
0
 62
     7
 10
1213.132993
 20
553.29916
 30
0.0
  0
VERTEX
  8
0
 62
     7
 10
1207.300725
 20
553.29916
 30
0.0
  0
SEQEND
  8
0
 62
     7
  0
LINE
  8
0
 62
     7
 10
1206.732993
 20
565.417962
 30
0.0
 11
1206.732993
 21
551.180357
 31
0.0
  0
ARC
  8
0
 62
     7
 10
1210.970597
 20
551.180357
 30
0.0
 40
4.237604
 50
149.999999
 51
210.000001
  0
ARC
  8
0
 62
     7
 10
1229.034315
 20
558.29916
 30
0.0
 40
22.301322
 50
167.044045
 51
192.955955
  0
ARC
  8
0
 62
     7
 10
1210.970597
 20
565.417962
 30
0.0
 40
4.237604
 50
149.999999
 51
210.000001
  0
LINE
  8
0
 62
     7
 10
1224.907733
 20
554.79916
 30
0.0
 11
1250.332993
 21
554.79916
 31
0.0
  0
LINE
  8
0
 62
     7
 10
1224.907733
 20
561.79916
 30
0.0
 11
1250.332993
 21
561.79916
 31
0.0
  0
LINE
  8
0
 62
     7
 10
1248.832993
 20
563.29916
 30
0.0
 11
1248.832993
 21
553.29916
 31
0.0
  0
LINE
  8
0
 62
     7
 10
1167.832993
 20
516.79416
 30
0.0
 11
1167.832993
 21
432.89916
 31
0.0
  0
LINE
  8
0
 62
     7
 10
1261.410251
 20
547.84916
 30
0.0
 11
1261.410251
 21
432.89916
 31
0.0
  0
LINE
  8
0
 62
     7
 10
1239.910251
 20
541.29916
 30
0.0
 11
1239.910251
 21
432.89916
 31
0.0
  0
LINE
  8
0
 62
     7
 10
1239.910251
 20
541.29916
 30
0.0
 11
1253.910251
 21
541.29916
 31
0.0
  0
LINE
  8
0
 62
     7
 10
1253.910251
 20
547.84916
 30
0.0
 11
1261.410251
 21
547.84916
 31
0.0
  0
LINE
  8
0
 62
     7
 10
1253.910251
 20
544.49916
 30
0.0
 11
1261.410251
 21
544.49916
 31
0.0
  0
LINE
  8
0
 62
     7
 10
1253.910251
 20
547.84916
 30
0.0
 11
1253.910251
 21
541.29916
 31
0.0
  0
LINE
  8
0
 62
     7
 10
1254.410251
 20
538.90916
 30
0.0
 11
1254.410251
 21
528.90916
 31
0.0
  0
LINE
  8
0
 62
     7
 10
1239.910251
 20
537.40916
 30
0.0
 11
1261.410251
 21
537.40916
 31
0.0
  0
LINE
  8
0
 62
     7
 10
1239.910251
 20
530.40916
 30
0.0
 11
1261.410251
 21
530.40916
 31
0.0
  0
POLYLINE
  8
0
 62
     7
 66
     1
 10
0.0
 20
0.0
 30
0.0
  0
VERTEX
  8
0
 62
     7
 10
1239.910251
 20
538.90916
 30
0.0
  0
VERTEX
  8
0
 62
     7
 10
1254.410251
 20
538.90916
 30
0.0
  0
VERTEX
  8
0
 62
     7
 10
1255.910251
 20
537.40916
 30
0.0
  0
VERTEX
  8
0
 62
     7
 10
1255.910251
 20
530.40916
 30
0.0
  0
VERTEX
  8
0
 62
     7
 10
1254.410251
 20
528.90916
 30
0.0
  0
VERTEX
  8
0
 62
     7
 10
1239.910251
 20
528.90916
 30
0.0
  0
SEQEND
  8
0
 62
     7
  0
LINE
  8
0
 62
     7
 10
1167.832993
 20
442.44916
 30
0.0
 11
1237.732993
 21
442.44916
 31
0.0
  0
LINE
  8
0
 62
     7
 10
1239.910251
 20
442.44916
 30
0.0
 11
1261.410251
 21
442.44916
 31
0.0
  0
LINE
  8
0
 62
     7
 10
1336.314111
 20
486.89916
 30
0.0
 11
1417.132993
 21
486.89916
 31
0.0
  0
LINE
  8
0
 62
     7
 10
1269.432993
 20
523.89916
 30
0.0
 11
1269.432993
 21
432.89916
 31
0.0
  0
LINE
  8
0
 62
     7
 10
1307.532993
 20
523.89916
 30
0.0
 11
1307.532993
 21
515.680278
 31
0.0
  0
LINE
  8
0
 62
     7
 10
1269.432993
 20
523.89916
 30
0.0
 11
1274.110251
 21
523.89916
 31
0.0
  0
LINE
  8
0
 62
     7
 10
1269.432993
 20
521.14916
 30
0.0
 11
1307.532993
 21
521.14916
 31
0.0
  0
LINE
  8
0
 62
     7
 10
1302.132993
 20
496.39916
 30
0.0
 11
1302.132993
 21
432.89916
 31
0.0
  0
LINE
  8
0
 62
     7
 10
1289.432993
 20
502.89916
 30
0.0
 11
1289.432993
 21
432.89916
 31
0.0
  0
LINE
  8
0
 62
     7
 10
1269.432993
 20
507.89916
 30
0.0
 11
1284.432993
 21
507.89916
 31
0.0
  0
LINE
  8
0
 62
     7
 10
1333.273552
 20
488.158601
 30
0.0
 11
1308.792434
 21
512.639719
 31
0.0
  0
ARC
  8
0
 62
     7
 10
1336.314111
 20
491.19916
 30
0.0
 40
4.3
 50
225.0
 51
270.0
  0
ARC
  8
0
 62
     7
 10
1311.832993
 20
515.680278
 30
0.0
 40
4.3
 50
180.0
 51
225.0
  0
LINE
  8
0
  6
HIDDEN
 62
     7
 10
1020.132993
 20
471.411519
 30
0.0
 11
1135.132993
 21
464.026519
 31
0.0
  0
LINE
  8
0
  6
HIDDEN
 62
     7
 10
1020.132993
 20
465.39916
 30
0.0
 11
1135.132993
 21
458.01416
 31
0.0
  0
LINE
  8
0
 62
     7
 10
1237.532993
 20
551.84916
 30
0.0
 11
1237.532993
 21
544.89916
 31
0.0
  0
LINE
  8
0
 62
     7
 10
1235.332993
 20
569.39916
 30
0.0
 11
1235.332993
 21
563.29916
 31
0.0
  0
LINE
  8
0
 62
     7
 10
1228.332993
 20
569.39916
 30
0.0
 11
1235.332993
 21
569.39916
 31
0.0
  0
LINE
  8
0
 62
     7
 10
1235.332993
 20
551.84916
 30
0.0
 11
1237.532993
 21
551.84916
 31
0.0
  0
LINE
  8
0
 62
     7
 10
1228.332993
 20
553.29916
 30
0.0
 11
1228.332993
 21
544.89916
 31
0.0
  0
LINE
  8
0
 62
     7
 10
1235.332993
 20
553.29916
 30
0.0
 11
1235.332993
 21
551.84916
 31
0.0
  0
LINE
  8
0
 62
     7
 10
1325.732993
 20
561.44916
 30
0.0
 11
1325.732993
 21
556.923536
 31
0.0
  0
LINE
  8
0
 62
     7
 10
1235.332993
 20
569.39916
 30
0.0
 11
1267.332993
 21
569.39916
 31
0.0
  0
LINE
  8
0
 62
     7
 10
1272.782993
 20
563.94916
 30
0.0
 11
1323.232993
 21
563.94916
 31
0.0
  0
LINE
  8
0
 62
     7
 10
1267.332993
 20
569.39916
 30
0.0
 11
1272.782993
 21
563.94916
 31
0.0
  0
LINE
  8
0
 62
     7
 10
1306.232993
 20
554.29916
 30
0.0
 11
1308.732993
 21
554.29916
 31
0.0
  0
LINE
  8
0
 62
     7
 10
1306.232993
 20
554.29916
 30
0.0
 11
1306.232993
 21
549.44916
 31
0.0
  0
LINE
  8
0
 62
     7
 10
1308.732993
 20
554.29916
 30
0.0
 11
1308.732993
 21
551.333015
 31
0.0
  0
LINE
  8
0
 62
     7
 10
1250.732993
 20
550.84916
 30
0.0
 11
1250.732993
 21
545.39916
 31
0.0
  0
LINE
  8
0
 62
     7
 10
1250.732993
 20
550.57416
 30
0.0
 11
1306.279726
 21
550.57416
 31
0.0
  0
LINE
  8
0
 62
     7
 10
1250.732993
 20
545.39916
 30
0.0
 11
1253.910251
 21
545.39916
 31
0.0
  0
LINE
  8
0
 62
     7
 10
1237.532993
 20
550.84916
 30
0.0
 11
1250.732993
 21
550.84916
 31
0.0
  0
LINE
  8
0
 62
     7
 10
1323.232993
 20
563.94916
 30
0.0
 11
1325.732993
 21
561.44916
 31
0.0
  0
LINE
  8
0
 62
     7
 10
1261.410251
 20
525.84916
 30
0.0
 11
1274.110251
 21
525.84916
 31
0.0
  0
LINE
  8
0
 62
     7
 10
1263.760251
 20
549.44916
 30
0.0
 11
1271.760251
 21
549.44916
 31
0.0
  0
LINE
  8
0
 62
     7
 10
1261.410251
 20
542.49916
 30
0.0
 11
1263.760251
 21
542.49916
 31
0.0
  0
LINE
  8
0
 62
     7
 10
1263.760251
 20
544.49916
 30
0.0
 11
1271.760251
 21
544.49916
 31
0.0
  0
LINE
  8
0
 62
     7
 10
1263.760251
 20
549.44916
 30
0.0
 11
1263.760251
 21
525.84916
 31
0.0
  0
LINE
  8
0
 62
     7
 10
1271.760251
 20
549.44916
 30
0.0
 11
1271.760251
 21
525.84916
 31
0.0
  0
LINE
  8
0
 62
     7
 10
1274.110251
 20
542.49916
 30
0.0
 11
1274.110251
 21
521.64916
 31
0.0
  0
LINE
  8
0
 62
     7
 10
1274.110251
 20
542.39916
 30
0.0
 11
1276.110251
 21
542.39916
 31
0.0
  0
LINE
  8
0
 62
     7
 10
1276.110251
 20
521.64916
 30
0.0
 11
1274.110251
 21
521.64916
 31
0.0
  0
LINE
  8
0
 62
     7
 10
1274.110251
 20
524.52416
 30
0.0
 11
1276.110251
 21
524.52416
 31
0.0
  0
LINE
  8
0
 62
     7
 10
1276.110251
 20
542.49916
 30
0.0
 11
1276.110251
 21
521.64916
 31
0.0
  0
LINE
  8
0
 62
     7
 10
1276.110251
 20
542.49916
 30
0.0
 11
1278.210251
 21
542.49916
 31
0.0
  0
LINE
  8
0
 62
     7
 10
1278.210251
 20
549.44916
 30
0.0
 11
1280.510251
 21
549.44916
 31
0.0
  0
LINE
  8
0
 62
     7
 10
1278.210251
 20
544.49916
 30
0.0
 11
1280.510251
 21
544.49916
 31
0.0
  0
LINE
  8
0
 62
     7
 10
1278.210251
 20
549.44916
 30
0.0
 11
1278.210251
 21
525.84916
 31
0.0
  0
LINE
  8
0
 62
     7
 10
1280.510251
 20
549.44916
 30
0.0
 11
1280.510251
 21
525.84916
 31
0.0
  0
LINE
  8
0
 62
     7
 10
1276.110251
 20
525.84916
 30
0.0
 11
1314.310251
 21
525.84916
 31
0.0
  0
LINE
  8
0
 62
     7
 10
1276.110251
 20
523.89916
 30
0.0
 11
1282.610251
 21
523.89916
 31
0.0
  0
LINE
  8
0
 62
     7
 10
1271.760251
 20
542.49916
 30
0.0
 11
1274.110251
 21
542.49916
 31
0.0
  0
LINE
  8
0
 62
     7
 10
1271.760251
 20
545.39916
 30
0.0
 11
1278.210251
 21
545.39916
 31
0.0
  0
LINE
  8
0
 62
     7
 10
1280.510251
 20
542.49916
 30
0.0
 11
1282.610251
 21
542.49916
 31
0.0
  0
LINE
  8
0
 62
     7
 10
1289.010251
 20
542.49916
 30
0.0
 11
1291.110251
 21
542.49916
 31
0.0
  0
LINE
  8
0
 62
     7
 10
1289.010251
 20
549.44916
 30
0.0
 11
1289.010251
 21
525.84916
 31
0.0
  0
LINE
  8
0
 62
     7
 10
1286.710251
 20
549.44916
 30
0.0
 11
1286.710251
 21
525.84916
 31
0.0
  0
LINE
  8
0
 62
     7
 10
1286.710251
 20
544.49916
 30
0.0
 11
1289.010251
 21
544.49916
 31
0.0
  0
LINE
  8
0
 62
     7
 10
1286.710251
 20
549.44916
 30
0.0
 11
1289.010251
 21
549.44916
 31
0.0
  0
LINE
  8
0
 62
     7
 10
1284.610251
 20
542.49916
 30
0.0
 11
1286.710251
 21
542.49916
 31
0.0
  0
LINE
  8
0
 62
     7
 10
1284.610251
 20
542.49916
 30
0.0
 11
1284.610251
 21
521.64916
 31
0.0
  0
LINE
  8
0
 62
     7
 10
1282.610251
 20
524.52416
 30
0.0
 11
1284.610251
 21
524.52416
 31
0.0
  0
LINE
  8
0
 62
     7
 10
1284.610251
 20
521.64916
 30
0.0
 11
1282.610251
 21
521.64916
 31
0.0
  0
LINE
  8
0
 62
     7
 10
1282.610251
 20
542.39916
 30
0.0
 11
1284.610251
 21
542.39916
 31
0.0
  0
LINE
  8
0
 62
     7
 10
1282.610251
 20
542.49916
 30
0.0
 11
1282.610251
 21
521.64916
 31
0.0
  0
LINE
  8
0
 62
     7
 10
1297.510251
 20
542.49916
 30
0.0
 11
1299.610251
 21
542.49916
 31
0.0
  0
LINE
  8
0
 62
     7
 10
1297.510251
 20
549.44916
 30
0.0
 11
1297.510251
 21
525.84916
 31
0.0
  0
LINE
  8
0
 62
     7
 10
1295.210251
 20
549.44916
 30
0.0
 11
1295.210251
 21
525.84916
 31
0.0
  0
LINE
  8
0
 62
     7
 10
1295.210251
 20
544.49916
 30
0.0
 11
1297.510251
 21
544.49916
 31
0.0
  0
LINE
  8
0
 62
     7
 10
1295.210251
 20
549.44916
 30
0.0
 11
1297.510251
 21
549.44916
 31
0.0
  0
LINE
  8
0
 62
     7
 10
1293.110251
 20
542.49916
 30
0.0
 11
1295.210251
 21
542.49916
 31
0.0
  0
LINE
  8
0
 62
     7
 10
1293.110251
 20
542.49916
 30
0.0
 11
1293.110251
 21
521.64916
 31
0.0
  0
LINE
  8
0
 62
     7
 10
1291.110251
 20
524.52416
 30
0.0
 11
1293.110251
 21
524.52416
 31
0.0
  0
LINE
  8
0
 62
     7
 10
1293.110251
 20
521.64916
 30
0.0
 11
1291.110251
 21
521.64916
 31
0.0
  0
LINE
  8
0
 62
     7
 10
1291.110251
 20
542.39916
 30
0.0
 11
1293.110251
 21
542.39916
 31
0.0
  0
LINE
  8
0
 62
     7
 10
1291.110251
 20
542.49916
 30
0.0
 11
1291.110251
 21
521.64916
 31
0.0
  0
LINE
  8
0
 62
     7
 10
1301.610251
 20
542.49916
 30
0.0
 11
1301.610251
 21
521.64916
 31
0.0
  0
LINE
  8
0
 62
     7
 10
1299.610251
 20
524.52416
 30
0.0
 11
1301.610251
 21
524.52416
 31
0.0
  0
LINE
  8
0
 62
     7
 10
1301.610251
 20
521.64916
 30
0.0
 11
1299.610251
 21
521.64916
 31
0.0
  0
LINE
  8
0
 62
     7
 10
1299.610251
 20
542.39916
 30
0.0
 11
1301.610251
 21
542.39916
 31
0.0
  0
LINE
  8
0
 62
     7
 10
1299.610251
 20
542.49916
 30
0.0
 11
1299.610251
 21
521.64916
 31
0.0
  0
LINE
  8
0
 62
     7
 10
1311.960251
 20
542.49916
 30
0.0
 11
1314.310251
 21
542.49916
 31
0.0
  0
LINE
  8
0
 62
     7
 10
1311.960251
 20
549.44916
 30
0.0
 11
1311.960251
 21
525.84916
 31
0.0
  0
LINE
  8
0
 62
     7
 10
1303.960251
 20
549.44916
 30
0.0
 11
1303.960251
 21
525.84916
 31
0.0
  0
LINE
  8
0
 62
     7
 10
1303.960251
 20
544.49916
 30
0.0
 11
1311.960251
 21
544.49916
 31
0.0
  0
LINE
  8
0
 62
     7
 10
1301.610251
 20
542.49916
 30
0.0
 11
1303.960251
 21
542.49916
 31
0.0
  0
LINE
  8
0
 62
     7
 10
1303.960251
 20
549.44916
 30
0.0
 11
1311.960251
 21
549.44916
 31
0.0
  0
LINE
  8
0
 62
     7
 10
1301.610251
 20
525.84916
 30
0.0
 11
1328.510251
 21
525.84916
 31
0.0
  0
LINE
  8
0
 62
     7
 10
1314.310251
 20
551.89916
 30
0.0
 11
1314.310251
 21
525.84916
 31
0.0
  0
LINE
  8
0
 62
     7
 10
1328.510251
 20
551.89916
 30
0.0
 11
1328.510251
 21
525.84916
 31
0.0
  0
LINE
  8
0
 62
     7
 10
1314.310251
 20
551.89916
 30
0.0
 11
1315.810251
 21
553.39916
 31
0.0
  0
LINE
  8
0
 62
     7
 10
1328.510251
 20
551.89916
 30
0.0
 11
1327.010251
 21
553.39916
 31
0.0
  0
LINE
  8
0
 62
     7
 10
1328.510251
 20
543.39916
 30
0.0
 11
1331.599567
 21
543.39916
 31
0.0
  0
LINE
  8
0
 62
     7
 10
1317.599587
 20
556.923536
 30
0.0
 11
1331.599567
 21
556.923536
 31
0.0
  0
LINE
  8
0
 62
     7
 10
1331.599567
 20
556.923536
 30
0.0
 11
1331.599567
 21
543.39916
 31
0.0
  0
LINE
  8
0
 62
     7
 10
1335.118279
 20
532.251425
 30
0.0
 11
1335.118279
 21
550.546894
 31
0.0
  0
LINE
  8
0
 62
     7
 10
1335.118279
 20
550.546894
 30
0.0
 11
1331.599567
 21
550.546894
 31
0.0
  0
LINE
  8
0
 62
     7
 10
1317.599587
 20
553.39916
 30
0.0
 11
1317.599587
 21
556.923536
 31
0.0
  0
LINE
  8
0
 62
     7
 10
1335.118279
 20
532.251425
 30
0.0
 11
1328.510251
 21
532.251425
 31
0.0
  0
LINE
  8
0
 62
     7
 10
1315.810251
 20
553.39916
 30
0.0
 11
1327.010251
 21
553.39916
 31
0.0
  0
LINE
  8
0
 62
     7
 10
1297.510251
 20
545.39916
 30
0.0
 11
1303.960251
 21
545.39916
 31
0.0
  0
LINE
  8
0
 62
     7
 10
1224.907733
 20
563.29916
 30
0.0
 11
1224.907733
 21
553.29916
 31
0.0
  0
POLYLINE
  8
0
 62
     7
 66
     1
 10
0.0
 20
0.0
 30
0.0
  0
VERTEX
  8
0
 62
     7
 10
1215.632993
 20
563.29916
 30
0.0
  0
VERTEX
  8
0
 62
     7
 10
1248.832993
 20
563.29916
 30
0.0
  0
VERTEX
  8
0
 62
     7
 10
1250.332993
 20
561.79916
 30
0.0
  0
VERTEX
  8
0
 62
     7
 10
1250.332993
 20
554.79916
 30
0.0
  0
VERTEX
  8
0
 62
     7
 10
1248.832993
 20
553.29916
 30
0.0
  0
VERTEX
  8
0
 62
     7
 10
1215.632993
 20
553.29916
 30
0.0
  0
SEQEND
  8
0
 62
     7
  0
LINE
  8
0
 62
     7
 10
1224.907733
 20
561.79916
 30
0.0
 11
1223.407733
 21
563.29916
 31
0.0
  0
LINE
  8
0
 62
     7
 10
1224.907733
 20
554.79916
 30
0.0
 11
1223.407733
 21
553.29916
 31
0.0
  0
LINE
  8
0
 62
     7
 10
1261.410251
 20
545.39916
 30
0.0
 11
1263.760251
 21
545.39916
 31
0.0
  0
LINE
  8
0
 62
     7
 10
1280.510251
 20
545.39916
 30
0.0
 11
1286.710251
 21
545.39916
 31
0.0
  0
LINE
  8
0
 62
     7
 10
1289.010251
 20
545.39916
 30
0.0
 11
1295.210251
 21
545.39916
 31
0.0
  0
LINE
  8
0
 62
     7
 10
1301.610251
 20
523.89916
 30
0.0
 11
1307.532993
 21
523.89916
 31
0.0
  0
LINE
  8
0
 62
     7
 10
1293.110251
 20
523.89916
 30
0.0
 11
1299.610251
 21
523.89916
 31
0.0
  0
LINE
  8
0
 62
     7
 10
1284.610251
 20
523.89916
 30
0.0
 11
1291.110251
 21
523.89916
 31
0.0
  0
LINE
  8
0
 62
     7
 10
1403.132993
 20
432.89916
 30
0.0
 11
1445.132993
 21
432.89916
 31
0.0
  0
LINE
  8
0
 62
     7
 10
472.134942
 20
432.89916
 30
0.0
 11
446.134942
 21
432.89916
 31
0.0
  0
LINE
  8
0
 62
     7
 10
459.134942
 20
445.89916
 30
0.0
 11
459.134942
 21
419.89916
 31
0.0
  0
LINE
  8
0
 62
     7
 10
517.134942
 20
432.89916
 30
0.0
 11
692.134942
 21
432.89916
 31
0.0
  0
ARC
  8
0
 62
     7
 10
237.575541
 20
429.917962
 30
0.0
 40
2.118802
 50
239.999999
 51
300.000001
  0
ARC
  8
0
 62
     7
 10
241.134942
 20
438.949821
 30
0.0
 40
11.150661
 50
257.044045
 51
282.955955
  0
ARC
  8
0
 62
     7
 10
244.694343
 20
429.917962
 30
0.0
 40
2.118802
 50
239.999999
 51
300.000001
  0
LINE
  8
0
 62
     7
 10
238.634942
 20
446.49916
 30
0.0
 11
243.634942
 21
446.49916
 31
0.0
  0
LINE
  8
0
 62
     7
 10
239.434942
 20
441.79916
 30
0.0
 11
239.434942
 21
447.29916
 31
0.0
  0
LINE
  8
0
 62
     7
 10
242.834942
 20
441.79916
 30
0.0
 11
242.834942
 21
447.29916
 31
0.0
  0
LINE
  8
0
 62
     7
 10
237.575541
 20
427.79916
 30
0.0
 11
244.694343
 21
427.79916
 31
0.0
  0
LINE
  8
0
 62
     7
 10
236.134942
 20
435.79916
 30
0.0
 11
246.134942
 21
435.79916
 31
0.0
  0
LINE
  8
0
 62
     7
 10
245.734942
 20
435.79916
 30
0.0
 11
245.734942
 21
434.49916
 31
0.0
  0
LINE
  8
0
 62
     7
 10
236.534942
 20
435.79916
 30
0.0
 11
236.534942
 21
434.49916
 31
0.0
  0
LINE
  8
0
 62
     7
 10
245.753744
 20
428.083025
 30
0.0
 11
245.753744
 21
431.29916
 31
0.0
  0
LINE
  8
0
 62
     7
 10
236.51614
 20
431.29916
 30
0.0
 11
236.51614
 21
428.083025
 31
0.0
  0
LINE
  8
0
 62
     7
 10
238.634942
 20
428.083025
 30
0.0
 11
238.634942
 21
431.29916
 31
0.0
  0
LINE
  8
0
 62
     7
 10
238.634942
 20
446.49916
 30
0.0
 11
239.434942
 21
447.29916
 31
0.0
  0
LINE
  8
0
 62
     7
 10
239.434942
 20
447.29916
 30
0.0
 11
242.834942
 21
447.29916
 31
0.0
  0
LINE
  8
0
 62
     7
 10
242.834942
 20
447.29916
 30
0.0
 11
243.634942
 21
446.49916
 31
0.0
  0
LINE
  8
0
 62
     7
 10
243.634942
 20
446.49916
 30
0.0
 11
243.634942
 21
441.79916
 31
0.0
  0
LINE
  8
0
 62
     7
 10
237.134942
 20
441.79916
 30
0.0
 11
245.134942
 21
441.79916
 31
0.0
  0
LINE
  8
0
 62
     7
 10
237.134942
 20
441.79916
 30
0.0
 11
236.134942
 21
435.79916
 31
0.0
  0
LINE
  8
0
 62
     7
 10
245.134942
 20
441.79916
 30
0.0
 11
246.134942
 21
435.79916
 31
0.0
  0
ARC
  8
0
 62
     7
 10
249.634942
 20
443.79916
 30
0.0
 40
4.0
 50
309.107426
 51
168.281483
  0
ARC
  8
0
 62
     7
 10
232.634942
 20
443.79916
 30
0.0
 40
4.0
 50
11.718517
 51
230.892574
  0
LINE
  8
0
 62
     7
 10
236.134942
 20
435.79916
 30
0.0
 11
230.111836
 21
440.695301
 31
0.0
  0
LINE
  8
0
 62
     7
 10
237.134942
 20
441.79916
 30
0.0
 11
236.551571
 21
444.611575
 31
0.0
  0
LINE
  8
0
 62
     7
 10
246.134942
 20
435.79916
 30
0.0
 11
252.158047
 21
440.695301
 31
0.0
  0
LINE
  8
0
 62
     7
 10
245.134942
 20
441.79916
 30
0.0
 11
245.718313
 21
444.611575
 31
0.0
  0
LINE
  8
0
 62
     7
 10
238.634942
 20
441.79916
 30
0.0
 11
238.634942
 21
446.49916
 31
0.0
  0
LINE
  8
0
 62
     7
 10
243.634942
 20
431.29916
 30
0.0
 11
243.634942
 21
428.083025
 31
0.0
  0
ARC
  8
0
 62
     7
 10
673.575541
 20
429.917962
 30
0.0
 40
2.118802
 50
239.999999
 51
300.000001
  0
ARC
  8
0
 62
     7
 10
677.134942
 20
438.949821
 30
0.0
 40
11.150661
 50
257.044045
 51
282.955955
  0
ARC
  8
0
 62
     7
 10
680.694343
 20
429.917962
 30
0.0
 40
2.118802
 50
239.999999
 51
300.000001
  0
LINE
  8
0
 62
     7
 10
674.634942
 20
446.49916
 30
0.0
 11
679.634942
 21
446.49916
 31
0.0
  0
LINE
  8
0
 62
     7
 10
675.434942
 20
441.79916
 30
0.0
 11
675.434942
 21
447.29916
 31
0.0
  0
LINE
  8
0
 62
     7
 10
678.834942
 20
441.79916
 30
0.0
 11
678.834942
 21
447.29916
 31
0.0
  0
LINE
  8
0
 62
     7
 10
673.575541
 20
427.79916
 30
0.0
 11
680.694343
 21
427.79916
 31
0.0
  0
LINE
  8
0
 62
     7
 10
672.134942
 20
435.79916
 30
0.0
 11
682.134942
 21
435.79916
 31
0.0
  0
LINE
  8
0
 62
     7
 10
681.734942
 20
435.79916
 30
0.0
 11
681.734942
 21
434.49916
 31
0.0
  0
LINE
  8
0
 62
     7
 10
672.534942
 20
435.79916
 30
0.0
 11
672.534942
 21
434.49916
 31
0.0
  0
LINE
  8
0
 62
     7
 10
681.753744
 20
428.083025
 30
0.0
 11
681.753744
 21
431.29916
 31
0.0
  0
LINE
  8
0
 62
     7
 10
672.51614
 20
431.29916
 30
0.0
 11
672.51614
 21
428.083025
 31
0.0
  0
LINE
  8
0
 62
     7
 10
674.634942
 20
428.083025
 30
0.0
 11
674.634942
 21
431.29916
 31
0.0
  0
LINE
  8
0
 62
     7
 10
674.634942
 20
446.49916
 30
0.0
 11
675.434942
 21
447.29916
 31
0.0
  0
LINE
  8
0
 62
     7
 10
675.434942
 20
447.29916
 30
0.0
 11
678.834942
 21
447.29916
 31
0.0
  0
LINE
  8
0
 62
     7
 10
678.834942
 20
447.29916
 30
0.0
 11
679.634942
 21
446.49916
 31
0.0
  0
LINE
  8
0
 62
     7
 10
679.634942
 20
446.49916
 30
0.0
 11
679.634942
 21
441.79916
 31
0.0
  0
LINE
  8
0
 62
     7
 10
673.134942
 20
441.79916
 30
0.0
 11
681.134942
 21
441.79916
 31
0.0
  0
LINE
  8
0
 62
     7
 10
673.134942
 20
441.79916
 30
0.0
 11
672.134942
 21
435.79916
 31
0.0
  0
LINE
  8
0
 62
     7
 10
681.134942
 20
441.79916
 30
0.0
 11
682.134942
 21
435.79916
 31
0.0
  0
ARC
  8
0
 62
     7
 10
685.634942
 20
443.79916
 30
0.0
 40
4.0
 50
309.107426
 51
168.281483
  0
ARC
  8
0
 62
     7
 10
668.634942
 20
443.79916
 30
0.0
 40
4.0
 50
11.718517
 51
230.892574
  0
LINE
  8
0
 62
     7
 10
672.134942
 20
435.79916
 30
0.0
 11
666.111836
 21
440.695301
 31
0.0
  0
LINE
  8
0
 62
     7
 10
673.134942
 20
441.79916
 30
0.0
 11
672.551571
 21
444.611575
 31
0.0
  0
LINE
  8
0
 62
     7
 10
682.134942
 20
435.79916
 30
0.0
 11
688.158047
 21
440.695301
 31
0.0
  0
LINE
  8
0
 62
     7
 10
681.134942
 20
441.79916
 30
0.0
 11
681.718313
 21
444.611575
 31
0.0
  0
LINE
  8
0
 62
     7
 10
674.634942
 20
441.79916
 30
0.0
 11
674.634942
 21
446.49916
 31
0.0
  0
LINE
  8
0
 62
     7
 10
679.634942
 20
431.29916
 30
0.0
 11
679.634942
 21
428.083025
 31
0.0
  0
ARC
  8
0
 62
     7
 10
1116.573592
 20
429.917962
 30
0.0
 40
2.118802
 50
239.999999
 51
300.000001
  0
ARC
  8
0
 62
     7
 10
1120.132993
 20
438.949821
 30
0.0
 40
11.150661
 50
257.044045
 51
282.955955
  0
ARC
  8
0
 62
     7
 10
1123.692394
 20
429.917962
 30
0.0
 40
2.118802
 50
239.999999
 51
300.000001
  0
LINE
  8
0
 62
     7
 10
1116.573592
 20
427.79916
 30
0.0
 11
1123.692394
 21
427.79916
 31
0.0
  0
LINE
  8
0
 62
     7
 10
1124.751795
 20
428.083025
 30
0.0
 11
1124.751795
 21
431.29916
 31
0.0
  0
LINE
  8
0
 62
     7
 10
1115.514191
 20
431.29916
 30
0.0
 11
1115.514191
 21
428.083025
 31
0.0
  0
LINE
  8
0
 62
     7
 10
1117.632993
 20
428.083025
 30
0.0
 11
1117.632993
 21
431.29916
 31
0.0
  0
LINE
  8
0
 62
     7
 10
1122.632993
 20
431.29916
 30
0.0
 11
1122.632993
 21
428.083025
 31
0.0
  0
LINE
  8
0
 62
     7
 10
1319.632993
 20
431.29916
 30
0.0
 11
1319.632993
 21
428.083025
 31
0.0
  0
LINE
  8
0
 62
     7
 10
1314.632993
 20
428.083025
 30
0.0
 11
1314.632993
 21
431.29916
 31
0.0
  0
LINE
  8
0
 62
     7
 10
1312.514191
 20
431.29916
 30
0.0
 11
1312.514191
 21
428.083025
 31
0.0
  0
LINE
  8
0
 62
     7
 10
1321.751795
 20
428.083025
 30
0.0
 11
1321.751795
 21
431.29916
 31
0.0
  0
LINE
  8
0
 62
     7
 10
1313.573592
 20
427.79916
 30
0.0
 11
1320.692394
 21
427.79916
 31
0.0
  0
ARC
  8
0
 62
     7
 10
1320.692394
 20
429.917962
 30
0.0
 40
2.118802
 50
239.999999
 51
300.000001
  0
ARC
  8
0
 62
     7
 10
1317.132993
 20
438.949821
 30
0.0
 40
11.150661
 50
257.044045
 51
282.955955
  0
ARC
  8
0
 62
     7
 10
1313.573592
 20
429.917962
 30
0.0
 40
2.118802
 50
239.999999
 51
300.000001
  0
LINE
  8
0
 62
     7
 10
995.132993
 20
307.89916
 30
0.0
 11
995.132993
 21
217.89916
 31
0.0
  0
LINE
  8
0
 62
     7
 10
995.132993
 20
217.89916
 30
0.0
 11
1025.132993
 21
217.89916
 31
0.0
  0
LINE
  8
0
 62
     7
 10
995.132993
 20
307.89916
 30
0.0
 11
1025.132993
 21
307.89916
 31
0.0
  0
LINE
  8
0
  6
HIDDEN
 62
     7
 10
1012.132993
 20
159.49916
 30
0.0
 11
1012.132993
 21
147.89916
 31
0.0
  0
LINE
  8
0
  6
HIDDEN
 62
     7
 10
1001.132993
 20
159.49916
 30
0.0
 11
1001.132993
 21
147.89916
 31
0.0
  0
LINE
  8
0
 62
     7
 10
1412.132993
 20
159.49916
 30
0.0
 11
1448.632993
 21
159.49916
 31
0.0
  0
LINE
  8
0
 62
     7
 10
1403.632993
 20
147.89916
 30
0.0
 11
1448.632993
 21
147.89916
 31
0.0
  0
CIRCLE
  8
0
 62
     7
 10
1010.132993
 20
287.89916
 30
0.0
 40
5.0
  0
POLYLINE
  8
0
 62
     7
 66
     1
 10
0.0
 20
0.0
 30
0.0
 70
     1
  0
VERTEX
  8
0
 62
     7
 10
1005.132993
 20
285.012408
 30
0.0
  0
VERTEX
  8
0
 62
     7
 10
1010.132993
 20
282.125657
 30
0.0
  0
VERTEX
  8
0
 62
     7
 10
1015.132993
 20
285.012408
 30
0.0
  0
VERTEX
  8
0
 62
     7
 10
1015.132993
 20
290.785911
 30
0.0
  0
VERTEX
  8
0
 62
     7
 10
1010.132993
 20
293.672662
 30
0.0
  0
VERTEX
  8
0
 62
     7
 10
1005.132993
 20
290.785911
 30
0.0
  0
SEQEND
  8
0
 62
     7
  0
CIRCLE
  8
0
 62
     7
 10
1010.132993
 20
237.89916
 30
0.0
 40
5.0
  0
POLYLINE
  8
0
 62
     7
 66
     1
 10
0.0
 20
0.0
 30
0.0
 70
     1
  0
VERTEX
  8
0
 62
     7
 10
1005.132993
 20
235.012408
 30
0.0
  0
VERTEX
  8
0
 62
     7
 10
1010.132993
 20
232.125657
 30
0.0
  0
VERTEX
  8
0
 62
     7
 10
1015.132993
 20
235.012408
 30
0.0
  0
VERTEX
  8
0
 62
     7
 10
1015.132993
 20
240.785911
 30
0.0
  0
VERTEX
  8
0
 62
     7
 10
1010.132993
 20
243.672662
 30
0.0
  0
VERTEX
  8
0
 62
     7
 10
1005.132993
 20
240.785911
 30
0.0
  0
SEQEND
  8
0
 62
     7
  0
LINE
  8
0
 62
     7
 10
1002.014191
 20
160.79916
 30
0.0
 11
1011.251795
 21
160.79916
 31
0.0
  0
LINE
  8
0
 62
     7
 10
1011.232993
 20
160.79916
 30
0.0
 11
1011.232993
 21
159.49916
 31
0.0
  0
LINE
  8
0
 62
     7
 10
1002.032993
 20
160.79916
 30
0.0
 11
1002.032993
 21
159.49916
 31
0.0
  0
ARC
  8
0
 62
     7
 10
1010.192394
 20
162.180358
 30
0.0
 40
2.118802
 50
59.999999
 51
120.000001
  0
ARC
  8
0
 62
     7
 10
1006.632993
 20
153.148499
 30
0.0
 40
11.150661
 50
77.044045
 51
102.955955
  0
ARC
  8
0
 62
     7
 10
1003.073592
 20
162.180358
 30
0.0
 40
2.118802
 50
59.999999
 51
120.000001
  0
LINE
  8
0
 62
     7
 10
1010.192394
 20
164.29916
 30
0.0
 11
1003.073592
 21
164.29916
 31
0.0
  0
POLYLINE
  8
0
 62
     7
 66
     1
 10
0.0
 20
0.0
 30
0.0
  0
VERTEX
  8
0
 62
     7
 10
1004.132993
 20
160.79916
 30
0.0
  0
VERTEX
  8
0
 62
     7
 10
1004.132993
 20
164.015294
 30
0.0
  0
SEQEND
  8
0
 62
     7
  0
POLYLINE
  8
0
 62
     7
 66
     1
 10
0.0
 20
0.0
 30
0.0
  0
VERTEX
  8
0
 62
     7
 10
1009.132993
 20
164.015294
 30
0.0
  0
VERTEX
  8
0
 62
     7
 10
1009.132993
 20
160.79916
 30
0.0
  0
SEQEND
  8
0
 62
     7
  0
LINE
  8
0
 62
     7
 10
1002.014191
 20
164.015294
 30
0.0
 11
1002.014191
 21
160.79916
 31
0.0
  0
LINE
  8
0
 62
     7
 10
1011.251795
 20
160.79916
 30
0.0
 11
1011.251795
 21
164.015294
 31
0.0
  0
LINE
  8
0
 62
     7
 10
1006.632993
 20
159.49916
 30
0.0
 11
1005.312363
 21
160.79916
 31
0.0
  0
LINE
  8
0
 62
     7
 10
1006.632993
 20
160.79916
 30
0.0
 11
1007.931955
 21
159.49916
 31
0.0
  0
POLYLINE
  8
0
 62
     7
 66
     1
 10
0.0
 20
0.0
 30
0.0
 70
     1
  0
VERTEX
  8
0
 62
     7
 10
1432.132993
 20
235.012408
 30
0.0
  0
VERTEX
  8
0
 62
     7
 10
1427.132993
 20
232.125657
 30
0.0
  0
VERTEX
  8
0
 62
     7
 10
1422.132993
 20
235.012408
 30
0.0
  0
VERTEX
  8
0
 62
     7
 10
1422.132993
 20
240.785911
 30
0.0
  0
VERTEX
  8
0
 62
     7
 10
1427.132993
 20
243.672662
 30
0.0
  0
VERTEX
  8
0
 62
     7
 10
1432.132993
 20
240.785911
 30
0.0
  0
SEQEND
  8
0
 62
     7
  0
CIRCLE
  8
0
 62
     7
 10
1427.132993
 20
237.89916
 30
0.0
 40
5.0
  0
POLYLINE
  8
0
 62
     7
 66
     1
 10
0.0
 20
0.0
 30
0.0
 70
     1
  0
VERTEX
  8
0
 62
     7
 10
1432.132993
 20
285.012408
 30
0.0
  0
VERTEX
  8
0
 62
     7
 10
1427.132993
 20
282.125657
 30
0.0
  0
VERTEX
  8
0
 62
     7
 10
1422.132993
 20
285.012408
 30
0.0
  0
VERTEX
  8
0
 62
     7
 10
1422.132993
 20
290.785911
 30
0.0
  0
VERTEX
  8
0
 62
     7
 10
1427.132993
 20
293.672662
 30
0.0
  0
VERTEX
  8
0
 62
     7
 10
1432.132993
 20
290.785911
 30
0.0
  0
SEQEND
  8
0
 62
     7
  0
CIRCLE
  8
0
 62
     7
 10
1427.132993
 20
287.89916
 30
0.0
 40
5.0
  0
LINE
  8
0
 62
     7
 10
1442.132993
 20
307.89916
 30
0.0
 11
1412.132993
 21
307.89916
 31
0.0
  0
LINE
  8
0
 62
     7
 10
1442.132993
 20
217.89916
 30
0.0
 11
1412.132993
 21
217.89916
 31
0.0
  0
LINE
  8
0
 62
     7
 10
1442.132993
 20
307.89916
 30
0.0
 11
1442.132993
 21
217.89916
 31
0.0
  0
LINE
  8
0
 62
     7
 10
1430.632993
 20
160.79916
 30
0.0
 11
1431.931955
 21
159.49916
 31
0.0
  0
LINE
  8
0
 62
     7
 10
1430.632993
 20
159.49916
 30
0.0
 11
1429.312363
 21
160.79916
 31
0.0
  0
LINE
  8
0
 62
     7
 10
1426.014191
 20
160.79916
 30
0.0
 11
1426.014191
 21
164.015294
 31
0.0
  0
LINE
  8
0
 62
     7
 10
1435.251795
 20
164.015294
 30
0.0
 11
1435.251795
 21
160.79916
 31
0.0
  0
POLYLINE
  8
0
 62
     7
 66
     1
 10
0.0
 20
0.0
 30
0.0
  0
VERTEX
  8
0
 62
     7
 10
1428.132993
 20
164.015294
 30
0.0
  0
VERTEX
  8
0
 62
     7
 10
1428.132993
 20
160.79916
 30
0.0
  0
SEQEND
  8
0
 62
     7
  0
POLYLINE
  8
0
 62
     7
 66
     1
 10
0.0
 20
0.0
 30
0.0
  0
VERTEX
  8
0
 62
     7
 10
1433.132993
 20
160.79916
 30
0.0
  0
VERTEX
  8
0
 62
     7
 10
1433.132993
 20
164.015294
 30
0.0
  0
SEQEND
  8
0
 62
     7
  0
LINE
  8
0
 62
     7
 10
1427.073592
 20
164.29916
 30
0.0
 11
1434.192394
 21
164.29916
 31
0.0
  0
ARC
  8
0
 62
     7
 10
1434.192394
 20
162.180358
 30
0.0
 40
2.118802
 50
59.999999
 51
120.000001
  0
ARC
  8
0
 62
     7
 10
1430.632993
 20
153.148499
 30
0.0
 40
11.150661
 50
77.044045
 51
102.955955
  0
ARC
  8
0
 62
     7
 10
1427.073592
 20
162.180358
 30
0.0
 40
2.118802
 50
59.999999
 51
120.000001
  0
LINE
  8
0
 62
     7
 10
1435.232993
 20
160.79916
 30
0.0
 11
1435.232993
 21
159.49916
 31
0.0
  0
LINE
  8
0
 62
     7
 10
1426.032993
 20
160.79916
 30
0.0
 11
1426.032993
 21
159.49916
 31
0.0
  0
LINE
  8
0
 62
     7
 10
1435.251795
 20
160.79916
 30
0.0
 11
1426.014191
 21
160.79916
 31
0.0
  0
LINE
  8
0
  6
HIDDEN
 62
     7
 10
1436.132993
 20
159.49916
 30
0.0
 11
1436.132993
 21
147.89916
 31
0.0
  0
LINE
  8
0
  6
HIDDEN
 62
     7
 10
1425.132993
 20
159.49916
 30
0.0
 11
1425.132993
 21
147.89916
 31
0.0
  0
LINE
  8
0
 62
     7
 10
1430.632993
 20
164.896003
 30
0.0
 11
1430.632993
 21
142.313568
 31
0.0
  0
TEXT
  8
0
 62
     7
 10
1623.048955
 20
159.952064
 30
0.0
 40
30.0
  1
SE-90
  7
KANJI
  0
LINE
  8
0
 62
     7
 10
459.134942
 20
374.89916
 30
0.0
 11
459.134942
 21
157.89916
 31
0.0
  0
LINE
  8
0
  6
CONTINUOUS
 62
     7
 10
1135.132993
 20
496.39916
 30
0.0
 11
1135.132993
 21
479.610422
 31
0.0
  0
LINE
  8
0
  6
HIDDEN
 62
     7
 10
1109.343153
 20
488.609319
 30
0.0
 11
1107.632993
 21
486.89916
 31
0.0
  0
LINE
  8
0
  6
HIDDEN
 62
     7
 10
1025.716314
 20
486.89916
 30
0.0
 11
1074.032993
 21
486.89916
 31
0.0
  0
LINE
  8
0
 62
     7
 10
960.632993
 20
1005.042017
 30
0.0
 11
1002.632993
 21
1005.042017
 31
0.0
  0
LINE
  8
0
 62
     7
 10
988.632993
 20
1208.042017
 30
0.0
 11
1051.265721
 21
1208.042017
 31
0.0
  0
LINE
  8
0
 62
     7
 10
988.632993
 20
802.042017
 30
0.0
 11
1051.265721
 21
802.042017
 31
0.0
  0
LINE
  8
0
 62
     7
 10
1020.132993
 20
1238.042017
 30
0.0
 11
1417.132993
 21
1238.042017
 31
0.0
  0
LINE
  8
0
 62
     7
 10
1020.132993
 20
772.042017
 30
0.0
 11
1417.132993
 21
772.042017
 31
0.0
  0
CIRCLE
  8
0
 62
     7
 10
1006.632993
 20
1170.042017
 30
0.0
 40
5.5
  0
CIRCLE
  8
0
 62
     7
 10
1006.632993
 20
1040.042017
 30
0.0
 40
5.5
  0
CIRCLE
  8
0
 62
     7
 10
1430.632993
 20
1170.042017
 30
0.0
 40
5.5
  0
CIRCLE
  8
0
 62
     7
 10
1430.632993
 20
1040.042017
 30
0.0
 40
5.5
  0
CIRCLE
  8
0
 62
     7
 10
1430.632993
 20
970.042017
 30
0.0
 40
5.5
  0
CIRCLE
  8
0
 62
     7
 10
1430.632993
 20
840.042017
 30
0.0
 40
5.5
  0
CIRCLE
  8
0
 62
     7
 10
1006.632993
 20
840.042017
 30
0.0
 40
5.5
  0
CIRCLE
  8
0
 62
     7
 10
1006.632993
 20
970.042017
 30
0.0
 40
5.5
  0
CIRCLE
  8
0
 62
     7
 10
1006.632993
 20
1135.042017
 30
0.0
 40
4.0
  0
POLYLINE
  8
0
 62
     7
 66
     1
 10
0.0
 20
0.0
 30
0.0
 70
     1
  0
VERTEX
  8
0
 62
     7
 10
1002.632993
 20
1132.732616
 30
0.0
  0
VERTEX
  8
0
 62
     7
 10
1006.632993
 20
1130.423215
 30
0.0
  0
VERTEX
  8
0
 62
     7
 10
1010.632993
 20
1132.732616
 30
0.0
  0
VERTEX
  8
0
 62
     7
 10
1010.632993
 20
1137.351418
 30
0.0
  0
VERTEX
  8
0
 62
     7
 10
1006.632993
 20
1139.660819
 30
0.0
  0
VERTEX
  8
0
 62
     7
 10
1002.632993
 20
1137.351418
 30
0.0
  0
SEQEND
  8
0
 62
     7
  0
CIRCLE
  8
0
 62
     7
 10
1006.632993
 20
1075.042017
 30
0.0
 40
4.0
  0
POLYLINE
  8
0
 62
     7
 66
     1
 10
0.0
 20
0.0
 30
0.0
 70
     1
  0
VERTEX
  8
0
 62
     7
 10
1002.632993
 20
1072.732616
 30
0.0
  0
VERTEX
  8
0
 62
     7
 10
1006.632993
 20
1070.423215
 30
0.0
  0
VERTEX
  8
0
 62
     7
 10
1010.632993
 20
1072.732616
 30
0.0
  0
VERTEX
  8
0
 62
     7
 10
1010.632993
 20
1077.351418
 30
0.0
  0
VERTEX
  8
0
 62
     7
 10
1006.632993
 20
1079.660819
 30
0.0
  0
VERTEX
  8
0
 62
     7
 10
1002.632993
 20
1077.351418
 30
0.0
  0
SEQEND
  8
0
 62
     7
  0
CIRCLE
  8
0
 62
     7
 10
1430.632993
 20
1135.042017
 30
0.0
 40
4.0
  0
POLYLINE
  8
0
 62
     7
 66
     1
 10
0.0
 20
0.0
 30
0.0
 70
     1
  0
VERTEX
  8
0
 62
     7
 10
1426.632993
 20
1132.732616
 30
0.0
  0
VERTEX
  8
0
 62
     7
 10
1430.632993
 20
1130.423215
 30
0.0
  0
VERTEX
  8
0
 62
     7
 10
1434.632993
 20
1132.732616
 30
0.0
  0
VERTEX
  8
0
 62
     7
 10
1434.632993
 20
1137.351418
 30
0.0
  0
VERTEX
  8
0
 62
     7
 10
1430.632993
 20
1139.660819
 30
0.0
  0
VERTEX
  8
0
 62
     7
 10
1426.632993
 20
1137.351418
 30
0.0
  0
SEQEND
  8
0
 62
     7
  0
CIRCLE
  8
0
 62
     7
 10
1430.632993
 20
935.042017
 30
0.0
 40
4.0
  0
POLYLINE
  8
0
 62
     7
 66
     1
 10
0.0
 20
0.0
 30
0.0
 70
     1
  0
VERTEX
  8
0
 62
     7
 10
1426.632993
 20
932.732616
 30
0.0
  0
VERTEX
  8
0
 62
     7
 10
1430.632993
 20
930.423215
 30
0.0
  0
VERTEX
  8
0
 62
     7
 10
1434.632993
 20
932.732616
 30
0.0
  0
VERTEX
  8
0
 62
     7
 10
1434.632993
 20
937.351418
 30
0.0
  0
VERTEX
  8
0
 62
     7
 10
1430.632993
 20
939.660819
 30
0.0
  0
VERTEX
  8
0
 62
     7
 10
1426.632993
 20
937.351418
 30
0.0
  0
SEQEND
  8
0
 62
     7
  0
CIRCLE
  8
0
 62
     7
 10
1430.632993
 20
1075.042017
 30
0.0
 40
4.0
  0
POLYLINE
  8
0
 62
     7
 66
     1
 10
0.0
 20
0.0
 30
0.0
 70
     1
  0
VERTEX
  8
0
 62
     7
 10
1426.632993
 20
1072.732616
 30
0.0
  0
VERTEX
  8
0
 62
     7
 10
1430.632993
 20
1070.423215
 30
0.0
  0
VERTEX
  8
0
 62
     7
 10
1434.632993
 20
1072.732616
 30
0.0
  0
VERTEX
  8
0
 62
     7
 10
1434.632993
 20
1077.351418
 30
0.0
  0
VERTEX
  8
0
 62
     7
 10
1430.632993
 20
1079.660819
 30
0.0
  0
VERTEX
  8
0
 62
     7
 10
1426.632993
 20
1077.351418
 30
0.0
  0
SEQEND
  8
0
 62
     7
  0
CIRCLE
  8
0
 62
     7
 10
1430.632993
 20
875.042017
 30
0.0
 40
4.0
  0
POLYLINE
  8
0
 62
     7
 66
     1
 10
0.0
 20
0.0
 30
0.0
 70
     1
  0
VERTEX
  8
0
 62
     7
 10
1426.632993
 20
872.732616
 30
0.0
  0
VERTEX
  8
0
 62
     7
 10
1430.632993
 20
870.423215
 30
0.0
  0
VERTEX
  8
0
 62
     7
 10
1434.632993
 20
872.732616
 30
0.0
  0
VERTEX
  8
0
 62
     7
 10
1434.632993
 20
877.351418
 30
0.0
  0
VERTEX
  8
0
 62
     7
 10
1430.632993
 20
879.660819
 30
0.0
  0
VERTEX
  8
0
 62
     7
 10
1426.632993
 20
877.351418
 30
0.0
  0
SEQEND
  8
0
 62
     7
  0
CIRCLE
  8
0
 62
     7
 10
1006.632993
 20
935.042017
 30
0.0
 40
4.0
  0
POLYLINE
  8
0
 62
     7
 66
     1
 10
0.0
 20
0.0
 30
0.0
 70
     1
  0
VERTEX
  8
0
 62
     7
 10
1002.632993
 20
932.732616
 30
0.0
  0
VERTEX
  8
0
 62
     7
 10
1006.632993
 20
930.423215
 30
0.0
  0
VERTEX
  8
0
 62
     7
 10
1010.632993
 20
932.732616
 30
0.0
  0
VERTEX
  8
0
 62
     7
 10
1010.632993
 20
937.351418
 30
0.0
  0
VERTEX
  8
0
 62
     7
 10
1006.632993
 20
939.660819
 30
0.0
  0
VERTEX
  8
0
 62
     7
 10
1002.632993
 20
937.351418
 30
0.0
  0
SEQEND
  8
0
 62
     7
  0
CIRCLE
  8
0
 62
     7
 10
1006.632993
 20
875.042017
 30
0.0
 40
4.0
  0
POLYLINE
  8
0
 62
     7
 66
     1
 10
0.0
 20
0.0
 30
0.0
 70
     1
  0
VERTEX
  8
0
 62
     7
 10
1002.632993
 20
872.732616
 30
0.0
  0
VERTEX
  8
0
 62
     7
 10
1006.632993
 20
870.423215
 30
0.0
  0
VERTEX
  8
0
 62
     7
 10
1010.632993
 20
872.732616
 30
0.0
  0
VERTEX
  8
0
 62
     7
 10
1010.632993
 20
877.351418
 30
0.0
  0
VERTEX
  8
0
 62
     7
 10
1006.632993
 20
879.660819
 30
0.0
  0
VERTEX
  8
0
 62
     7
 10
1002.632993
 20
877.351418
 30
0.0
  0
SEQEND
  8
0
 62
     7
  0
ARC
  8
0
 62
     7
 10
1317.132993
 20
1223.042017
 30
0.0
 40
5.0
 50
289.999173
 51
70.000827
  0
ARC
  8
0
 62
     7
 10
1317.132993
 20
1223.042017
 30
0.0
 40
4.0
 50
294.782637
 51
65.217363
  0
CIRCLE
  8
0
 62
     7
 10
1317.132993
 20
1223.042017
 30
0.0
 40
2.5
  0
LINE
  8
0
 62
     7
 10
1316.912455
 20
1210.542017
 30
0.0
 11
1317.353531
 21
1210.542017
 31
0.0
  0
LINE
  8
0
 62
     7
 10
1316.912455
 20
1235.542017
 30
0.0
 11
1317.353531
 21
1235.542017
 31
0.0
  0
LINE
  8
0
 62
     7
 10
1318.153261
 20
1211.321215
 30
0.0
 11
1318.367923
 21
1219.574136
 31
0.0
  0
ARC
  8
0
 62
     7
 10
1317.132993
 20
1223.042017
 30
0.0
 40
5.0
 50
109.999173
 51
250.000827
  0
ARC
  8
0
 62
     7
 10
1317.132993
 20
1223.042017
 30
0.0
 40
4.0
 50
114.782637
 51
245.217363
  0
ARC
  8
0
 62
     7
 10
1316.912455
 20
1211.342017
 30
0.0
 40
0.8
 50
181.489955
 51
270.0
  0
ARC
  8
0
 62
     7
 10
1317.353531
 20
1211.342017
 30
0.0
 40
0.8
 50
270.0
 51
358.510045
  0
ARC
  8
0
 62
     7
 10
1316.912455
 20
1234.742017
 30
0.0
 40
0.8
 50
90.0
 51
178.510045
  0
ARC
  8
0
 62
     7
 10
1317.353531
 20
1234.742017
 30
0.0
 40
0.8
 50
1.489955
 51
90.0
  0
ARC
  8
0
 62
     7
 10
1314.898401
 20
1219.548134
 30
0.0
 40
1.0
 50
1.489955
 51
57.398129
  0
ARC
  8
0
 62
     7
 10
1319.367585
 20
1219.548134
 30
0.0
 40
1.0
 50
122.601871
 51
178.510045
  0
ARC
  8
0
 62
     7
 10
1314.898401
 20
1226.535899
 30
0.0
 40
1.0
 50
302.601871
 51
358.510045
  0
ARC
  8
0
 62
     7
 10
1319.367585
 20
1226.535899
 30
0.0
 40
1.0
 50
181.489955
 51
237.398129
  0
LINE
  8
0
 62
     7
 10
1315.898063
 20
1219.574136
 30
0.0
 11
1316.112726
 21
1211.321215
 31
0.0
  0
LINE
  8
0
 62
     7
 10
1315.898063
 20
1226.509897
 30
0.0
 11
1316.112726
 21
1234.762818
 31
0.0
  0
LINE
  8
0
 62
     7
 10
1318.367923
 20
1226.509897
 30
0.0
 11
1318.153261
 21
1234.762818
 31
0.0
  0
ARC
  8
0
 62
     7
 10
1315.120944
 20
1227.399959
 30
0.0
 40
0.8
 50
294.782637
 51
358.510045
  0
ARC
  8
0
 62
     7
 10
1315.149355
 20
1228.492263
 30
0.0
 40
0.8
 50
289.999173
 51
358.510045
  0
ARC
  8
0
 62
     7
 10
1319.116631
 20
1228.492263
 30
0.0
 40
0.8
 50
181.489955
 51
250.000827
  0
ARC
  8
0
 62
     7
 10
1319.145043
 20
1227.399959
 30
0.0
 40
0.8
 50
181.489955
 51
245.217363
  0
ARC
  8
0
 62
     7
 10
1315.120944
 20
1218.684075
 30
0.0
 40
0.8
 50
1.489955
 51
65.217363
  0
ARC
  8
0
 62
     7
 10
1315.149355
 20
1217.591771
 30
0.0
 40
0.8
 50
1.489955
 51
70.000827
  0
ARC
  8
0
 62
     7
 10
1319.145043
 20
1218.684075
 30
0.0
 40
0.8
 50
114.782637
 51
178.510045
  0
ARC
  8
0
 62
     7
 10
1319.116631
 20
1217.591771
 30
0.0
 40
0.8
 50
109.999173
 51
178.510045
  0
CIRCLE
  8
0
 62
     7
 10
1317.132993
 20
1223.042017
 30
0.0
 40
2.25
  0
ARC
  8
0
 62
     7
 10
1120.132993
 20
1223.042017
 30
0.0
 40
5.0
 50
289.999173
 51
70.000827
  0
ARC
  8
0
 62
     7
 10
1120.132993
 20
1223.042017
 30
0.0
 40
4.0
 50
294.782637
 51
65.217363
  0
CIRCLE
  8
0
 62
     7
 10
1120.132993
 20
1223.042017
 30
0.0
 40
2.5
  0
LINE
  8
0
 62
     7
 10
1119.912455
 20
1210.542017
 30
0.0
 11
1120.353531
 21
1210.542017
 31
0.0
  0
LINE
  8
0
 62
     7
 10
1119.912455
 20
1235.542017
 30
0.0
 11
1120.353531
 21
1235.542017
 31
0.0
  0
LINE
  8
0
 62
     7
 10
1121.153261
 20
1211.321215
 30
0.0
 11
1121.367923
 21
1219.574136
 31
0.0
  0
ARC
  8
0
 62
     7
 10
1120.132993
 20
1223.042017
 30
0.0
 40
5.0
 50
109.999173
 51
250.000827
  0
ARC
  8
0
 62
     7
 10
1120.132993
 20
1223.042017
 30
0.0
 40
4.0
 50
114.782637
 51
245.217363
  0
ARC
  8
0
 62
     7
 10
1119.912455
 20
1211.342017
 30
0.0
 40
0.8
 50
181.489955
 51
270.0
  0
ARC
  8
0
 62
     7
 10
1120.353531
 20
1211.342017
 30
0.0
 40
0.8
 50
270.0
 51
358.510045
  0
ARC
  8
0
 62
     7
 10
1119.912455
 20
1234.742017
 30
0.0
 40
0.8
 50
90.0
 51
178.510045
  0
ARC
  8
0
 62
     7
 10
1120.353531
 20
1234.742017
 30
0.0
 40
0.8
 50
1.489955
 51
90.0
  0
ARC
  8
0
 62
     7
 10
1117.898401
 20
1219.548134
 30
0.0
 40
1.0
 50
1.489955
 51
57.398129
  0
ARC
  8
0
 62
     7
 10
1122.367585
 20
1219.548134
 30
0.0
 40
1.0
 50
122.601871
 51
178.510045
  0
ARC
  8
0
 62
     7
 10
1117.898401
 20
1226.535899
 30
0.0
 40
1.0
 50
302.601871
 51
358.510045
  0
ARC
  8
0
 62
     7
 10
1122.367585
 20
1226.535899
 30
0.0
 40
1.0
 50
181.489955
 51
237.398129
  0
LINE
  8
0
 62
     7
 10
1118.898063
 20
1219.574136
 30
0.0
 11
1119.112726
 21
1211.321215
 31
0.0
  0
LINE
  8
0
 62
     7
 10
1118.898063
 20
1226.509897
 30
0.0
 11
1119.112726
 21
1234.762818
 31
0.0
  0
LINE
  8
0
 62
     7
 10
1121.367923
 20
1226.509897
 30
0.0
 11
1121.153261
 21
1234.762818
 31
0.0
  0
ARC
  8
0
 62
     7
 10
1118.120944
 20
1227.399959
 30
0.0
 40
0.8
 50
294.782637
 51
358.510045
  0
ARC
  8
0
 62
     7
 10
1118.149355
 20
1228.492263
 30
0.0
 40
0.8
 50
289.999173
 51
358.510045
  0
ARC
  8
0
 62
     7
 10
1122.116631
 20
1228.492263
 30
0.0
 40
0.8
 50
181.489955
 51
250.000827
  0
ARC
  8
0
 62
     7
 10
1122.145043
 20
1227.399959
 30
0.0
 40
0.8
 50
181.489955
 51
245.217363
  0
ARC
  8
0
 62
     7
 10
1118.120944
 20
1218.684075
 30
0.0
 40
0.8
 50
1.489955
 51
65.217363
  0
ARC
  8
0
 62
     7
 10
1118.149355
 20
1217.591771
 30
0.0
 40
0.8
 50
1.489955
 51
70.000827
  0
ARC
  8
0
 62
     7
 10
1122.145043
 20
1218.684075
 30
0.0
 40
0.8
 50
114.782637
 51
178.510045
  0
ARC
  8
0
 62
     7
 10
1122.116631
 20
1217.591771
 30
0.0
 40
0.8
 50
109.999173
 51
178.510045
  0
CIRCLE
  8
0
 62
     7
 10
1120.132993
 20
1223.042017
 30
0.0
 40
2.25
  0
CIRCLE
  8
0
 62
     7
 10
1317.132993
 20
787.042017
 30
0.0
 40
2.25
  0
ARC
  8
0
 62
     7
 10
1319.116631
 20
781.591771
 30
0.0
 40
0.8
 50
109.999173
 51
178.510045
  0
ARC
  8
0
 62
     7
 10
1319.145043
 20
782.684075
 30
0.0
 40
0.8
 50
114.782637
 51
178.510045
  0
ARC
  8
0
 62
     7
 10
1315.149355
 20
781.591771
 30
0.0
 40
0.8
 50
1.489955
 51
70.000827
  0
ARC
  8
0
 62
     7
 10
1315.120944
 20
782.684075
 30
0.0
 40
0.8
 50
1.489955
 51
65.217363
  0
ARC
  8
0
 62
     7
 10
1319.145043
 20
791.399959
 30
0.0
 40
0.8
 50
181.489955
 51
245.217363
  0
ARC
  8
0
 62
     7
 10
1319.116631
 20
792.492263
 30
0.0
 40
0.8
 50
181.489955
 51
250.000827
  0
ARC
  8
0
 62
     7
 10
1315.149355
 20
792.492263
 30
0.0
 40
0.8
 50
289.999173
 51
358.510045
  0
ARC
  8
0
 62
     7
 10
1315.120944
 20
791.399959
 30
0.0
 40
0.8
 50
294.782637
 51
358.510045
  0
LINE
  8
0
 62
     7
 10
1318.367923
 20
790.509897
 30
0.0
 11
1318.153261
 21
798.762818
 31
0.0
  0
LINE
  8
0
 62
     7
 10
1315.898063
 20
790.509897
 30
0.0
 11
1316.112726
 21
798.762818
 31
0.0
  0
LINE
  8
0
 62
     7
 10
1315.898063
 20
783.574136
 30
0.0
 11
1316.112726
 21
775.321215
 31
0.0
  0
ARC
  8
0
 62
     7
 10
1319.367585
 20
790.535899
 30
0.0
 40
1.0
 50
181.489955
 51
237.398129
  0
ARC
  8
0
 62
     7
 10
1314.898401
 20
790.535899
 30
0.0
 40
1.0
 50
302.601871
 51
358.510045
  0
ARC
  8
0
 62
     7
 10
1319.367585
 20
783.548134
 30
0.0
 40
1.0
 50
122.601871
 51
178.510045
  0
ARC
  8
0
 62
     7
 10
1314.898401
 20
783.548134
 30
0.0
 40
1.0
 50
1.489955
 51
57.398129
  0
ARC
  8
0
 62
     7
 10
1317.353531
 20
798.742017
 30
0.0
 40
0.8
 50
1.489955
 51
90.0
  0
ARC
  8
0
 62
     7
 10
1316.912455
 20
798.742017
 30
0.0
 40
0.8
 50
90.0
 51
178.510045
  0
ARC
  8
0
 62
     7
 10
1317.353531
 20
775.342017
 30
0.0
 40
0.8
 50
270.0
 51
358.510045
  0
ARC
  8
0
 62
     7
 10
1316.912455
 20
775.342017
 30
0.0
 40
0.8
 50
181.489955
 51
270.0
  0
ARC
  8
0
 62
     7
 10
1317.132993
 20
787.042017
 30
0.0
 40
4.0
 50
114.782637
 51
245.217363
  0
ARC
  8
0
 62
     7
 10
1317.132993
 20
787.042017
 30
0.0
 40
5.0
 50
109.999173
 51
250.000827
  0
LINE
  8
0
 62
     7
 10
1318.153261
 20
775.321215
 30
0.0
 11
1318.367923
 21
783.574136
 31
0.0
  0
LINE
  8
0
 62
     7
 10
1316.912455
 20
799.542017
 30
0.0
 11
1317.353531
 21
799.542017
 31
0.0
  0
LINE
  8
0
 62
     7
 10
1316.912455
 20
774.542017
 30
0.0
 11
1317.353531
 21
774.542017
 31
0.0
  0
CIRCLE
  8
0
 62
     7
 10
1317.132993
 20
787.042017
 30
0.0
 40
2.5
  0
ARC
  8
0
 62
     7
 10
1317.132993
 20
787.042017
 30
0.0
 40
4.0
 50
294.782637
 51
65.217363
  0
ARC
  8
0
 62
     7
 10
1317.132993
 20
787.042017
 30
0.0
 40
5.0
 50
289.999173
 51
70.000827
  0
CIRCLE
  8
0
 62
     7
 10
1120.132993
 20
787.042017
 30
0.0
 40
2.25
  0
ARC
  8
0
 62
     7
 10
1122.116631
 20
781.591771
 30
0.0
 40
0.8
 50
109.999173
 51
178.510045
  0
ARC
  8
0
 62
     7
 10
1122.145043
 20
782.684075
 30
0.0
 40
0.8
 50
114.782637
 51
178.510045
  0
ARC
  8
0
 62
     7
 10
1118.149355
 20
781.591771
 30
0.0
 40
0.8
 50
1.489955
 51
70.000827
  0
ARC
  8
0
 62
     7
 10
1118.120944
 20
782.684075
 30
0.0
 40
0.8
 50
1.489955
 51
65.217363
  0
ARC
  8
0
 62
     7
 10
1122.145043
 20
791.399959
 30
0.0
 40
0.8
 50
181.489955
 51
245.217363
  0
ARC
  8
0
 62
     7
 10
1122.116631
 20
792.492263
 30
0.0
 40
0.8
 50
181.489955
 51
250.000827
  0
ARC
  8
0
 62
     7
 10
1118.149355
 20
792.492263
 30
0.0
 40
0.8
 50
289.999173
 51
358.510045
  0
ARC
  8
0
 62
     7
 10
1118.120944
 20
791.399959
 30
0.0
 40
0.8
 50
294.782637
 51
358.510045
  0
LINE
  8
0
 62
     7
 10
1121.367923
 20
790.509897
 30
0.0
 11
1121.153261
 21
798.762818
 31
0.0
  0
LINE
  8
0
 62
     7
 10
1118.898063
 20
790.509897
 30
0.0
 11
1119.112726
 21
798.762818
 31
0.0
  0
LINE
  8
0
 62
     7
 10
1118.898063
 20
783.574136
 30
0.0
 11
1119.112726
 21
775.321215
 31
0.0
  0
ARC
  8
0
 62
     7
 10
1122.367585
 20
790.535899
 30
0.0
 40
1.0
 50
181.489955
 51
237.398129
  0
ARC
  8
0
 62
     7
 10
1117.898401
 20
790.535899
 30
0.0
 40
1.0
 50
302.601871
 51
358.510045
  0
ARC
  8
0
 62
     7
 10
1122.367585
 20
783.548134
 30
0.0
 40
1.0
 50
122.601871
 51
178.510045
  0
ARC
  8
0
 62
     7
 10
1117.898401
 20
783.548134
 30
0.0
 40
1.0
 50
1.489955
 51
57.398129
  0
ARC
  8
0
 62
     7
 10
1120.353531
 20
798.742017
 30
0.0
 40
0.8
 50
1.489955
 51
90.0
  0
ARC
  8
0
 62
     7
 10
1119.912455
 20
798.742017
 30
0.0
 40
0.8
 50
90.0
 51
178.510045
  0
ARC
  8
0
 62
     7
 10
1120.353531
 20
775.342017
 30
0.0
 40
0.8
 50
270.0
 51
358.510045
  0
ARC
  8
0
 62
     7
 10
1119.912455
 20
775.342017
 30
0.0
 40
0.8
 50
181.489955
 51
270.0
  0
ARC
  8
0
 62
     7
 10
1120.132993
 20
787.042017
 30
0.0
 40
4.0
 50
114.782637
 51
245.217363
  0
ARC
  8
0
 62
     7
 10
1120.132993
 20
787.042017
 30
0.0
 40
5.0
 50
109.999173
 51
250.000827
  0
LINE
  8
0
 62
     7
 10
1121.153261
 20
775.321215
 30
0.0
 11
1121.367923
 21
783.574136
 31
0.0
  0
LINE
  8
0
 62
     7
 10
1119.912455
 20
799.542017
 30
0.0
 11
1120.353531
 21
799.542017
 31
0.0
  0
LINE
  8
0
 62
     7
 10
1119.912455
 20
774.542017
 30
0.0
 11
1120.353531
 21
774.542017
 31
0.0
  0
CIRCLE
  8
0
 62
     7
 10
1120.132993
 20
787.042017
 30
0.0
 40
2.5
  0
ARC
  8
0
 62
     7
 10
1120.132993
 20
787.042017
 30
0.0
 40
4.0
 50
294.782637
 51
65.217363
  0
ARC
  8
0
 62
     7
 10
1120.132993
 20
787.042017
 30
0.0
 40
5.0
 50
289.999173
 51
70.000827
  0
LINE
  8
0
 62
     7
 10
1164.632993
 20
1178.842017
 30
0.0
 11
1172.632993
 21
1178.842017
 31
0.0
  0
LINE
  8
0
 62
     7
 10
1176.632993
 20
1207.042017
 30
0.0
 11
1260.632993
 21
1207.042017
 31
0.0
  0
LINE
  8
0
 62
     7
 10
1272.632993
 20
1195.042017
 30
0.0
 11
1272.632993
 21
1178.842017
 31
0.0
  0
LINE
  8
0
 62
     7
 10
1164.632993
 20
1195.042017
 30
0.0
 11
1164.632993
 21
1178.842017
 31
0.0
  0
LINE
  8
0
 62
     7
 10
1264.632993
 20
1195.042017
 30
0.0
 11
1264.632993
 21
1178.842017
 31
0.0
  0
LINE
  8
0
 62
     7
 10
1172.632993
 20
1195.042017
 30
0.0
 11
1172.632993
 21
1178.842017
 31
0.0
  0
LINE
  8
0
 62
     7
 10
1176.632993
 20
1199.042017
 30
0.0
 11
1260.632993
 21
1199.042017
 31
0.0
  0
LINE
  8
0
 62
     7
 10
1264.632993
 20
1178.842017
 30
0.0
 11
1272.632993
 21
1178.842017
 31
0.0
  0
LINE
  8
0
 62
     7
 10
1264.632993
 20
831.242017
 30
0.0
 11
1272.632993
 21
831.242017
 31
0.0
  0
LINE
  8
0
 62
     7
 10
1176.632993
 20
811.042017
 30
0.0
 11
1260.632993
 21
811.042017
 31
0.0
  0
LINE
  8
0
 62
     7
 10
1172.632993
 20
815.042017
 30
0.0
 11
1172.632993
 21
831.242017
 31
0.0
  0
LINE
  8
0
 62
     7
 10
1264.632993
 20
815.042017
 30
0.0
 11
1264.632993
 21
831.242017
 31
0.0
  0
LINE
  8
0
 62
     7
 10
1164.632993
 20
815.042017
 30
0.0
 11
1164.632993
 21
831.242017
 31
0.0
  0
LINE
  8
0
 62
     7
 10
1272.632993
 20
815.042017
 30
0.0
 11
1272.632993
 21
831.242017
 31
0.0
  0
LINE
  8
0
 62
     7
 10
1176.632993
 20
803.042017
 30
0.0
 11
1260.632993
 21
803.042017
 31
0.0
  0
LINE
  8
0
 62
     7
 10
1164.632993
 20
831.242017
 30
0.0
 11
1172.632993
 21
831.242017
 31
0.0
  0
LINE
  8
0
 62
     7
 10
1417.132993
 20
1005.042017
 30
0.0
 11
1442.132993
 21
1005.042017
 31
0.0
  0
LINE
  8
0
 62
     7
 10
1417.132993
 20
1238.042017
 30
0.0
 11
1417.132993
 21
772.042017
 31
0.0
  0
LINE
  8
0
 62
     7
 10
1020.132993
 20
1238.042017
 30
0.0
 11
1020.132993
 21
772.042017
 31
0.0
  0
LINE
  8
0
 62
     7
 10
1046.265721
 20
1208.042017
 30
0.0
 11
1448.632993
 21
1208.042017
 31
0.0
  0
LINE
  8
0
 62
     7
 10
1046.265721
 20
802.042017
 30
0.0
 11
1448.632993
 21
802.042017
 31
0.0
  0
LINE
  8
0
 62
     7
 10
988.632993
 20
802.042017
 30
0.0
 11
988.632993
 21
1208.042017
 31
0.0
  0
LINE
  8
0
 62
     7
 10
1448.632993
 20
802.042017
 30
0.0
 11
1448.632993
 21
1208.042017
 31
0.0
  0
LINE
  8
0
 62
     7
 10
1442.132993
 20
1006.642017
 30
0.0
 11
1442.132993
 21
1003.442017
 31
0.0
  0
LINE
  8
0
 62
     7
 10
995.132993
 20
1006.642017
 30
0.0
 11
995.132993
 21
1003.442017
 31
0.0
  0
LINE
  8
0
 62
     7
 10
995.132993
 20
1006.642017
 30
0.0
 11
1020.132993
 21
1006.642017
 31
0.0
  0
LINE
  8
0
 62
     7
 10
995.132993
 20
1003.442017
 30
0.0
 11
1020.132993
 21
1003.442017
 31
0.0
  0
LINE
  8
0
 62
     7
 10
1417.132993
 20
1006.642017
 30
0.0
 11
1442.132993
 21
1006.642017
 31
0.0
  0
LINE
  8
0
 62
     7
 10
1417.132993
 20
1003.442017
 30
0.0
 11
1442.132993
 21
1003.442017
 31
0.0
  0
LINE
  8
0
 62
     7
 10
995.132993
 20
1005.042017
 30
0.0
 11
1020.132993
 21
1005.042017
 31
0.0
  0
LINE
  8
0
 62
     7
 10
1434.632993
 20
1005.042017
 30
0.0
 11
1476.632993
 21
1005.042017
 31
0.0
  0
ARC
  8
0
 62
     7
 10
1423.573592
 20
1002.060819
 30
0.0
 40
2.118802
 50
239.999999
 51
300.000001
  0
ARC
  8
0
 62
     7
 10
1427.132993
 20
1011.092678
 30
0.0
 40
11.150661
 50
257.044045
 51
282.955955
  0
ARC
  8
0
 62
     7
 10
1430.692394
 20
1002.060819
 30
0.0
 40
2.118802
 50
239.999999
 51
300.000001
  0
LINE
  8
0
 62
     7
 10
1423.573592
 20
999.942017
 30
0.0
 11
1430.692394
 21
999.942017
 31
0.0
  0
LINE
  8
0
 62
     7
 10
1422.514191
 20
1003.442017
 30
0.0
 11
1422.514191
 21
1000.225882
 31
0.0
  0
LINE
  8
0
 62
     7
 10
1431.751795
 20
1000.225882
 30
0.0
 11
1431.751795
 21
1003.442017
 31
0.0
  0
POLYLINE
  8
0
 62
     7
 66
     1
 10
0.0
 20
0.0
 30
0.0
  0
VERTEX
  8
0
 62
     7
 10
1429.632993
 20
1003.442017
 30
0.0
 50
270.0
  0
VERTEX
  8
0
 62
     7
 10
1429.632993
 20
1000.225882
 30
0.0
 50
270.0
  0
SEQEND
  8
0
 62
     7
  0
POLYLINE
  8
0
 62
     7
 66
     1
 10
0.0
 20
0.0
 30
0.0
  0
VERTEX
  8
0
 62
     7
 10
1424.632993
 20
1000.225882
 30
0.0
 50
270.0
  0
VERTEX
  8
0
 62
     7
 10
1424.632993
 20
1003.442017
 30
0.0
 50
270.0
  0
SEQEND
  8
0
 62
     7
  0
POLYLINE
  8
0
 62
     7
 66
     1
 10
0.0
 20
0.0
 30
0.0
  0
VERTEX
  8
0
 62
     7
 10
1429.632993
 20
1011.658151
 30
0.0
 50
90.0
  0
VERTEX
  8
0
 62
     7
 10
1429.632993
 20
1007.942017
 30
0.0
 50
90.0
  0
SEQEND
  8
0
 62
     7
  0
POLYLINE
  8
0
 62
     7
 66
     1
 10
0.0
 20
0.0
 30
0.0
  0
VERTEX
  8
0
 62
     7
 10
1424.632993
 20
1007.942017
 30
0.0
 50
90.0
  0
VERTEX
  8
0
 62
     7
 10
1424.632993
 20
1011.658151
 30
0.0
 50
90.0
  0
SEQEND
  8
0
 62
     7
  0
POLYLINE
  8
0
 62
     7
 66
     1
 10
0.0
 20
0.0
 30
0.0
  0
VERTEX
  8
0
 62
     7
 10
1424.632993
 20
1011.942017
 30
0.0
 50
270.0
  0
VERTEX
  8
0
 62
     7
 10
1424.632993
 20
1012.642017
 30
0.0
 50
270.0
  0
VERTEX
  8
0
 62
     7
 10
1425.432993
 20
1013.442017
 30
0.0
 50
270.0
  0
VERTEX
  8
0
 62
     7
 10
1428.832993
 20
1013.442017
 30
0.0
 50
270.0
  0
VERTEX
  8
0
 62
     7
 10
1429.632993
 20
1012.642017
 30
0.0
 50
270.0
  0
VERTEX
  8
0
 62
     7
 10
1429.632993
 20
1011.942017
 30
0.0
 50
270.0
  0
SEQEND
  8
0
 62
     7
  0
LINE
  8
0
 62
     7
 10
1422.514191
 20
1011.658151
 30
0.0
 11
1422.514191
 21
1007.942017
 31
0.0
  0
LINE
  8
0
 62
     7
 10
1431.751795
 20
1007.942017
 30
0.0
 11
1431.751795
 21
1011.658151
 31
0.0
  0
LINE
  8
0
 62
     7
 10
1430.692394
 20
1011.942017
 30
0.0
 11
1423.573592
 21
1011.942017
 31
0.0
  0
LINE
  8
0
 62
     7
 10
1428.832993
 20
1011.942017
 30
0.0
 11
1428.832993
 21
1013.442017
 31
0.0
  0
LINE
  8
0
 62
     7
 10
1425.432993
 20
1011.942017
 30
0.0
 11
1425.432993
 21
1013.442017
 31
0.0
  0
LINE
  8
0
 62
     7
 10
1424.632993
 20
1012.642017
 30
0.0
 11
1429.632993
 21
1012.642017
 31
0.0
  0
ARC
  8
0
 62
     7
 10
1423.573592
 20
1009.823215
 30
0.0
 40
2.118802
 50
59.999999
 51
120.000001
  0
ARC
  8
0
 62
     7
 10
1427.132993
 20
1000.791356
 30
0.0
 40
11.150661
 50
77.044045
 51
102.955955
  0
ARC
  8
0
 62
     7
 10
1430.692394
 20
1009.823215
 30
0.0
 40
2.118802
 50
59.999999
 51
120.000001
  0
LINE
  8
0
 62
     7
 10
1427.132993
 20
1006.642017
 30
0.0
 11
1425.83471
 21
1007.942017
 31
0.0
  0
LINE
  8
0
 62
     7
 10
1427.132993
 20
1007.942017
 30
0.0
 11
1428.282364
 21
1006.642017
 31
0.0
  0
LINE
  8
0
 62
     7
 10
1422.532993
 20
1007.942017
 30
0.0
 11
1422.532993
 21
1006.642017
 31
0.0
  0
LINE
  8
0
 62
     7
 10
1431.732993
 20
1007.942017
 30
0.0
 11
1431.732993
 21
1006.642017
 31
0.0
  0
LINE
  8
0
 62
     7
 10
1431.751795
 20
1007.942017
 30
0.0
 11
1422.514191
 21
1007.942017
 31
0.0
  0
LINE
  8
0
 62
     7
 10
456.234942
 20
294.117962
 30
0.0
 11
456.234942
 21
284.880357
 31
0.0
  0
LINE
  8
0
 62
     7
 10
456.234942
 20
294.09916
 30
0.0
 11
457.534942
 21
294.09916
 31
0.0
  0
LINE
  8
0
 62
     7
 10
456.234942
 20
284.89916
 30
0.0
 11
457.534942
 21
284.89916
 31
0.0
  0
LINE
  8
0
 62
     7
 10
456.234942
 20
289.49916
 30
0.0
 11
457.534942
 21
290.64853
 31
0.0
  0
LINE
  8
0
 62
     7
 10
457.534942
 20
289.49916
 30
0.0
 11
456.234942
 21
288.200877
 31
0.0
  0
ARC
  8
0
 62
     7
 10
454.353744
 20
293.058561
 30
0.0
 40
2.118802
 50
149.999999
 51
210.000001
  0
ARC
  8
0
 62
     7
 10
463.385603
 20
289.49916
 30
0.0
 40
11.150661
 50
167.044045
 51
192.955955
  0
ARC
  8
0
 62
     7
 10
454.353744
 20
285.939759
 30
0.0
 40
2.118802
 50
149.999999
 51
210.000001
  0
LINE
  8
0
 62
     7
 10
451.534942
 20
286.99916
 30
0.0
 11
451.534942
 21
291.99916
 31
0.0
  0
LINE
  8
0
 62
     7
 10
452.234942
 20
287.79916
 30
0.0
 11
450.734942
 21
287.79916
 31
0.0
  0
LINE
  8
0
 62
     7
 10
452.234942
 20
291.19916
 30
0.0
 11
450.734942
 21
291.19916
 31
0.0
  0
LINE
  8
0
 62
     7
 10
452.234942
 20
293.058561
 30
0.0
 11
452.234942
 21
285.939759
 31
0.0
  0
LINE
  8
0
 62
     7
 10
456.234942
 20
294.117962
 30
0.0
 11
452.518807
 21
294.117962
 31
0.0
  0
LINE
  8
0
 62
     7
 10
452.518807
 20
284.880357
 30
0.0
 11
456.234942
 21
284.880357
 31
0.0
  0
POLYLINE
  8
0
 62
     7
 66
     1
 10
0.0
 20
0.0
 30
0.0
  0
VERTEX
  8
0
 62
     7
 10
452.234942
 20
286.99916
 30
0.0
  0
VERTEX
  8
0
 62
     7
 10
451.534942
 20
286.99916
 30
0.0
  0
VERTEX
  8
0
 62
     7
 10
450.734942
 20
287.79916
 30
0.0
  0
VERTEX
  8
0
 62
     7
 10
450.734942
 20
291.19916
 30
0.0
  0
VERTEX
  8
0
 62
     7
 10
451.534942
 20
291.99916
 30
0.0
  0
VERTEX
  8
0
 62
     7
 10
452.234942
 20
291.99916
 30
0.0
  0
SEQEND
  8
0
 62
     7
  0
POLYLINE
  8
0
 62
     7
 66
     1
 10
0.0
 20
0.0
 30
0.0
  0
VERTEX
  8
0
 62
     7
 10
456.234942
 20
286.99916
 30
0.0
 50
180.0
  0
VERTEX
  8
0
 62
     7
 10
452.518807
 20
286.99916
 30
0.0
 50
180.0
  0
SEQEND
  8
0
 62
     7
  0
POLYLINE
  8
0
 62
     7
 66
     1
 10
0.0
 20
0.0
 30
0.0
  0
VERTEX
  8
0
 62
     7
 10
452.518807
 20
291.99916
 30
0.0
 50
180.0
  0
VERTEX
  8
0
 62
     7
 10
456.234942
 20
291.99916
 30
0.0
 50
180.0
  0
SEQEND
  8
0
 62
     7
  0
POLYLINE
  8
0
 62
     7
 66
     1
 10
0.0
 20
0.0
 30
0.0
  0
VERTEX
  8
0
 62
     7
 10
463.951076
 20
286.99916
 30
0.0
  0
VERTEX
  8
0
 62
     7
 10
460.734942
 20
286.99916
 30
0.0
  0
SEQEND
  8
0
 62
     7
  0
POLYLINE
  8
0
 62
     7
 66
     1
 10
0.0
 20
0.0
 30
0.0
  0
VERTEX
  8
0
 62
     7
 10
460.734942
 20
291.99916
 30
0.0
  0
VERTEX
  8
0
 62
     7
 10
463.951076
 20
291.99916
 30
0.0
  0
SEQEND
  8
0
 62
     7
  0
LINE
  8
0
 62
     7
 10
463.951076
 20
294.117962
 30
0.0
 11
460.734942
 21
294.117962
 31
0.0
  0
LINE
  8
0
 62
     7
 10
460.734942
 20
284.880357
 30
0.0
 11
463.951076
 21
284.880357
 31
0.0
  0
LINE
  8
0
 62
     7
 10
464.234942
 20
285.939759
 30
0.0
 11
464.234942
 21
293.058561
 31
0.0
  0
ARC
  8
0
 62
     7
 10
462.11614
 20
293.058561
 30
0.0
 40
2.118802
 50
329.999999
 51
30.000001
  0
ARC
  8
0
 62
     7
 10
453.084281
 20
289.49916
 30
0.0
 40
11.150661
 50
347.044045
 51
12.955955
  0
ARC
  8
0
 62
     7
 10
462.11614
 20
285.939759
 30
0.0
 40
2.118802
 50
329.999999
 51
30.000001
  0
LINE
  8
0
 62
     7
 10
1016.632993
 20
970.042017
 30
0.0
 11
996.632993
 21
970.042017
 31
0.0
  0
LINE
  8
0
 62
     7
 10
1006.632993
 20
980.042017
 30
0.0
 11
1006.632993
 21
960.042017
 31
0.0
  0
LINE
  8
0
 62
     7
 10
1016.632993
 20
840.042017
 30
0.0
 11
996.632993
 21
840.042017
 31
0.0
  0
LINE
  8
0
 62
     7
 10
1006.632993
 20
850.042017
 30
0.0
 11
1006.632993
 21
830.042017
 31
0.0
  0
LINE
  8
0
 62
     7
 10
1440.632993
 20
1170.042017
 30
0.0
 11
1420.632993
 21
1170.042017
 31
0.0
  0
LINE
  8
0
 62
     7
 10
1430.632993
 20
1180.042017
 30
0.0
 11
1430.632993
 21
1160.042017
 31
0.0
  0
LINE
  8
0
 62
     7
 10
1440.632993
 20
1040.042017
 30
0.0
 11
1420.632993
 21
1040.042017
 31
0.0
  0
LINE
  8
0
 62
     7
 10
1430.632993
 20
1050.042017
 30
0.0
 11
1430.632993
 21
1030.042017
 31
0.0
  0
LINE
  8
0
 62
     7
 10
1440.632993
 20
970.042017
 30
0.0
 11
1420.632993
 21
970.042017
 31
0.0
  0
LINE
  8
0
 62
     7
 10
1430.632993
 20
980.042017
 30
0.0
 11
1430.632993
 21
960.042017
 31
0.0
  0
LINE
  8
0
 62
     7
 10
1440.632993
 20
840.042017
 30
0.0
 11
1420.632993
 21
840.042017
 31
0.0
  0
LINE
  8
0
 62
     7
 10
1430.632993
 20
850.042017
 30
0.0
 11
1430.632993
 21
830.042017
 31
0.0
  0
LINE
  8
0
 62
     7
 10
1016.632993
 20
1040.042017
 30
0.0
 11
996.632993
 21
1040.042017
 31
0.0
  0
LINE
  8
0
 62
     7
 10
1006.632993
 20
1050.042017
 30
0.0
 11
1006.632993
 21
1030.042017
 31
0.0
  0
LINE
  8
0
 62
     7
 10
1016.632993
 20
1170.042017
 30
0.0
 11
996.632993
 21
1170.042017
 31
0.0
  0
LINE
  8
0
 62
     7
 10
1006.632993
 20
1180.042017
 30
0.0
 11
1006.632993
 21
1160.042017
 31
0.0
  0
INSERT
  8
0
  2
TCAD
 10
0.0
 20
0.0
 30
0.0
  0
INSERT
  8
0
  2
TCAD
 10
0.0
 20
0.0
 30
0.0
  0
ARC
  8
0
 62
     7
 10
1176.632993
 20
815.042017
 30
0.0
 40
4.0
 50
180.0
 51
270.0
  0
ARC
  8
0
 62
     7
 10
1260.632993
 20
815.042017
 30
0.0
 40
4.0
 50
270.0
 51
0.0
  0
ARC
  8
0
 62
     7
 10
1176.632993
 20
815.042017
 30
0.0
 40
12.0
 50
180.0
 51
270.0
  0
ARC
  8
0
 62
     7
 10
1260.632993
 20
815.042017
 30
0.0
 40
12.0
 50
270.0
 51
0.0
  0
ARC
  8
0
 62
     7
 10
1176.632993
 20
1195.042017
 30
0.0
 40
12.0
 50
90.0
 51
180.0
  0
ARC
  8
0
 62
     7
 10
1260.632993
 20
1195.042017
 30
0.0
 40
12.0
 50
360.0
 51
90.0
  0
ARC
  8
0
 62
     7
 10
1176.632993
 20
1195.042017
 30
0.0
 40
4.0
 50
90.0
 51
180.0
  0
ARC
  8
0
 62
     7
 10
1260.632993
 20
1195.042017
 30
0.0
 40
4.0
 50
360.0
 51
90.0
  0
LINE
  8
0
 62
     7
 10
1020.132993
 20
378.89916
 30
0.0
 11
1025.132993
 21
378.89916
 31
0.0
  0
LINE
  8
0
 62
     7
 10
1412.132993
 20
378.89916
 30
0.0
 11
1417.132993
 21
378.89916
 31
0.0
  0
LINE
  8
0
 62
     7
 10
1308.732993
 20
551.333015
 30
0.0
 11
1314.310251
 21
551.333015
 31
0.0
  0
LINE
  8
0
 62
     7
 10
1289.432993
 20
496.39916
 30
0.0
 11
1302.132993
 21
496.39916
 31
0.0
  0
ARC
  8
0
 62
     7
 10
1284.432993
 20
502.89916
 30
0.0
 40
5.0
 50
0.0
 51
90.0
  0
LINE
  8
0
 62
     7
 10
468.134942
 20
465.39916
 30
0.0
 11
450.134942
 21
465.39916
 31
0.0
  0
LINE
  8
0
  6
CONTINUOUS
 62
     7
 10
1131.632993
 20
434.90016
 30
0.0
 11
1129.632993
 21
432.89916
 31
0.0
  0
ARC
  8
0
  6
CONTINUOUS
 62
     7
 10
1126.874993
 20
432.89916
 30
0.0
 40
11.258
 50
0.005089
 51
20.80622
  0
LINE
  8
0
  6
CONTINUOUS
 62
     7
 10
1139.704993
 20
435.82716
 30
0.0
 11
1139.704993
 21
432.90016
 31
0.0
  0
LINE
  8
0
  6
CONTINUOUS
 62
     7
 10
1138.632993
 20
436.89916
 30
0.0
 11
1138.632993
 21
432.90016
 31
0.0
  0
LINE
  8
0
  6
CONTINUOUS
 62
     7
 10
1138.132993
 20
438.65116
 30
0.0
 11
1138.132993
 21
432.90016
 31
0.0
  0
LINE
  8
0
  6
CONTINUOUS
 62
     7
 10
1131.632993
 20
440.59916
 30
0.0
 11
1131.632993
 21
432.90016
 31
0.0
  0
ARC
  8
0
  6
CONTINUOUS
 62
     7
 10
1135.674993
 20
438.65116
 30
0.0
 40
2.458696
 50
314.522134
 51
45.477866
  0
LINE
  8
0
  6
CONTINUOUS
 62
     7
 10
1131.632993
 20
436.89816
 30
0.0
 11
1137.398993
 21
436.89816
 31
0.0
  0
LINE
  8
0
  6
CONTINUOUS
 62
     7
 10
1131.632993
 20
440.40416
 30
0.0
 11
1137.398993
 21
440.40416
 31
0.0
  0
LINE
  8
0
  6
CONTINUOUS
 62
     7
 10
1129.632993
 20
440.59916
 30
0.0
 11
1131.632993
 21
440.59916
 31
0.0
  0
LINE
  8
0
  6
CONTINUOUS
 62
     7
 10
1138.632993
 20
436.89916
 30
0.0
 11
1138.132993
 21
436.89916
 31
0.0
  0
LINE
  8
0
  6
CONTINUOUS
 62
     7
 10
1139.432993
 20
436.09916
 30
0.0
 11
1138.132993
 21
436.09916
 31
0.0
  0
LINE
  8
0
  6
CONTINUOUS
 62
     7
 10
1138.632993
 20
436.89916
 30
0.0
 11
1139.704993
 21
435.82716
 31
0.0
  0
LINE
  8
0
  6
CONTINUOUS
 62
     7
 10
1055.733993
 20
441.19916
 30
0.0
 11
1056.733993
 21
440.19916
 31
0.0
  0
LINE
  8
0
  6
CONTINUOUS
 62
     7
 10
1057.033993
 20
441.19916
 30
0.0
 11
1058.033993
 21
440.19916
 31
0.0
  0
ARC
  8
0
  6
CONTINUOUS
 62
     7
 10
1053.473993
 20
443.26416
 30
0.0
 40
1.435424
 50
42.458955
 51
137.541045
  0
ARC
  8
0
  6
CONTINUOUS
 62
     7
 10
1060.592993
 20
443.26416
 30
0.0
 40
1.435424
 50
42.458955
 51
137.567976
  0
ARC
  8
0
  6
CONTINUOUS
 62
     7
 10
1057.033993
 20
437.77216
 30
0.0
 40
6.927447
 50
68.854415
 51
111.161011
  0
LINE
  8
0
  6
CONTINUOUS
 62
     7
 10
1059.532993
 20
441.19916
 30
0.0
 11
1059.532993
 21
444.23316
 31
0.0
  0
LINE
  8
0
  6
CONTINUOUS
 62
     7
 10
1054.532993
 20
444.23316
 30
0.0
 11
1054.532993
 21
441.19916
 31
0.0
  0
LINE
  8
0
  6
CONTINUOUS
 62
     7
 10
1060.592993
 20
444.69916
 30
0.0
 11
1053.473993
 21
444.69916
 31
0.0
  0
LINE
  8
0
  6
CONTINUOUS
 62
     7
 10
1061.651993
 20
441.19916
 30
0.0
 11
1061.651993
 21
444.23316
 31
0.0
  0
LINE
  8
0
  6
CONTINUOUS
 62
     7
 10
1052.414993
 20
444.23316
 30
0.0
 11
1052.414993
 21
441.19916
 31
0.0
  0
LINE
  8
0
  6
CONTINUOUS
 62
     7
 10
1061.633993
 20
441.19916
 30
0.0
 11
1052.433993
 21
441.19916
 31
0.0
  0
LINE
  8
0
  6
CONTINUOUS
 62
     7
 10
1061.633993
 20
439.89916
 30
0.0
 11
1061.633993
 21
441.19916
 31
0.0
  0
LINE
  8
0
  6
CONTINUOUS
 62
     7
 10
1052.433993
 20
441.19916
 30
0.0
 11
1052.433993
 21
439.89916
 31
0.0
  0
LINE
  8
0
  6
CONTINUOUS
 62
     7
 10
1056.688993
 20
435.74416
 30
0.0
 11
1057.033993
 21
435.39916
 31
0.0
  0
LINE
  8
0
  6
CONTINUOUS
 62
     7
 10
1057.881993
 20
435.39916
 30
0.0
 11
1056.184993
 21
435.39916
 31
0.0
  0
LINE
  8
0
  6
CONTINUOUS
 62
     7
 10
1055.159993
 20
435.39916
 30
0.0
 11
1052.033993
 21
435.39916
 31
0.0
  0
LINE
  8
0
  6
CONTINUOUS
 62
     7
 10
1059.053993
 20
434.39916
 30
0.0
 11
1062.033993
 21
434.39916
 31
0.0
  0
LINE
  8
0
  6
CONTINUOUS
 62
     7
 10
1055.974993
 20
434.39916
 30
0.0
 11
1058.091993
 21
434.39916
 31
0.0
  0
LINE
  8
0
  6
CONTINUOUS
 62
     7
 10
1060.033993
 20
433.59916
 30
0.0
 11
1062.033993
 21
433.59916
 31
0.0
  0
LINE
  8
0
  6
CONTINUOUS
 62
     7
 10
1052.283993
 20
433.59916
 30
0.0
 11
1052.283993
 21
432.69916
 31
0.0
  0
LINE
  8
0
  6
CONTINUOUS
 62
     7
 10
1062.033993
 20
435.39916
 30
0.0
 11
1058.906993
 21
435.39916
 31
0.0
  0
LINE
  8
0
  6
CONTINUOUS
 62
     7
 10
1062.033993
 20
434.39916
 30
0.0
 11
1062.033993
 21
435.39916
 31
0.0
  0
LINE
  8
0
  6
CONTINUOUS
 62
     7
 10
1052.033993
 20
434.39916
 30
0.0
 11
1055.012993
 21
434.39916
 31
0.0
  0
LINE
  8
0
  6
CONTINUOUS
 62
     7
 10
1052.033993
 20
435.39916
 30
0.0
 11
1052.033993
 21
434.39916
 31
0.0
  0
LINE
  8
0
  6
CONTINUOUS
 62
     7
 10
1055.733993
 20
436.69916
 30
0.0
 11
1056.012993
 21
436.42016
 31
0.0
  0
ARC
  8
0
  6
CONTINUOUS
 62
     7
 10
1053.473993
 20
438.76416
 30
0.0
 40
1.435424
 50
42.458955
 51
137.541045
  0
ARC
  8
0
  6
CONTINUOUS
 62
     7
 10
1060.592993
 20
438.76416
 30
0.0
 40
1.435424
 50
42.458955
 51
137.567976
  0
ARC
  8
0
  6
CONTINUOUS
 62
     7
 10
1057.033993
 20
433.27216
 30
0.0
 40
6.927447
 50
68.854415
 51
111.161011
  0
LINE
  8
0
  6
CONTINUOUS
 62
     7
 10
1059.532993
 20
436.69916
 30
0.0
 11
1059.532993
 21
439.73316
 31
0.0
  0
LINE
  8
0
  6
CONTINUOUS
 62
     7
 10
1054.532993
 20
439.73316
 30
0.0
 11
1054.532993
 21
436.69916
 31
0.0
  0
LINE
  8
0
  6
CONTINUOUS
 62
     7
 10
1060.592993
 20
440.19916
 30
0.0
 11
1053.473993
 21
440.19916
 31
0.0
  0
LINE
  8
0
  6
CONTINUOUS
 62
     7
 10
1061.651993
 20
436.69916
 30
0.0
 11
1061.651993
 21
439.73316
 31
0.0
  0
LINE
  8
0
  6
CONTINUOUS
 62
     7
 10
1052.414993
 20
436.69916
 30
0.0
 11
1061.651993
 21
436.69916
 31
0.0
  0
LINE
  8
0
  6
CONTINUOUS
 62
     7
 10
1052.414993
 20
439.73316
 30
0.0
 11
1052.414993
 21
436.69916
 31
0.0
  0
LINE
  8
0
  6
CONTINUOUS
 62
     7
 10
1061.633993
 20
435.39916
 30
0.0
 11
1061.633993
 21
436.69916
 31
0.0
  0
LINE
  8
0
  6
CONTINUOUS
 62
     7
 10
1052.433993
 20
436.69916
 30
0.0
 11
1052.433993
 21
435.39916
 31
0.0
  0
LINE
  8
0
  6
CONTINUOUS
 62
     7
 10
1052.033993
 20
433.59916
 30
0.0
 11
1052.033993
 21
434.39916
 31
0.0
  0
LINE
  8
0
  6
CONTINUOUS
 62
     7
 10
1062.033993
 20
433.59916
 30
0.0
 11
1062.033993
 21
434.39916
 31
0.0
  0
LINE
  8
0
  6
CONTINUOUS
 62
     7
 10
1061.782993
 20
433.59916
 30
0.0
 11
1061.782993
 21
432.69916
 31
0.0
  0
LINE
  8
0
  6
CONTINUOUS
 62
     7
 10
1052.033993
 20
432.69916
 30
0.0
 11
1062.033993
 21
432.69916
 31
0.0
  0
LINE
  8
0
  6
CONTINUOUS
 62
     7
 10
1052.033993
 20
433.59916
 30
0.0
 11
1054.033993
 21
433.59916
 31
0.0
  0
LINE
  8
0
  6
CONTINUOUS
 62
     7
 10
1057.033993
 20
467.04616
 30
0.0
 11
1057.033993
 21
461.80316
 31
0.0
  0
LINE
  8
0
  6
CONTINUOUS
 62
     7
 10
1059.289993
 20
464.61016
 30
0.0
 11
1054.674993
 21
464.61016
 31
0.0
  0
CIRCLE
  8
0
  6
CONTINUOUS
 62
     7
 10
1057.033993
 20
464.61016
 30
0.0
 40
1.75
  0
LINE
  8
0
  6
CONTINUOUS
 62
     7
 10
1054.212993
 20
474.71216
 30
0.0
 11
1054.028993
 21
473.33316
 31
0.0
  0
LINE
  8
0
  6
CONTINUOUS
 62
     7
 10
1053.966993
 20
480.43616
 30
0.0
 11
1054.124993
 21
481.61516
 31
0.0
  0
LINE
  8
0
  6
CONTINUOUS
 62
     7
 10
1054.696993
 20
485.91016
 30
0.0
 11
1055.037993
 21
488.46516
 31
0.0
  0
ARC
  8
0
  6
CONTINUOUS
 62
     7
 10
1053.533993
 20
473.39916
 30
0.0
 40
0.500372
 50
172.42049
 51
352.405357
  0
ARC
  8
0
  6
CONTINUOUS
 62
     7
 10
1055.533993
 20
488.39916
 30
0.0
 40
0.499381
 50
352.405357
 51
172.42049
  0
LINE
  8
0
  6
CONTINUOUS
 62
     7
 10
1053.037993
 20
473.46516
 30
0.0
 11
1053.127993
 21
474.14316
 31
0.0
  0
LINE
  8
0
  6
CONTINUOUS
 62
     7
 10
1056.028993
 20
488.33316
 30
0.0
 11
1054.958993
 21
480.30916
 31
0.0
  0
ARC
  8
0
  6
CONTINUOUS
 62
     7
 10
1057.533993
 20
473.39916
 30
0.0
 40
0.500372
 50
172.42049
 51
352.405357
  0
ARC
  8
0
  6
CONTINUOUS
 62
     7
 10
1059.532993
 20
488.39916
 30
0.0
 40
0.500372
 50
352.42049
 51
172.405357
  0
LINE
  8
0
  6
CONTINUOUS
 62
     7
 10
1057.037993
 20
473.46516
 30
0.0
 11
1059.037993
 21
488.46516
 31
0.0
  0
LINE
  8
0
  6
CONTINUOUS
 62
     7
 10
1060.028993
 20
488.33316
 30
0.0
 11
1058.028993
 21
473.33316
 31
0.0
  0
LINE
  8
0
  6
CONTINUOUS
 62
     7
 10
1052.950993
 20
473.98516
 30
0.0
 11
1053.037993
 21
473.33316
 31
0.0
  0
LINE
  8
0
  6
CONTINUOUS
 62
     7
 10
1057.362993
 20
475.89916
 30
0.0
 11
1055.032993
 21
475.89916
 31
0.0
  0
LINE
  8
0
  6
CONTINUOUS
 62
     7
 10
1058.695993
 20
485.89916
 30
0.0
 11
1055.704993
 21
485.89916
 31
0.0
  0
ARC
  8
0
  6
CONTINUOUS
 62
     7
 10
1055.533993
 20
488.39916
 30
0.0
 40
0.499381
 50
7.594643
 51
187.57951
  0
LINE
  8
0
  6
CONTINUOUS
 62
     7
 10
1056.695993
 20
475.89916
 30
0.0
 11
1057.037993
 21
473.33316
 31
0.0
  0
LINE
  8
0
  6
CONTINUOUS
 62
     7
 10
1060.032993
 20
485.89916
 30
0.0
 11
1059.704993
 21
485.89916
 31
0.0
  0
LINE
  8
0
  6
CONTINUOUS
 62
     7
 10
1060.032993
 20
475.89916
 30
0.0
 11
1058.370993
 21
475.89916
 31
0.0
  0
LINE
  8
0
  6
CONTINUOUS
 62
     7
 10
1056.370993
 20
485.89916
 30
0.0
 11
1056.028993
 21
488.46516
 31
0.0
  0
LINE
  8
0
  6
CONTINUOUS
 62
     7
 10
1064.733993
 20
481.49916
 30
0.0
 11
1064.733993
 21
486.14916
 31
0.0
  0
LINE
  8
0
  6
CONTINUOUS
 62
     7
 10
1064.733993
 20
481.49916
 30
0.0
 11
1062.933993
 21
481.49916
 31
0.0
  0
LINE
  8
0
  6
CONTINUOUS
 62
     7
 10
1064.733993
 20
480.29916
 30
0.0
 11
1062.933993
 21
480.29916
 31
0.0
  0
LINE
  8
0
  6
CONTINUOUS
 62
     7
 10
1062.933993
 20
481.49916
 30
0.0
 11
1062.933993
 21
480.29916
 31
0.0
  0
LINE
  8
0
  6
CONTINUOUS
 62
     7
 10
1065.787993
 20
480.89916
 30
0.0
 11
1048.881993
 21
480.89916
 31
0.0
  0
LINE
  8
0
  6
CONTINUOUS
 62
     7
 10
1064.733993
 20
475.64916
 30
0.0
 11
1064.733993
 21
480.29916
 31
0.0
  0
LINE
  8
0
  6
CONTINUOUS
 62
     7
 10
1060.833993
 20
475.64916
 30
0.0
 11
1064.733993
 21
475.64916
 31
0.0
  0
LINE
  8
0
  6
CONTINUOUS
 62
     7
 10
1060.833993
 20
486.14916
 30
0.0
 11
1060.833993
 21
475.64916
 31
0.0
  0
LINE
  8
0
  6
CONTINUOUS
 62
     7
 10
1064.733993
 20
486.14916
 30
0.0
 11
1060.833993
 21
486.14916
 31
0.0
  0
LINE
  8
0
  6
CONTINUOUS
 62
     7
 10
1055.033993
 20
485.87216
 30
0.0
 11
1055.033993
 21
481.49916
 31
0.0
  0
LINE
  8
0
  6
CONTINUOUS
 62
     7
 10
1055.032993
 20
480.29916
 30
0.0
 11
1055.032993
 21
474.82616
 31
0.0
  0
LINE
  8
0
  6
CONTINUOUS
 62
     7
 10
1054.033993
 20
457.89916
 30
0.0
 11
1052.033993
 21
457.89916
 31
0.0
  0
LINE
  8
0
  6
CONTINUOUS
 62
     7
 10
1052.033993
 20
471.82616
 30
0.0
 11
1052.033993
 21
447.89916
 31
0.0
  0
ARC
  8
0
  6
CONTINUOUS
 62
     7
 10
1062.033993
 20
448.89916
 30
0.0
 40
2.0
 50
270.0
 51
0.0
  0
LINE
  8
0
  6
CONTINUOUS
 62
     7
 10
1052.033993
 20
491.89916
 30
0.0
 11
1050.033993
 21
491.89916
 31
0.0
  0
LINE
  8
0
  6
CONTINUOUS
 62
     7
 10
1053.033993
 20
498.98816
 30
0.0
 11
1053.033993
 21
490.55316
 31
0.0
  0
LINE
  8
0
  6
CONTINUOUS
 62
     7
 10
1052.033993
 20
498.98816
 30
0.0
 11
1052.033993
 21
490.58016
 31
0.0
  0
ARC
  8
0
  6
CONTINUOUS
 62
     7
 10
1054.033993
 20
460.89916
 30
0.0
 40
2.0
 50
180.0
 51
270.0
  0
LINE
  8
0
  6
CONTINUOUS
 62
     7
 10
1052.033993
 20
491.89916
 30
0.0
 11
1052.033993
 21
490.58016
 31
0.0
  0
ARC
  8
0
  6
CONTINUOUS
 62
     7
 10
1054.033993
 20
444.89916
 30
0.0
 40
2.0
 50
90.0
 51
180.0
  0
ARC
  8
0
  6
CONTINUOUS
 62
     7
 10
1054.033993
 20
441.89916
 30
0.0
 40
2.0
 50
180.0
 51
216.869898
  0
LINE
  8
0
  6
CONTINUOUS
 62
     7
 10
1050.033993
 20
491.89916
 30
0.0
 11
1050.033993
 21
432.89916
 31
0.0
  0
LINE
  8
0
  6
CONTINUOUS
 62
     7
 10
1055.033993
 20
491.89916
 30
0.0
 11
1055.033993
 21
486.91116
 31
0.0
  0
LINE
  8
0
  6
CONTINUOUS
 62
     7
 10
1052.033993
 20
441.89916
 30
0.0
 11
1052.033993
 21
444.89916
 31
0.0
  0
ARC
  8
0
  6
CONTINUOUS
 62
     7
 10
1062.033993
 20
456.89916
 30
0.0
 40
2.0
 50
0.0
 51
90.0
  0
LINE
  8
0
  6
CONTINUOUS
 62
     7
 10
1062.033993
 20
446.89916
 30
0.0
 11
1054.033993
 21
446.89916
 31
0.0
  0
LINE
  8
0
  6
CONTINUOUS
 62
     7
 10
1062.033993
 20
447.89916
 30
0.0
 11
1052.033993
 21
447.89916
 31
0.0
  0
LINE
  8
0
  6
CONTINUOUS
 62
     7
 10
1062.033993
 20
457.89916
 30
0.0
 11
1060.032993
 21
457.89916
 31
0.0
  0
LINE
  8
0
  6
CONTINUOUS
 62
     7
 10
1062.033993
 20
458.89916
 30
0.0
 11
1060.032993
 21
458.89916
 31
0.0
  0
LINE
  8
0
  6
CONTINUOUS
 62
     7
 10
1055.033993
 20
491.89916
 30
0.0
 11
1053.033993
 21
491.89916
 31
0.0
  0
LINE
  8
0
  6
CONTINUOUS
 62
     7
 10
1062.033993
 20
457.89916
 30
0.0
 11
1062.033993
 21
447.89916
 31
0.0
  0
ARC
  8
0
  6
CONTINUOUS
 62
     7
 10
1052.747993
 20
490.55316
 30
0.0
 40
0.285633
 50
266.185925
 51
0.0
  0
ARC
  8
0
  6
CONTINUOUS
 62
     7
 10
1052.315993
 20
490.58016
 30
0.0
 40
0.282
 50
180.0
 51
266.145472
  0
ARC
  8
0
  6
CONTINUOUS
 62
     7
 10
1052.540993
 20
486.66416
 30
0.0
 40
0.507879
 50
83.896515
 51
263.547537
  0
ARC
  8
0
  6
CONTINUOUS
 62
     7
 10
1052.627993
 20
481.20716
 30
0.0
 40
0.594875
 50
82.659946
 51
262.755493
  0
LINE
  8
0
  6
CONTINUOUS
 62
     7
 10
1055.033993
 20
490.71116
 30
0.0
 11
1053.033993
 21
490.82316
 31
0.0
  0
LINE
  8
0
  6
CONTINUOUS
 62
     7
 10
1055.033993
 20
490.11116
 30
0.0
 11
1052.296993
 21
490.29816
 31
0.0
  0
LINE
  8
0
  6
CONTINUOUS
 62
     7
 10
1055.033993
 20
486.91116
 30
0.0
 11
1052.594993
 21
487.16916
 31
0.0
  0
LINE
  8
0
  6
CONTINUOUS
 62
     7
 10
1055.033993
 20
485.87216
 30
0.0
 11
1052.483993
 21
486.16016
 31
0.0
  0
LINE
  8
0
  6
CONTINUOUS
 62
     7
 10
1055.033993
 20
481.49916
 30
0.0
 11
1052.703993
 21
481.79716
 31
0.0
  0
LINE
  8
0
  6
CONTINUOUS
 62
     7
 10
1055.032993
 20
480.29916
 30
0.0
 11
1052.552993
 21
480.61716
 31
0.0
  0
ARC
  8
0
  6
CONTINUOUS
 62
     7
 10
1055.033993
 20
471.82616
 30
0.0
 40
3.0
 50
90.019099
 51
180.0
  0
LINE
  8
0
  6
CONTINUOUS
 62
     7
 10
1060.833993
 20
488.89916
 30
0.0
 11
1060.833993
 21
462.43416
 31
0.0
  0
LINE
  8
0
  6
CONTINUOUS
 62
     7
 10
1060.833993
 20
462.43416
 30
0.0
 11
1060.032993
 21
462.43416
 31
0.0
  0
LINE
  8
0
  6
CONTINUOUS
 62
     7
 10
1054.033993
 20
451.64216
 30
0.0
 11
1054.033993
 21
473.39916
 31
0.0
  0
LINE
  8
0
  6
CONTINUOUS
 62
     7
 10
1060.032993
 20
488.89916
 30
0.0
 11
1060.032993
 21
451.64216
 31
0.0
  0
LINE
  8
0
  6
CONTINUOUS
 62
     7
 10
1060.833993
 20
488.89916
 30
0.0
 11
1060.032993
 21
488.89916
 31
0.0
  0
LINE
  8
0
  6
CONTINUOUS
 62
     7
 10
1060.032993
 20
469.74816
 30
0.0
 11
1054.033993
 21
469.74816
 31
0.0
  0
LINE
  8
0
  6
CONTINUOUS
 62
     7
 10
1060.032993
 20
468.94916
 30
0.0
 11
1054.033993
 21
468.94916
 31
0.0
  0
LINE
  8
0
  6
CONTINUOUS
 62
     7
 10
1060.032993
 20
452.43216
 30
0.0
 11
1054.033993
 21
452.43216
 31
0.0
  0
LINE
  8
0
  6
CONTINUOUS
 62
     7
 10
1060.032993
 20
451.64216
 30
0.0
 11
1054.033993
 21
451.64216
 31
0.0
  0
LINE
  8
0
  6
CONTINUOUS
 62
     7
 10
1061.470993
 20
439.89916
 30
0.0
 11
1062.033993
 21
439.89916
 31
0.0
  0
LINE
  8
0
  6
CONTINUOUS
 62
     7
 10
1062.033993
 20
433.89916
 30
0.0
 11
1064.033993
 21
433.89916
 31
0.0
  0
LINE
  8
0
  6
CONTINUOUS
 62
     7
 10
1064.033993
 20
432.89916
 30
0.0
 11
1064.033993
 21
456.89916
 31
0.0
  0
ARC
  8
0
  6
CONTINUOUS
 62
     7
 10
1062.033993
 20
437.89916
 30
0.0
 40
2.0
 50
0.0
 51
90.0
  0
ARC
  8
0
  6
CONTINUOUS
 62
     7
 10
1052.033993
 20
437.89916
 30
0.0
 40
2.0
 50
90.0
 51
180.0
  0
LINE
  8
0
  6
CONTINUOUS
 62
     7
 10
1052.033993
 20
439.89916
 30
0.0
 11
1052.595993
 21
439.89916
 31
0.0
  0
LINE
  8
0
  6
CONTINUOUS
 62
     7
 10
1050.032993
 20
433.89916
 30
0.0
 11
1052.033993
 21
433.89916
 31
0.0
  0
ARC
  8
0
  6
CONTINUOUS
 62
     7
 10
1054.033993
 20
434.59916
 30
0.0
 40
1.0
 50
270.0
 51
0.0
  0
ARC
  8
0
  6
CONTINUOUS
 62
     7
 10
1054.033993
 20
434.59916
 30
0.0
 40
1.9
 50
270.0
 51
320.982216
  0
ARC
  8
0
  6
CONTINUOUS
 62
     7
 10
1060.033993
 20
434.59916
 30
0.0
 40
1.900512
 50
218.998805
 51
270.0
  0
ARC
  8
0
  6
CONTINUOUS
 62
     7
 10
1060.033993
 20
434.59916
 30
0.0
 40
1.0
 50
180.0
 51
270.0
  0
LINE
  8
0
  6
CONTINUOUS
 62
     7
 10
1059.033993
 20
434.69916
 30
0.0
 11
1059.033993
 21
434.59916
 31
0.0
  0
CIRCLE
  8
0
  6
CONTINUOUS
 62
     7
 10
1057.033993
 20
434.69916
 30
0.0
 40
1.099
  0
CIRCLE
  8
0
  6
CONTINUOUS
 62
     7
 10
1057.033993
 20
434.69916
 30
0.0
 40
2.0
  0
LINE
  8
0
  6
CONTINUOUS
 62
     7
 10
1093.833993
 20
441.19916
 30
0.0
 11
1094.833993
 21
440.19916
 31
0.0
  0
LINE
  8
0
  6
CONTINUOUS
 62
     7
 10
1095.133993
 20
441.19916
 30
0.0
 11
1096.133993
 21
440.19916
 31
0.0
  0
ARC
  8
0
  6
CONTINUOUS
 62
     7
 10
1091.573993
 20
443.26416
 30
0.0
 40
1.436162
 50
42.432024
 51
137.541045
  0
ARC
  8
0
  6
CONTINUOUS
 62
     7
 10
1098.692993
 20
443.26416
 30
0.0
 40
1.435424
 50
42.458955
 51
137.541045
  0
ARC
  8
0
  6
CONTINUOUS
 62
     7
 10
1095.133993
 20
437.77216
 30
0.0
 40
6.927808
 50
68.846702
 51
111.153298
  0
LINE
  8
0
  6
CONTINUOUS
 62
     7
 10
1097.633993
 20
441.19916
 30
0.0
 11
1097.633993
 21
444.23316
 31
0.0
  0
LINE
  8
0
  6
CONTINUOUS
 62
     7
 10
1092.633993
 20
444.23316
 30
0.0
 11
1092.633993
 21
441.19916
 31
0.0
  0
LINE
  8
0
  6
CONTINUOUS
 62
     7
 10
1098.692993
 20
444.69916
 30
0.0
 11
1091.573993
 21
444.69916
 31
0.0
  0
LINE
  8
0
  6
CONTINUOUS
 62
     7
 10
1099.751993
 20
441.19916
 30
0.0
 11
1099.751993
 21
444.23316
 31
0.0
  0
LINE
  8
0
  6
CONTINUOUS
 62
     7
 10
1090.514993
 20
444.23316
 30
0.0
 11
1090.514993
 21
441.19916
 31
0.0
  0
LINE
  8
0
  6
CONTINUOUS
 62
     7
 10
1099.732993
 20
441.19916
 30
0.0
 11
1090.533993
 21
441.19916
 31
0.0
  0
LINE
  8
0
  6
CONTINUOUS
 62
     7
 10
1099.732993
 20
439.89916
 30
0.0
 11
1099.732993
 21
441.19916
 31
0.0
  0
LINE
  8
0
  6
CONTINUOUS
 62
     7
 10
1090.533993
 20
441.19916
 30
0.0
 11
1090.533993
 21
439.89916
 31
0.0
  0
LINE
  8
0
  6
CONTINUOUS
 62
     7
 10
1094.788993
 20
435.74416
 30
0.0
 11
1095.133993
 21
435.39916
 31
0.0
  0
LINE
  8
0
  6
CONTINUOUS
 62
     7
 10
1095.981993
 20
435.39916
 30
0.0
 11
1094.284993
 21
435.39916
 31
0.0
  0
LINE
  8
0
  6
CONTINUOUS
 62
     7
 10
1093.259993
 20
435.39916
 30
0.0
 11
1090.133993
 21
435.39916
 31
0.0
  0
LINE
  8
0
  6
CONTINUOUS
 62
     7
 10
1097.153993
 20
434.39916
 30
0.0
 11
1100.133993
 21
434.39916
 31
0.0
  0
LINE
  8
0
  6
CONTINUOUS
 62
     7
 10
1094.074993
 20
434.39916
 30
0.0
 11
1096.191993
 21
434.39916
 31
0.0
  0
LINE
  8
0
  6
CONTINUOUS
 62
     7
 10
1098.133993
 20
433.59916
 30
0.0
 11
1100.133993
 21
433.59916
 31
0.0
  0
LINE
  8
0
  6
CONTINUOUS
 62
     7
 10
1090.383993
 20
433.59916
 30
0.0
 11
1090.383993
 21
432.69916
 31
0.0
  0
LINE
  8
0
  6
CONTINUOUS
 62
     7
 10
1100.133993
 20
435.39916
 30
0.0
 11
1097.006993
 21
435.39916
 31
0.0
  0
LINE
  8
0
  6
CONTINUOUS
 62
     7
 10
1100.133993
 20
434.39916
 30
0.0
 11
1100.133993
 21
435.39916
 31
0.0
  0
LINE
  8
0
  6
CONTINUOUS
 62
     7
 10
1090.133993
 20
434.39916
 30
0.0
 11
1093.112993
 21
434.39916
 31
0.0
  0
LINE
  8
0
  6
CONTINUOUS
 62
     7
 10
1090.133993
 20
435.39916
 30
0.0
 11
1090.133993
 21
434.39916
 31
0.0
  0
LINE
  8
0
  6
CONTINUOUS
 62
     7
 10
1093.833993
 20
436.69916
 30
0.0
 11
1094.112993
 21
436.42016
 31
0.0
  0
ARC
  8
0
  6
CONTINUOUS
 62
     7
 10
1091.573993
 20
438.76416
 30
0.0
 40
1.436162
 50
42.432024
 51
137.541045
  0
ARC
  8
0
  6
CONTINUOUS
 62
     7
 10
1098.692993
 20
438.76416
 30
0.0
 40
1.435424
 50
42.458955
 51
137.541045
  0
ARC
  8
0
  6
CONTINUOUS
 62
     7
 10
1095.133993
 20
433.27216
 30
0.0
 40
6.927808
 50
68.846702
 51
111.153298
  0
LINE
  8
0
  6
CONTINUOUS
 62
     7
 10
1097.633993
 20
436.69916
 30
0.0
 11
1097.633993
 21
439.73316
 31
0.0
  0
LINE
  8
0
  6
CONTINUOUS
 62
     7
 10
1092.633993
 20
439.73316
 30
0.0
 11
1092.633993
 21
436.69916
 31
0.0
  0
LINE
  8
0
  6
CONTINUOUS
 62
     7
 10
1098.692993
 20
440.19916
 30
0.0
 11
1091.573993
 21
440.19916
 31
0.0
  0
LINE
  8
0
  6
CONTINUOUS
 62
     7
 10
1099.751993
 20
436.69916
 30
0.0
 11
1099.751993
 21
439.73316
 31
0.0
  0
LINE
  8
0
  6
CONTINUOUS
 62
     7
 10
1090.514993
 20
436.69916
 30
0.0
 11
1099.751993
 21
436.69916
 31
0.0
  0
LINE
  8
0
  6
CONTINUOUS
 62
     7
 10
1090.514993
 20
439.73316
 30
0.0
 11
1090.514993
 21
436.69916
 31
0.0
  0
LINE
  8
0
  6
CONTINUOUS
 62
     7
 10
1099.732993
 20
435.39916
 30
0.0
 11
1099.732993
 21
436.69916
 31
0.0
  0
LINE
  8
0
  6
CONTINUOUS
 62
     7
 10
1090.533993
 20
436.69916
 30
0.0
 11
1090.533993
 21
435.39916
 31
0.0
  0
LINE
  8
0
  6
CONTINUOUS
 62
     7
 10
1090.133993
 20
433.59916
 30
0.0
 11
1090.133993
 21
434.39916
 31
0.0
  0
LINE
  8
0
  6
CONTINUOUS
 62
     7
 10
1100.133993
 20
433.59916
 30
0.0
 11
1100.133993
 21
434.39916
 31
0.0
  0
LINE
  8
0
  6
CONTINUOUS
 62
     7
 10
1099.883993
 20
433.59916
 30
0.0
 11
1099.883993
 21
432.69916
 31
0.0
  0
LINE
  8
0
  6
CONTINUOUS
 62
     7
 10
1090.133993
 20
432.69916
 30
0.0
 11
1100.133993
 21
432.69916
 31
0.0
  0
LINE
  8
0
  6
CONTINUOUS
 62
     7
 10
1090.133993
 20
433.59916
 30
0.0
 11
1092.133993
 21
433.59916
 31
0.0
  0
LINE
  8
0
  6
CONTINUOUS
 62
     7
 10
1095.133993
 20
467.04616
 30
0.0
 11
1095.133993
 21
461.80316
 31
0.0
  0
LINE
  8
0
  6
CONTINUOUS
 62
     7
 10
1097.388993
 20
464.61116
 30
0.0
 11
1092.774993
 21
464.61116
 31
0.0
  0
CIRCLE
  8
0
  6
CONTINUOUS
 62
     7
 10
1095.133993
 20
464.61116
 30
0.0
 40
1.75
  0
LINE
  8
0
  6
CONTINUOUS
 62
     7
 10
1092.312993
 20
474.71216
 30
0.0
 11
1092.128993
 21
473.33316
 31
0.0
  0
LINE
  8
0
  6
CONTINUOUS
 62
     7
 10
1092.066993
 20
480.43616
 30
0.0
 11
1092.224993
 21
481.61516
 31
0.0
  0
LINE
  8
0
  6
CONTINUOUS
 62
     7
 10
1092.796993
 20
485.91016
 30
0.0
 11
1093.137993
 21
488.46616
 31
0.0
  0
ARC
  8
0
  6
CONTINUOUS
 62
     7
 10
1091.633993
 20
473.39916
 30
0.0
 40
0.500505
 50
172.307014
 51
352.405357
  0
ARC
  8
0
  6
CONTINUOUS
 62
     7
 10
1093.633993
 20
488.39916
 30
0.0
 40
0.499381
 50
352.405357
 51
172.307014
  0
LINE
  8
0
  6
CONTINUOUS
 62
     7
 10
1091.137993
 20
473.46616
 30
0.0
 11
1091.227993
 21
474.14416
 31
0.0
  0
LINE
  8
0
  6
CONTINUOUS
 62
     7
 10
1094.128993
 20
488.33316
 30
0.0
 11
1093.058993
 21
480.30916
 31
0.0
  0
ARC
  8
0
  6
CONTINUOUS
 62
     7
 10
1095.633993
 20
473.39916
 30
0.0
 40
0.500505
 50
172.307014
 51
352.405357
  0
ARC
  8
0
  6
CONTINUOUS
 62
     7
 10
1097.633993
 20
488.39916
 30
0.0
 40
0.499381
 50
352.405357
 51
172.307014
  0
LINE
  8
0
  6
CONTINUOUS
 62
     7
 10
1095.137993
 20
473.46616
 30
0.0
 11
1097.137993
 21
488.46616
 31
0.0
  0
LINE
  8
0
  6
CONTINUOUS
 62
     7
 10
1098.128993
 20
488.33316
 30
0.0
 11
1096.128993
 21
473.33316
 31
0.0
  0
LINE
  8
0
  6
CONTINUOUS
 62
     7
 10
1091.050993
 20
473.98616
 30
0.0
 11
1091.137993
 21
473.33316
 31
0.0
  0
LINE
  8
0
  6
CONTINUOUS
 62
     7
 10
1095.461993
 20
475.89916
 30
0.0
 11
1093.133993
 21
475.89916
 31
0.0
  0
LINE
  8
0
  6
CONTINUOUS
 62
     7
 10
1096.795993
 20
485.89916
 30
0.0
 11
1093.804993
 21
485.89916
 31
0.0
  0
ARC
  8
0
  6
CONTINUOUS
 62
     7
 10
1093.633993
 20
488.39916
 30
0.0
 40
0.499514
 50
7.70834
 51
187.57951
  0
LINE
  8
0
  6
CONTINUOUS
 62
     7
 10
1094.795993
 20
475.89916
 30
0.0
 11
1095.137993
 21
473.33316
 31
0.0
  0
LINE
  8
0
  6
CONTINUOUS
 62
     7
 10
1098.133993
 20
485.89916
 30
0.0
 11
1097.804993
 21
485.89916
 31
0.0
  0
LINE
  8
0
  6
CONTINUOUS
 62
     7
 10
1098.133993
 20
475.89916
 30
0.0
 11
1096.470993
 21
475.89916
 31
0.0
  0
LINE
  8
0
  6
CONTINUOUS
 62
     7
 10
1094.470993
 20
485.89916
 30
0.0
 11
1094.128993
 21
488.46616
 31
0.0
  0
LINE
  8
0
  6
CONTINUOUS
 62
     7
 10
1102.833993
 20
481.50016
 30
0.0
 11
1102.833993
 21
486.14916
 31
0.0
  0
LINE
  8
0
  6
CONTINUOUS
 62
     7
 10
1102.833993
 20
481.50016
 30
0.0
 11
1101.033993
 21
481.50016
 31
0.0
  0
LINE
  8
0
  6
CONTINUOUS
 62
     7
 10
1102.833993
 20
480.29916
 30
0.0
 11
1101.033993
 21
480.29916
 31
0.0
  0
LINE
  8
0
  6
CONTINUOUS
 62
     7
 10
1101.033993
 20
481.50016
 30
0.0
 11
1101.033993
 21
480.29916
 31
0.0
  0
LINE
  8
0
  6
CONTINUOUS
 62
     7
 10
1103.887993
 20
480.89916
 30
0.0
 11
1086.981993
 21
480.89916
 31
0.0
  0
LINE
  8
0
  6
CONTINUOUS
 62
     7
 10
1102.833993
 20
475.64916
 30
0.0
 11
1102.833993
 21
480.29916
 31
0.0
  0
LINE
  8
0
  6
CONTINUOUS
 62
     7
 10
1098.933993
 20
475.64916
 30
0.0
 11
1102.833993
 21
475.64916
 31
0.0
  0
LINE
  8
0
  6
CONTINUOUS
 62
     7
 10
1098.933993
 20
486.14916
 30
0.0
 11
1098.933993
 21
475.64916
 31
0.0
  0
LINE
  8
0
  6
CONTINUOUS
 62
     7
 10
1102.833993
 20
486.14916
 30
0.0
 11
1098.933993
 21
486.14916
 31
0.0
  0
LINE
  8
0
  6
CONTINUOUS
 62
     7
 10
1093.133993
 20
485.87216
 30
0.0
 11
1093.133993
 21
481.50016
 31
0.0
  0
LINE
  8
0
  6
CONTINUOUS
 62
     7
 10
1093.133993
 20
480.30016
 30
0.0
 11
1093.133993
 21
474.82616
 31
0.0
  0
LINE
  8
0
  6
CONTINUOUS
 62
     7
 10
1092.133993
 20
457.89916
 30
0.0
 11
1090.133993
 21
457.89916
 31
0.0
  0
LINE
  8
0
  6
CONTINUOUS
 62
     7
 10
1090.133993
 20
471.82616
 30
0.0
 11
1090.133993
 21
447.89916
 31
0.0
  0
ARC
  8
0
  6
CONTINUOUS
 62
     7
 10
1100.133993
 20
448.89916
 30
0.0
 40
2.0
 50
270.0
 51
0.0
  0
LINE
  8
0
  6
CONTINUOUS
 62
     7
 10
1088.133993
 20
491.89916
 30
0.0
 11
1088.133993
 21
432.89916
 31
0.0
  0
LINE
  8
0
  6
CONTINUOUS
 62
     7
 10
1090.133993
 20
491.89916
 30
0.0
 11
1088.133993
 21
491.89916
 31
0.0
  0
LINE
  8
0
  6
CONTINUOUS
 62
     7
 10
1091.133993
 20
498.98816
 30
0.0
 11
1091.133993
 21
490.55316
 31
0.0
  0
LINE
  8
0
  6
CONTINUOUS
 62
     7
 10
1090.133993
 20
498.98816
 30
0.0
 11
1090.133993
 21
490.58016
 31
0.0
  0
ARC
  8
0
  6
CONTINUOUS
 62
     7
 10
1092.133993
 20
460.89916
 30
0.0
 40
2.0
 50
180.0
 51
270.0
  0
LINE
  8
0
  6
CONTINUOUS
 62
     7
 10
1090.133993
 20
491.89916
 30
0.0
 11
1090.133993
 21
490.58016
 31
0.0
  0
ARC
  8
0
  6
CONTINUOUS
 62
     7
 10
1092.133993
 20
444.89916
 30
0.0
 40
2.0
 50
90.0
 51
180.0
  0
ARC
  8
0
  6
CONTINUOUS
 62
     7
 10
1092.133993
 20
441.89916
 30
0.0
 40
2.0
 50
180.0
 51
216.869898
  0
LINE
  8
0
  6
CONTINUOUS
 62
     7
 10
1093.133993
 20
491.89916
 30
0.0
 11
1093.133993
 21
486.91116
 31
0.0
  0
LINE
  8
0
  6
CONTINUOUS
 62
     7
 10
1090.133993
 20
441.89916
 30
0.0
 11
1090.133993
 21
444.89916
 31
0.0
  0
ARC
  8
0
  6
CONTINUOUS
 62
     7
 10
1100.133993
 20
456.89916
 30
0.0
 40
2.0
 50
0.0
 51
90.0
  0
LINE
  8
0
  6
CONTINUOUS
 62
     7
 10
1100.133993
 20
446.89916
 30
0.0
 11
1092.133993
 21
446.89916
 31
0.0
  0
LINE
  8
0
  6
CONTINUOUS
 62
     7
 10
1100.133993
 20
447.89916
 30
0.0
 11
1090.133993
 21
447.89916
 31
0.0
  0
LINE
  8
0
  6
CONTINUOUS
 62
     7
 10
1100.133993
 20
457.89916
 30
0.0
 11
1098.133993
 21
457.89916
 31
0.0
  0
LINE
  8
0
  6
CONTINUOUS
 62
     7
 10
1100.133993
 20
458.89916
 30
0.0
 11
1098.133993
 21
458.89916
 31
0.0
  0
LINE
  8
0
  6
CONTINUOUS
 62
     7
 10
1093.133993
 20
491.89916
 30
0.0
 11
1091.133993
 21
491.89916
 31
0.0
  0
LINE
  8
0
  6
CONTINUOUS
 62
     7
 10
1100.133993
 20
457.89916
 30
0.0
 11
1100.133993
 21
447.89916
 31
0.0
  0
ARC
  8
0
  6
CONTINUOUS
 62
     7
 10
1090.847993
 20
490.55316
 30
0.0
 40
0.285633
 50
266.185925
 51
0.0
  0
ARC
  8
0
  6
CONTINUOUS
 62
     7
 10
1090.416993
 20
490.58016
 30
0.0
 40
0.283
 50
180.0
 51
265.943262
  0
ARC
  8
0
  6
CONTINUOUS
 62
     7
 10
1090.640993
 20
486.66516
 30
0.0
 40
0.506885
 50
83.884496
 51
263.560207
  0
ARC
  8
0
  6
CONTINUOUS
 62
     7
 10
1090.728993
 20
481.20716
 30
0.0
 40
0.594748
 50
82.755493
 51
262.659946
  0
LINE
  8
0
  6
CONTINUOUS
 62
     7
 10
1093.133993
 20
490.71116
 30
0.0
 11
1091.133993
 21
490.82316
 31
0.0
  0
LINE
  8
0
  6
CONTINUOUS
 62
     7
 10
1093.133993
 20
490.11216
 30
0.0
 11
1090.396993
 21
490.29816
 31
0.0
  0
LINE
  8
0
  6
CONTINUOUS
 62
     7
 10
1093.133993
 20
486.91116
 30
0.0
 11
1090.694993
 21
487.16916
 31
0.0
  0
LINE
  8
0
  6
CONTINUOUS
 62
     7
 10
1093.133993
 20
485.87216
 30
0.0
 11
1090.583993
 21
486.16016
 31
0.0
  0
LINE
  8
0
  6
CONTINUOUS
 62
     7
 10
1093.133993
 20
481.50016
 30
0.0
 11
1090.803993
 21
481.79716
 31
0.0
  0
LINE
  8
0
  6
CONTINUOUS
 62
     7
 10
1093.133993
 20
480.30016
 30
0.0
 11
1090.652993
 21
480.61716
 31
0.0
  0
ARC
  8
0
  6
CONTINUOUS
 62
     7
 10
1093.133993
 20
471.82616
 30
0.0
 40
3.0
 50
90.0
 51
180.0
  0
LINE
  8
0
  6
CONTINUOUS
 62
     7
 10
1098.933993
 20
488.89916
 30
0.0
 11
1098.933993
 21
462.43416
 31
0.0
  0
LINE
  8
0
  6
CONTINUOUS
 62
     7
 10
1098.933993
 20
462.43416
 30
0.0
 11
1098.133993
 21
462.43416
 31
0.0
  0
LINE
  8
0
  6
CONTINUOUS
 62
     7
 10
1092.133993
 20
451.64216
 30
0.0
 11
1092.133993
 21
473.39916
 31
0.0
  0
LINE
  8
0
  6
CONTINUOUS
 62
     7
 10
1098.133993
 20
488.89916
 30
0.0
 11
1098.133993
 21
451.64216
 31
0.0
  0
LINE
  8
0
  6
CONTINUOUS
 62
     7
 10
1098.933993
 20
488.89916
 30
0.0
 11
1098.133993
 21
488.89916
 31
0.0
  0
LINE
  8
0
  6
CONTINUOUS
 62
     7
 10
1098.133993
 20
469.74816
 30
0.0
 11
1092.133993
 21
469.74816
 31
0.0
  0
LINE
  8
0
  6
CONTINUOUS
 62
     7
 10
1098.133993
 20
468.94916
 30
0.0
 11
1092.133993
 21
468.94916
 31
0.0
  0
LINE
  8
0
  6
CONTINUOUS
 62
     7
 10
1098.133993
 20
452.43216
 30
0.0
 11
1092.133993
 21
452.43216
 31
0.0
  0
LINE
  8
0
  6
CONTINUOUS
 62
     7
 10
1098.133993
 20
451.64216
 30
0.0
 11
1092.133993
 21
451.64216
 31
0.0
  0
LINE
  8
0
  6
CONTINUOUS
 62
     7
 10
1099.570993
 20
439.89916
 30
0.0
 11
1100.133993
 21
439.89916
 31
0.0
  0
LINE
  8
0
  6
CONTINUOUS
 62
     7
 10
1100.133993
 20
433.89916
 30
0.0
 11
1102.133993
 21
433.89916
 31
0.0
  0
LINE
  8
0
  6
CONTINUOUS
 62
     7
 10
1102.133993
 20
432.89916
 30
0.0
 11
1102.133993
 21
456.89916
 31
0.0
  0
ARC
  8
0
  6
CONTINUOUS
 62
     7
 10
1100.133993
 20
437.89916
 30
0.0
 40
2.0
 50
0.0
 51
90.0
  0
ARC
  8
0
  6
CONTINUOUS
 62
     7
 10
1090.133993
 20
437.89916
 30
0.0
 40
2.0
 50
90.0
 51
180.0
  0
LINE
  8
0
  6
CONTINUOUS
 62
     7
 10
1090.133993
 20
439.89916
 30
0.0
 11
1090.695993
 21
439.89916
 31
0.0
  0
LINE
  8
0
  6
CONTINUOUS
 62
     7
 10
1088.133993
 20
433.89916
 30
0.0
 11
1090.133993
 21
433.89916
 31
0.0
  0
ARC
  8
0
  6
CONTINUOUS
 62
     7
 10
1092.133993
 20
434.59916
 30
0.0
 40
1.0
 50
270.0
 51
0.0
  0
ARC
  8
0
  6
CONTINUOUS
 62
     7
 10
1092.133993
 20
434.59916
 30
0.0
 40
1.9
 50
270.0
 51
321.005656
  0
ARC
  8
0
  6
CONTINUOUS
 62
     7
 10
1098.133993
 20
434.59916
 30
0.0
 40
1.899883
 50
218.975368
 51
270.0
  0
ARC
  8
0
  6
CONTINUOUS
 62
     7
 10
1098.133993
 20
434.59916
 30
0.0
 40
1.0
 50
180.0
 51
270.0
  0
LINE
  8
0
  6
CONTINUOUS
 62
     7
 10
1097.133993
 20
434.69916
 30
0.0
 11
1097.133993
 21
434.59916
 31
0.0
  0
CIRCLE
  8
0
  6
CONTINUOUS
 62
     7
 10
1095.133993
 20
434.69916
 30
0.0
 40
1.1
  0
CIRCLE
  8
0
  6
CONTINUOUS
 62
     7
 10
1095.133993
 20
434.69916
 30
0.0
 40
2.0
  0
LINE
  8
0
  6
CONTINUOUS
 62
     7
 10
1048.633993
 20
438.89916
 30
0.0
 11
1050.033993
 21
438.89916
 31
0.0
  0
LINE
  8
0
  6
CONTINUOUS
 62
     7
 10
1048.633993
 20
432.89916
 30
0.0
 11
1048.633993
 21
438.89916
 31
0.0
  0
LINE
  8
0
  6
CONTINUOUS
 62
     7
 10
1114.633993
 20
432.89916
 30
0.0
 11
1114.633993
 21
445.39916
 31
0.0
  0
LINE
  8
0
  6
CONTINUOUS
 62
     7
 10
1129.632993
 20
432.89916
 30
0.0
 11
1129.632993
 21
445.39916
 31
0.0
  0
LINE
  8
0
  6
CONTINUOUS
 62
     7
 10
1102.133993
 20
445.39916
 30
0.0
 11
1129.632993
 21
445.39916
 31
0.0
  0
LINE
  8
0
  6
CONTINUOUS
 62
     7
 10
1064.033993
 20
445.39916
 30
0.0
 11
1088.133993
 21
445.39916
 31
0.0
  0
POLYLINE
  8
0
  6
CONTINUOUS
 62
     7
 66
     1
 10
0.0
 20
0.0
 30
0.0
  0
VERTEX
  8
0
  6
CONTINUOUS
 62
     7
 10
1020.132993
 20
495.588877
 30
0.0
 42
-0.018041
 50
33.467658
  0
VERTEX
  8
0
  6
CONTINUOUS
 62
     7
 10
1021.593993
 20
495.82716
 30
0.0
 42
-0.033104
 70
     2
 50
7.196061
  0
VERTEX
  8
0
  6
CONTINUOUS
 62
     7
 10
1031.306642
 20
496.404872
 30
0.0
 42
0.089378
 50
7.196061
  0
VERTEX
  8
0
  6
CONTINUOUS
 62
     7
 10
1034.881993
 20
497.02416
 30
0.0
 42
0.103033
 70
     2
 50
20.041588
  0
VERTEX
  8
0
  6
CONTINUOUS
 62
     7
 10
1043.372572
 20
502.289935
 30
0.0
 42
-0.159661
 50
20.041588
  0
VERTEX
  8
0
  6
CONTINUOUS
 62
     7
 10
1049.280993
 20
505.09916
 30
0.0
 42
-0.13333
 70
     2
 50
7.286559
  0
VERTEX
  8
0
  6
CONTINUOUS
 62
     7
 10
1053.556666
 20
504.50568
 30
0.0
 42
0.056571
 50
7.286559
  0
VERTEX
  8
0
  6
CONTINUOUS
 62
     7
 10
1063.165993
 20
501.63816
 30
0.0
 42
0.095494
 70
     2
 50
349.860044
  0
VERTEX
  8
0
  6
CONTINUOUS
 62
     7
 10
1068.989149
 20
501.716402
 30
0.0
 42
-0.048748
 50
349.860044
  0
VERTEX
  8
0
  6
CONTINUOUS
 62
     7
 10
1080.256993
 20
502.92016
 30
0.0
 42
-0.065747
 70
     2
 50
0.51614
  0
VERTEX
  8
0
  6
CONTINUOUS
 62
     7
 10
1081.935099
 20
502.713903
 30
0.0
 42
-0.005548
 50
0.51614
  0
VERTEX
  8
0
  6
CONTINUOUS
 62
     7
 10
1101.191993
 20
497.49416
 30
0.0
 42
0.007692
 70
     2
 50
344.198208
  0
VERTEX
  8
0
  6
CONTINUOUS
 62
     7
 10
1121.655269
 20
492.0415
 30
0.0
 42
-0.065863
 50
344.198208
  0
VERTEX
  8
0
  6
CONTINUOUS
 62
     7
 10
1123.964993
 20
491.12816
 30
0.0
 42
-0.087185
 70
     2
 50
330.888117
  0
VERTEX
  8
0
  6
CONTINUOUS
 62
     7
 10
1128.823965
 20
487.182576
 30
0.0
 42
-0.023563
 50
330.888117
  0
VERTEX
  8
0
  6
CONTINUOUS
 62
     7
 10
1143.063993
 20
469.12416
 30
0.0
 42
-0.019709
 70
     2
 50
305.558063
  0
VERTEX
  8
0
  6
CONTINUOUS
 62
     7
 10
1152.297702
 20
455.067133
 30
0.0
 42
-0.069598
 50
305.558063
  0
VERTEX
  8
0
  6
CONTINUOUS
 62
     7
 10
1154.172993
 20
450.66616
 30
0.0
 42
-0.072515
 70
     2
 50
285.11677
  0
VERTEX
  8
0
  6
CONTINUOUS
 62
     7
 10
1154.910552
 20
444.500599
 30
0.0
 42
-0.038467
 50
285.11677
  0
VERTEX
  8
0
  6
CONTINUOUS
 62
     7
 10
1153.715993
 20
432.90016
 30
0.0
 70
     2
 50
259.714851
  0
SEQEND
  8
0
 62
     7
  0
LINE
  8
0
  6
HIDDEN
 62
     7
 10
1135.132993
 20
479.610422
 30
0.0
 11
1135.132993
 21
432.89916
 31
0.0
  0
LINE
  8
0
  6
HIDDEN
 62
     7
 10
1114.583524
 20
493.849691
 30
0.0
 11
1109.349468
 21
488.615635
 31
0.0
  0
LINE
  8
0
  6
HIDDEN
 62
     7
 10
1086.732993
 20
501.456236
 30
0.0
 11
1086.732993
 21
486.89916
 31
0.0
  0
LINE
  8
0
  6
HIDDEN
 62
     7
 10
1074.032993
 20
502.530272
 30
0.0
 11
1074.032993
 21
486.89916
 31
0.0
  0
LINE
  8
0
  6
HIDDEN
 62
     7
 10
1048.432993
 20
504.955231
 30
0.0
 11
1048.432993
 21
499.39916
 31
0.0
  0
LINE
  8
0
  6
HIDDEN
 62
     7
 10
1053.732993
 20
504.43095
 30
0.0
 11
1053.732993
 21
486.89916
 31
0.0
  0
LINE
  8
0
  6
HIDDEN
 62
     7
 10
1025.132993
 20
496.187295
 30
0.0
 11
1025.132993
 21
486.89916
 31
0.0
  0
LINE
  8
0
  6
HIDDEN
 62
     7
 10
1026.732993
 20
496.29358
 30
0.0
 11
1026.732993
 21
490.89916
 31
0.0
  0
LINE
  8
0
  6
HIDDEN
 62
     7
 10
1068.732993
 20
501.665713
 30
0.0
 11
1068.732993
 21
486.89916
 31
0.0
  0
LINE
  8
0
 62
     7
 10
1106.832993
 20
495.923611
 30
0.0
 11
1106.832993
 21
509.39916
 31
0.0
  0
LINE
  8
0
 62
     7
 10
1091.832993
 20
500.088295
 30
0.0
 11
1091.832993
 21
509.39916
 31
0.0
  0
INSERT
  8
0
  2
TCAD
 10
0.0
 20
0.0
 30
0.0
  0
TEXT
  8
0
 62
     7
 10
1602.045126
 20
114.357293
 30
0.0
 40
25.0
  1
(SDK3411)
  7
KANJI
 72
     1
 11
1694.307031
 21
114.357293
 31
0.0
  0
INSERT
  8
C4
  2
SE
 10
459.134942
 20
432.89916
 30
0.0
  0
ENDSEC
  0
EOF
