  0
SECTION
  2
HEADER
  9
$ACADVER
  1
AC1015
  9
$INSBASE
 10
0.000000
 20
0.000000
 30
0.0
  9
$VIEWCTR
 10
7.531722
 20
4.5
  9
$VIEWSIZE
 40
9.0
  9
$SNAPMODE
 70
     0
  9
$SNAPUNIT
 10
1.0
 20
1.0
  9
$SNAPBASE
 10
0.0
 20
0.0
  9
$SNAPANG
 50
0.0
  9
$SNAPSTYLE
 70
     0
  9
$SNAPISOPAIR
 70
     0
  9
$GRIDMODE
 70
     0
  9
$GRIDUNIT
 10
0.0
 20
0.0
  9
$ORTHOMODE
 70
     0
  9
$REGENMODE
 70
     1
  9
$FILLMODE
 70
     1
  9
$QTEXTMODE
 70
     0
  9
$DRAGMODE
 70
     2
  9
$LTSCALE
  40
     1.000000
  9
$OSMODE
 70
     0
  9
$ATTMODE
 70
     1
  9
$TEXTSIZE
 40
0.2
  9
$TRACEWID
 40
0.05
  9
$TEXTSTYLE
  7
STANDARD
  9
$CELTYPE
  6
BYLAYER
  9
$CECOLOR
 62
   256
  9
$DIMSCALE
 40
1.0
  9
$DIMASZ
 40
0.18
  9
$DIMEXO
 40
0.0625
  9
$DIMDLI
 40
0.38
  9
$DIMRND
 40
0.0
  9
$DIMDLE
 40
0.0
  9
$DIMEXE
 40
0.18
  9
$DIMTP
 40
0.0
  9
$DIMTM
 40
0.0
  9
$DIMTXT
 40
0.18
  9
$DIMCEN
 40
0.09
  9
$DIMTSZ
 40
0.0
  9
$DIMADEC
 70
     0
  9
$DIMALTRND
 40
0.000000
  9
$DIMAZIN
 70
     0
  9
$DIMDSEP
 70
    46
  9
$DIMATFIT
 70
     3
  9
$DIMFRAC
 70
     0
  9
$DIMLDRBLK
  1

  9
$DIMLUNIT
 70
     2
  9
$DIMLWD
 70
   13
  9
$DIMLWE
 70
   13
  9
$DIMTMOVE
 70
     0
  9
$CELWEIGHT
370
    25
  9
$LWDISPLAY
290
    1
  9
$EXTNAMES
290
    1
  9
$DIMTOL
 70
     0
  9
$DIMLIM
 70
     0
  9
$DIMTIH
 70
     1
  9
$DIMTOH
 70
     1
  9
$DIMSE1
 70
     0
  9
$DIMSE2
 70
     0
  9
$DIMTAD
 70
     0
  9
$DIMZIN
 70
     0
  9
$DIMBLK
  1

  9
$LUNITS
 70
     2
  9
$LUPREC
 70
     4
  9
$AXISMODE
 70
     0
  9
$AXISUNIT
 10
0.0
 20
0.0
  9
$SKETCHINC
 40
0.1
  9
$FILLETRAD
 40
0.0
  9
$AUNITS
 70
     0
  9
$AUPREC
 70
     0
  9
$MENU
  1
ACAD
  9
$ELEVATION
 40
0.0
  9
$THICKNESS
 40
0.0
  9
$VIEWDIR
 10
0.0
 20
0.0
 30
1.0
  9
$LIMCHECK
 70
     0
  9
$BLIPMODE
 70
     1
  9
$CHAMFERA
 40
0.0
  9
$CHAMFERB
 40
0.0
  9
$FASTZOOM
 70
     1
  9
$SKPOLY
 70
     0
  9
$TDCREATE
 40
0000000.0000000000
  9
$TDUPDATE
 40
0000000.0000000000
  9
$TDINDWG
 40
0.0000000000
  9
$TDUSRTIMER
 40
0.0000000000
  9
$USRTIMER
 70
     1
  9
$ANGBASE
 50
0.0
  9
$ANGDIR
 70
     0
  9
$PDMODE
 70
     0
  9
$PDSIZE
 40
0.0
  9
$PLINEWID
 40
0.0
  9
$COORDS
 70
     0
  9
$USERI1
 70
     0
  9
$USERI2
 70
     0
  9
$USERI3
 70
     0
  9
$USERI4
 70
     0
  9
$USERI5
 70
     0
  9
$USERR1
 40
0.0
  9
$USERR2
 40
0.0
  9
$USERR3
 40
0.0
  9
$USERR4
 40
0.0
  9
$USERR5
 40
0.0
  9
$CLAYER
  8
M0
  9
$EXTMIN
 10
36.899212
 20
15.470022
  9
$EXTMAX
 10
241.228462
 20
157.835796
  9
$LIMMIN
 10
0.0
 20
0.0
  9
$LIMMAX
 10
420.0
 20
297.0
  9
$HANDSEED
  5
C6
  0
ENDSEC
  0
SECTION
  2
CLASSES
  0
CLASS
  1
DIMASSOC
  2
AcDbDimAssoc
  3
"AcDbDimAssoc|Product Desc:     AcDim ARX App For Dimension|Company:          Autodesk, Inc.|WEB Address:      www.autodesk.com"
 90
        0
280
     0
281
     0
  0
ENDSEC
  0
SECTION
  2
TABLES
  0
TABLE
  2
VPORT
  5
8
100
AcDbSymbolTable
 70
     2
  0
VPORT
  5
14
100
AcDbSymbolTableRecord
100
AcDbViewportTableRecord
  2
*ACTIVE
 70
     0
 10
0.0
 20
0.0
 11
1.0
 21
1.0
 12
484.0
 22
297.0
 13
0.0
 23
0.0
 14
1.0
 24
1.0
 15
0.0
 25
0.0
 16
0.0
 26
0.0
 36
1.0
 17
0.0
 27
0.0
 37
0.0
 40
594.0
 41
2.0
 42
50.0
 43
0.0
 44
0.0
 50
0.0
 51
0.0
 71
     0
 72
   100
 73
     1
 74
     1
 75
     0
 76
     0
 77
     0
 78
     0
  0
ENDTAB
  0
TABLE
  2
LTYPE
  5
5
100
AcDbSymbolTable
 70
     5
  0
LTYPE
  5
15
100
AcDbSymbolTableRecord
100
AcDbLinetypeTableRecord
  2
BYBLOCK
 70
     0
  3

 72
    65
 73
     0
 40
0.0
  0
LTYPE
  5
16
100
AcDbSymbolTableRecord
100
AcDbLinetypeTableRecord
  2
BYLAYER
 70
     0
  3

 72
    65
 73
     0
 40
0.0
  0
LTYPE
  5
17
100
AcDbSymbolTableRecord
100
AcDbLinetypeTableRecord
  2
CONTINUOUS
 70
    64
  3
Solid line
 72
    65
 73
     0
 40
0.0
  0
LTYPE
  5
18
100
AcDbSymbolTableRecord
100
AcDbLinetypeTableRecord
  2
DASHED
 70
    64
  3
__ __ __ __ __ __ __ __ __ __ __ __ __ __ __ __
 72
    65
 73
     2
 40
0.75
 49
0.5
 74
     0
 49
-0.25
 74
     0
  0
LTYPE
  5
19
100
AcDbSymbolTableRecord
100
AcDbLinetypeTableRecord
  2
DASHDOT
 70
    64
  3
__ . __ . __ . __ . __ . __ . __ . __ . __ . __
 72
    65
 73
     4
 40
1.0
 49
0.5
 74
     0
 49
-0.25
 74
     0
 49
0.0
 74
     0
 49
-0.25
 74
     0
  0
LTYPE
  5
1A
100
AcDbSymbolTableRecord
100
AcDbLinetypeTableRecord
  2
DIVIDE
 70
    64
  3
____ . . ____ . . ____ . . ____ . . ____ . . __
 72
    65
 73
     6
 40
1.25
 49
0.5
 74
     0
 49
-0.25
 74
     0
 49
0.0
 74
     0
 49
-0.25
 74
     0
 49
0.0
 74
     0
 49
-0.25
 74
     0
  0
LTYPE
  5
1B
100
AcDbSymbolTableRecord
100
AcDbLinetypeTableRecord
  2
DOT
 70
    64
  3
. . . . . . . . . . . . . . . . . . . . . . . .
 72
    65
 73
     2
 40
0.25
 49
0.0
 74
     0
 49
-0.25
 74
     0
  0
ENDTAB
  0
TABLE
  2
LAYER
  5
2
100
AcDbSymbolTable
 70
   102
  0
LAYER
  5
F
100
AcDbSymbolTableRecord
100
AcDbLayerTableRecord
  2
0
 70
     0
 62
     7
  6
CONTINUOUS
370
     -3
390
F
  0
LAYER
  5
1C
100
AcDbSymbolTableRecord
100
AcDbLayerTableRecord
  2
M0
 70
     0
 62
     3
  6
CONTINUOUS
370
     -3
390
F
  0
ENDTAB
  0
TABLE
  2
STYLE
  5
3
100
AcDbSymbolTable
 70
     2
  0
STYLE
  5
10
100
AcDbSymbolTableRecord
100
AcDbTextStyleTableRecord
  2
STANDARD
 70
     0
 40
0.0
 41
1.0
 50
0.0
 71
     0
 42
0.2
  3
txt
  4
BIGFONT
  0
ENDTAB
  0
TABLE
  2
VIEW
  5
6
100
AcDbSymbolTable
 70
     0
  0
ENDTAB
  0
TABLE
  2
UCS
  5
7
100
AcDbSymbolTable
 70
     0
  0
ENDTAB
  0
TABLE
  2
APPID
  5
9
100
AcDbSymbolTable
 70
     1
  0
APPID
  5
11
100
AcDbSymbolTableRecord
100
AcDbRegAppTableRecord
  2
ACAD
 70
     0
  0
ENDTAB
  0
TABLE
  2
DIMSTYLE
  5
A
100
AcDbSymbolTable
 70
     2
100
AcDbDimStyleTable
 71
     1
  0
DIMSTYLE
105
45
100
AcDbSymbolTableRecord
100
AcDbDimStyleTableRecord
  2
STANDARD
 70
     0
  3

  4

  5

  6
_OPEN
  7
_OPEN
 40
1.0
 41
3.0
 42
0.5
 43
8.0
 44
1.5
 45
0.0
 46
0.0
 47
0.0
 48
0.0
140
3.15
141
0.09
142
0.0
143
0.03937
144
1.0
145
0.0
146
1.0
147
1.0
148
0.000000
 71
     0
 72
     0
 73
     1
 74
     1
 75
     0
 76
     0
 77
     3
 78
     8
170
     0
171
     2
172
     0
173
     1
174
     0
175
     0
176
     0
177
     0
178
     0
270
     2
271
     2
272
     4
273
     2
274
     2
340
10
275
     0
278
    46
280
     0
281
     0
282
     0
283
     1
284
     0
285
     0
286
     0
287
     3
288
     0
371
   13
372
   13
  0
DIMSTYLE
105
46
100
AcDbSymbolTableRecord
100
AcDbDimStyleTableRecord
  2
LEADSTYL
 70
     0
  3

  4

  5

  6
_OPEN
  7
_OPEN
 40
1.0
 41
3.0
 42
0.0625
 43
0.38
 44
0.18
 45
0.0
 46
0.0
 47
0.0
 48
0.0
140
3.15
141
0.09
142
0.0
143
25.4
144
1.0
145
0.0
146
1.0
147
1.0
 71
     0
 72
     0
 73
     1
 74
     1
 75
     0
 76
     0
 77
     0
 78
     0
170
     0
171
     2
172
     0
173
     1
174
     0
175
     0
176
     0
177
     0
178
     0
270
     2
271
     4
272
     4
273
     2
274
     2
340
10
275
     0
280
     0
281
     0
282
     0
283
     1
284
     0
285
     0
286
     0
287
     3
288
     0
  0
ENDTAB
  0
TABLE
  2
BLOCK_RECORD
  5
1
100
AcDbSymbolTable
 70
     6
  0
BLOCK_RECORD
  5
1D
100
AcDbSymbolTableRecord
100
AcDbBlockTableRecord
  2
*MODEL_SPACE
  0
BLOCK_RECORD
  5
20
100
AcDbSymbolTableRecord
100
AcDbBlockTableRecord
  2
*PAPER_SPACE
  0
BLOCK_RECORD
  5
23
100
AcDbSymbolTableRecord
100
AcDbBlockTableRecord
  2
_NONE
  0
BLOCK_RECORD
  5
27
100
AcDbSymbolTableRecord
100
AcDbBlockTableRecord
  2
_OPEN
  0
BLOCK_RECORD
  5
2D
100
AcDbSymbolTableRecord
100
AcDbBlockTableRecord
  2
_CLOSED
  0
BLOCK_RECORD
  5
34
100
AcDbSymbolTableRecord
100
AcDbBlockTableRecord
  2
_ORIGIN
  0
BLOCK_RECORD
  5
39
100
AcDbSymbolTableRecord
100
AcDbBlockTableRecord
  2
_DOT
  0
BLOCK_RECORD
  5
41
100
AcDbSymbolTableRecord
100
AcDbBlockTableRecord
  2
_OBLIQUE
  0
ENDTAB
  0
ENDSEC
  0
SECTION
  2
BLOCKS
  0
BLOCK
  5
1E
100
AcDbEntity
  8
0
100
AcDbBlockBegin
  2
*MODEL_SPACE
 70
     0
 10
0.0
 20
0.0
 30
0.0
  3
*MODEL_SPACE
  1

  0
ENDBLK
  5
1F
100
AcDbEntity
  8
0
100
AcDbBlockEnd
  0
BLOCK
  5
21
100
AcDbEntity
 67
     1
  8
0
100
AcDbBlockBegin
  2
*PAPER_SPACE
 70
     0
 10
0.0
 20
0.0
 30
0.0
  3
*PAPER_SPACE
  1

  0
ENDBLK
  5
22
100
AcDbEntity
 67
     1
  8
0
100
AcDbBlockEnd
  0
BLOCK
  5
24
100
AcDbEntity
  8
0
100
AcDbBlockBegin
  2
_NONE
 70
     0
 10
0.0
 20
0.0
  0
CIRCLE
  5
25
100
AcDbEntity
  8
0
 62
     0
370
13
100
AcDbCircle
 10
0.0
 20
0.0
 40
0.25
  0
ENDBLK
  5
26
100
AcDbEntity
  8
0
100
AcDbBlockEnd
  0
BLOCK
  5
28
100
AcDbEntity
  8
0
100
AcDbBlockBegin
  2
_OPEN
 70
     0
 10
0.0
 20
0.0
  0
LINE
  5
29
100
AcDbEntity
  8
0
 62
     0
370
13
100
AcDbLine
 10
-0.965926
 20
0.258819
 11
0.0
 21
0.0
  0
LINE
  5
2A
100
AcDbEntity
  8
0
 62
     0
370
13
100
AcDbLine
 10
0.0
 20
0.0
 11
-0.965926
 21
-0.258819
  0
LINE
  5
2B
100
AcDbEntity
  8
0
 62
     0
370
13
100
AcDbLine
 10
0.0
 20
0.0
 11
-1.0
 21
0.0
  0
ENDBLK
  5
2C
100
AcDbEntity
  8
0
100
AcDbBlockEnd
  0
BLOCK
  5
2E
100
AcDbEntity
  8
0
100
AcDbBlockBegin
  2
_CLOSED
 70
     0
 10
0.0
 20
0.0
  0
LINE
  5
2F
100
AcDbEntity
  8
0
 62
     0
370
13
100
AcDbLine
 10
-0.965926
 20
0.258819
 11
0.0
 21
0.0
  0
LINE
  5
30
100
AcDbEntity
  8
0
 62
     0
370
13
100
AcDbLine
 10
0.0
 20
0.0
 11
-0.965926
 21
-0.258819
  0
LINE
  5
31
100
AcDbEntity
  8
0
 62
     0
370
13
100
AcDbLine
 10
-0.965926
 20
0.258819
 11
-0.965926
 21
-0.258819
  0
LINE
  5
32
100
AcDbEntity
  8
0
 62
     0
370
13
100
AcDbLine
 10
0.0
 20
0.0
 11
-1.0
 21
0.0
  0
ENDBLK
  5
33
100
AcDbEntity
  8
0
100
AcDbBlockEnd
  0
BLOCK
  5
35
100
AcDbEntity
  8
0
100
AcDbBlockBegin
  2
_ORIGIN
 70
     0
 10
0.0
 20
0.0
  0
CIRCLE
  5
36
100
AcDbEntity
  8
0
 62
     0
370
13
100
AcDbCircle
 10
0.0
 20
0.0
 40
0.5
  0
LINE
  5
37
100
AcDbEntity
  8
0
 62
     0
370
13
100
AcDbLine
 10
0.0
 20
0.0
 11
-1.0
 21
0.0
  0
ENDBLK
  5
38
100
AcDbEntity
  8
0
100
AcDbBlockEnd
  0
BLOCK
  5
3A
100
AcDbEntity
  8
0
100
AcDbBlockBegin
  2
_DOT
 70
     0
 10
0.0
 20
0.0
  0
POLYLINE
  5
3B
100
AcDbEntity
  8
0
 62
     0
100
AcDb2dPolyline
 66
     1
 70
     1
 40
0.5
 41
0.5
  0
VERTEX
  5
3C
100
AcDbEntity
  8
0
 62
     0
100
AcDbVertex
100
AcDb2dVertex
 10
-0.25
 20
0.0
 42
1.0
  0
VERTEX
  5
3D
100
AcDbEntity
  8
0
 62
     0
100
AcDbVertex
100
AcDb2dVertex
 10
0.25
 20
0.0
 42
1.0
  0
SEQEND
  5
3E
100
AcDbEntity
  8
0
 62
     0
  0
LINE
  5
3F
100
AcDbEntity
  8
0
 62
     0
370
13
100
AcDbLine
 10
-0.5
 20
0.0
 11
-1.0
 21
0.0
  0
ENDBLK
  5
40
100
AcDbEntity
  8
0
100
AcDbBlockEnd
  0
BLOCK
  5
42
100
AcDbEntity
  8
0
100
AcDbBlockBegin
  2
_OBLIQUE
 70
     0
 10
0.0
 20
0.0
  0
LINE
  5
43
100
AcDbEntity
  8
0
 62
     0
370
13
100
AcDbLine
 10
-0.353553
 20
-0.353553
 11
0.353553
 21
0.353553
  0
ENDBLK
  5
44
100
AcDbEntity
  8
0
100
AcDbBlockEnd
  0
ENDSEC
  0
SECTION
  2
ENTITIES
  0
LINE
  5
47
100
AcDbEntity
  8
M0
  6
CONTINUOUS
370
25
100
AcDbLine
 10
76.979631
 20
90.816177
 11
77.77963
 21
90.816177
  0
LINE
  5
48
100
AcDbEntity
  8
M0
  6
CONTINUOUS
370
25
100
AcDbLine
 10
77.77963
 20
101.716176
 11
77.77963
 21
90.816177
  0
LINE
  5
49
100
AcDbEntity
  8
M0
  6
CONTINUOUS
370
25
100
AcDbLine
 10
76.979631
 20
101.716176
 11
76.979631
 21
90.816177
  0
LINE
  5
4A
100
AcDbEntity
  8
M0
  6
CONTINUOUS
370
25
100
AcDbLine
 10
76.979631
 20
101.716176
 11
77.77963
 21
101.716176
  0
LINE
  5
4B
100
AcDbEntity
  8
M0
  6
DASHDOT
370
13
100
AcDbLine
 10
74.671199
 20
97.066176
 11
79.612442
 21
97.066176
  0
LINE
  5
4C
100
AcDbEntity
  8
M0
  6
CONTINUOUS
370
25
100
AcDbLine
 10
40.179631
 20
90.816177
 11
40.979631
 21
90.816177
  0
LINE
  5
4D
100
AcDbEntity
  8
M0
  6
CONTINUOUS
370
25
100
AcDbLine
 10
40.979631
 20
101.716176
 11
40.979631
 21
90.816177
  0
LINE
  5
4E
100
AcDbEntity
  8
M0
  6
CONTINUOUS
370
25
100
AcDbLine
 10
40.179631
 20
101.716176
 11
40.179631
 21
90.816177
  0
LINE
  5
4F
100
AcDbEntity
  8
M0
  6
CONTINUOUS
370
25
100
AcDbLine
 10
40.179631
 20
101.716176
 11
40.979631
 21
101.716176
  0
LINE
  5
50
100
AcDbEntity
  8
M0
  6
DASHDOT
370
13
100
AcDbLine
 10
37.871199
 20
97.066176
 11
42.812442
 21
97.066176
  0
ARC
  5
51
100
AcDbEntity
  8
M0
  6
CONTINUOUS
370
25
100
AcDbCircle
 10
200.55098
 20
91.616177
 40
0.8
100
AcDbArc
 50
270.0
 51
360.0
  0
ARC
  5
52
100
AcDbEntity
  8
M0
  6
CONTINUOUS
370
25
100
AcDbCircle
 10
202.15098
 20
93.638826
 40
0.8
100
AcDbArc
 50
128.585264
 51
180.000005
  0
CIRCLE
  5
53
100
AcDbEntity
  8
M0
  6
DASHED
370
13
100
AcDbCircle
 10
199.20098
 20
97.066176
 40
3.25
  0
ARC
  5
54
100
AcDbEntity
  8
M0
  6
CONTINUOUS
370
25
100
AcDbCircle
 10
199.20098
 20
97.587082
 40
4.129094
100
AcDbArc
 50
306.413354
 51
593.586648
  0
ARC
  5
55
100
AcDbEntity
  8
M0
  6
CONTINUOUS
370
25
100
AcDbCircle
 10
196.250979
 20
93.638826
 40
0.8
100
AcDbArc
 50
0.0
 51
51.414731
  0
ARC
  5
56
100
AcDbEntity
  8
M0
  6
CONTINUOUS
370
25
100
AcDbCircle
 10
198.40098
 20
92.316176
 40
0.5
100
AcDbArc
 50
90.0
 51
270.0
  0
ARC
  5
57
100
AcDbEntity
  8
M0
  6
CONTINUOUS
370
25
100
AcDbCircle
 10
200.00098
 20
92.316176
 40
0.5
100
AcDbArc
 50
270.0
 51
450.0
  0
LINE
  5
58
100
AcDbEntity
  8
M0
  6
CONTINUOUS
370
25
100
AcDbLine
 10
197.050979
 20
93.638826
 11
197.050979
 21
91.616177
  0
LINE
  5
59
100
AcDbEntity
  8
M0
  6
CONTINUOUS
370
25
100
AcDbLine
 10
201.35098
 20
93.638826
 11
201.35098
 21
91.616177
  0
LINE
  5
5A
100
AcDbEntity
  8
M0
  6
CONTINUOUS
370
25
100
AcDbLine
 10
198.40098
 20
92.816176
 11
200.00098
 21
92.816176
  0
LINE
  5
5B
100
AcDbEntity
  8
M0
  6
CONTINUOUS
370
25
100
AcDbLine
 10
198.40098
 20
91.816176
 11
200.00098
 21
91.816176
  0
LINE
  5
5C
100
AcDbEntity
  8
M0
  6
CONTINUOUS
370
25
100
AcDbLine
 10
199.20098
 20
93.816176
 11
199.20098
 21
92.816176
  0
ARC
  5
5D
100
AcDbEntity
  8
M0
  6
CONTINUOUS
370
25
100
AcDbCircle
 10
197.850979
 20
91.616177
 40
0.8
100
AcDbArc
 50
179.999991
 51
270.0
  0
LINE
  5
5E
100
AcDbEntity
  8
M0
  6
CONTINUOUS
370
25
100
AcDbLine
 10
197.850979
 20
90.816176
 11
200.55098
 21
90.816177
  0
LINE
  5
5F
100
AcDbEntity
  8
M0
  6
CONTINUOUS
370
25
100
AcDbLine
 10
199.20098
 20
91.816176
 11
199.20098
 21
90.816176
  0
LINE
  5
60
100
AcDbEntity
  8
M0
  6
CONTINUOUS
370
25
100
AcDbLine
 10
79.779631
 20
100.066176
 11
79.779631
 21
100.566176
  0
LINE
  5
61
100
AcDbEntity
  8
M0
  6
CONTINUOUS
370
25
100
AcDbLine
 10
98.779631
 20
95.263401
 11
79.779631
 21
95.263401
  0
LINE
  5
62
100
AcDbEntity
  8
M0
  6
CONTINUOUS
370
25
100
AcDbLine
 10
98.779631
 20
93.566176
 11
99.779631
 21
94.566176
  0
LINE
  5
63
100
AcDbEntity
  8
M0
  6
CONTINUOUS
370
25
100
AcDbLine
 10
73.979631
 20
59.566176
 11
69.979631
 21
59.566176
  0
LINE
  5
64
100
AcDbEntity
  8
M0
  6
CONTINUOUS
370
25
100
AcDbLine
 10
69.979631
 20
59.566176
 11
69.979631
 21
97.066176
  0
LINE
  5
65
100
AcDbEntity
  8
M0
  6
CONTINUOUS
370
25
100
AcDbLine
 10
98.779631
 20
100.066176
 11
98.779631
 21
97.066176
  0
LINE
  5
66
100
AcDbEntity
  8
M0
  6
CONTINUOUS
370
25
100
AcDbLine
 10
99.779631
 20
100.066176
 11
79.779631
 21
100.066176
  0
LINE
  5
67
100
AcDbEntity
  8
M0
  6
CONTINUOUS
370
25
100
AcDbLine
 10
98.779631
 20
98.868952
 11
79.779631
 21
98.868952
  0
LINE
  5
68
100
AcDbEntity
  8
M0
  6
CONTINUOUS
370
25
100
AcDbLine
 10
98.779631
 20
93.566176
 11
98.779631
 21
97.066176
  0
LINE
  5
69
100
AcDbEntity
  8
M0
  6
CONTINUOUS
370
25
100
AcDbLine
 10
79.779631
 20
95.263401
 11
79.779631
 21
98.868952
  0
LINE
  5
6A
100
AcDbEntity
  8
M0
  6
CONTINUOUS
370
25
100
AcDbLine
 10
40.979631
 20
125.066176
 11
40.979631
 21
69.066176
  0
LINE
  5
6B
100
AcDbEntity
  8
M0
  6
CONTINUOUS
370
25
100
AcDbLine
 10
39.079631
 20
93.566176
 11
38.779631
 21
93.866176
  0
LINE
  5
6C
100
AcDbEntity
  8
M0
  6
CONTINUOUS
370
25
100
AcDbLine
 10
77.77963
 20
93.566176
 11
98.779631
 21
93.566176
  0
LINE
  5
6D
100
AcDbEntity
  8
M0
  6
CONTINUOUS
370
25
100
AcDbLine
 10
38.779631
 20
100.266176
 11
39.079631
 21
100.566176
  0
LINE
  5
6E
100
AcDbEntity
  8
M0
  6
CONTINUOUS
370
25
100
AcDbLine
 10
40.179631
 20
100.566176
 11
39.079631
 21
100.566176
  0
LINE
  5
6F
100
AcDbEntity
  8
M0
  6
CONTINUOUS
370
25
100
AcDbLine
 10
38.779631
 20
93.866176
 11
38.779631
 21
100.266176
  0
LINE
  5
70
100
AcDbEntity
  8
M0
  6
CONTINUOUS
370
25
100
AcDbLine
 10
40.179631
 20
93.566176
 11
39.079631
 21
93.566176
  0
LINE
  5
71
100
AcDbEntity
  8
M0
  6
CONTINUOUS
370
25
100
AcDbLine
 10
77.77963
 20
100.566176
 11
79.779631
 21
100.566176
  0
LINE
  5
72
100
AcDbEntity
  8
M0
  6
CONTINUOUS
370
25
100
AcDbLine
 10
49.739656
 20
151.090942
 11
48.219629
 21
151.090942
  0
LINE
  5
73
100
AcDbEntity
  8
M0
  6
CONTINUOUS
370
25
100
AcDbLine
 10
48.505632
 20
156.290942
 11
48.505632
 21
151.090942
  0
LINE
  5
74
100
AcDbEntity
  8
M0
  6
DASHDOT
370
13
100
AcDbLine
 10
67.422543
 20
130.066176
 11
76.027602
 21
130.066176
  0
LINE
  5
75
100
AcDbEntity
  8
M0
  6
CONTINUOUS
370
25
100
AcDbLine
 10
73.979631
 20
59.566176
 11
73.979631
 21
97.066176
  0
LINE
  5
76
100
AcDbEntity
  8
M0
  6
CONTINUOUS
370
25
100
AcDbLine
 10
69.979631
 20
134.566176
 11
69.979631
 21
97.066176
  0
SPLINE
  5
77
100
AcDbEntity
  8
M0
  6
CONTINUOUS
370
13
100
AcDbSpline
210
0.0
220
0.0
230
-1.0
 70
     8
 71
     3
 72
    14
 73
    10
 43
0.0000001
 40
0.0
 40
0.0
 40
0.0
 40
0.0
 40
1.0
 40
1.0
 40
1.0
 40
2.0
 40
2.0
 40
2.0
 40
3.0
 40
3.0
 40
3.0
 40
3.0
 10
49.739656
 20
145.920312
 10
49.591862
 20
146.043381
 10
49.444068
 20
146.095848
 10
49.296277
 20
146.027951
 10
48.939301
 20
145.863952
 10
48.582303
 20
144.9977
 10
48.241103
 20
145.020024
 10
48.233939
 20
145.020492
 10
48.226782
 20
145.021352
 10
48.219631
 20
145.022587
  0
LINE
  5
78
100
AcDbEntity
  8
M0
  6
CONTINUOUS
370
25
100
AcDbLine
 10
48.219635
 20
125.066176
 11
48.219651
 21
145.022584
  0
SPLINE
  5
79
100
AcDbEntity
  8
M0
  6
CONTINUOUS
370
13
100
AcDbSpline
210
0.0
220
0.0
230
-1.0
 70
     8
 71
     3
 72
    14
 73
    10
 43
0.0000001
 40
0.0
 40
0.0
 40
0.0
 40
0.0
 40
1.0
 40
1.0
 40
1.0
 40
2.0
 40
2.0
 40
2.0
 40
3.0
 40
3.0
 40
3.0
 40
3.0
 10
49.739656
 20
146.799692
 10
49.591862
 20
146.92276
 10
49.444068
 20
146.975227
 10
49.296277
 20
146.90733
 10
48.939301
 20
146.743331
 10
48.582303
 20
145.877079
 10
48.241103
 20
145.899403
 10
48.233939
 20
145.899872
 10
48.226782
 20
145.900731
 10
48.219632
 20
145.901966
  0
LINE
  5
7A
100
AcDbEntity
  8
M0
  6
DASHDOT
370
13
100
AcDbLine
 10
48.979631
 20
125.440268
 11
48.979631
 21
157.835796
  0
LINE
  5
7B
100
AcDbEntity
  8
M0
  6
CONTINUOUS
370
25
100
AcDbLine
 10
49.285632
 20
151.090942
 11
49.285632
 21
156.290942
  0
LINE
  5
7C
100
AcDbEntity
  8
M0
  6
CONTINUOUS
370
25
100
AcDbLine
 10
48.765632
 20
156.290942
 11
48.765632
 21
151.090942
  0
LINE
  5
7D
100
AcDbEntity
  8
M0
  6
CONTINUOUS
370
25
100
AcDbLine
 10
48.219652
 20
145.901963
 11
48.219638
 21
151.090942
  0
LINE
  5
7E
100
AcDbEntity
  8
M0
  6
CONTINUOUS
370
25
100
AcDbLine
 10
49.025632
 20
156.290942
 11
49.025632
 21
151.090942
  0
LINE
  5
7F
100
AcDbEntity
  8
M0
  6
CONTINUOUS
370
25
100
AcDbLine
 10
49.739656
 20
146.799692
 11
49.739656
 21
151.090942
  0
LINE
  5
80
100
AcDbEntity
  8
M0
  6
CONTINUOUS
370
25
100
AcDbLine
 10
49.545632
 20
156.290942
 11
49.545632
 21
151.090942
  0
LINE
  5
81
100
AcDbEntity
  8
M0
  6
DASHED
370
13
100
AcDbLine
 10
69.979631
 20
132.316176
 11
73.979631
 21
132.316176
  0
LINE
  5
82
100
AcDbEntity
  8
M0
  6
CONTINUOUS
370
25
100
AcDbLine
 10
73.979631
 20
134.566176
 11
73.979631
 21
97.066176
  0
LINE
  5
83
100
AcDbEntity
  8
M0
  6
DASHED
370
13
100
AcDbLine
 10
69.979631
 20
127.816176
 11
73.979631
 21
127.816176
  0
LINE
  5
84
100
AcDbEntity
  8
M0
  6
CONTINUOUS
370
25
100
AcDbLine
 10
73.979631
 20
134.566176
 11
69.979631
 21
134.566176
  0
LINE
  5
85
100
AcDbEntity
  8
M0
  6
CONTINUOUS
370
25
100
AcDbLine
 10
49.739631
 20
125.066176
 11
49.739631
 21
145.920333
  0
LINE
  5
86
100
AcDbEntity
  8
M0
  6
CONTINUOUS
370
25
100
AcDbLine
 10
49.545632
 20
156.290942
 11
48.505632
 21
156.290942
  0
LINE
  5
87
100
AcDbEntity
  8
M0
  6
DASHDOT
370
13
100
AcDbLine
 10
36.899212
 20
97.066176
 11
102.737718
 21
97.066176
  0
LINE
  5
88
100
AcDbEntity
  8
M0
  6
CONTINUOUS
370
25
100
AcDbLine
 10
76.979631
 20
123.066176
 11
75.979631
 21
124.066176
  0
LINE
  5
89
100
AcDbEntity
  8
M0
  6
CONTINUOUS
370
25
100
AcDbLine
 10
76.979631
 20
123.066176
 11
75.979631
 21
124.066176
  0
LINE
  5
8A
100
AcDbEntity
  8
M0
  6
CONTINUOUS
370
25
100
AcDbLine
 10
76.979631
 20
71.066176
 11
75.979631
 21
70.066176
  0
LINE
  5
8B
100
AcDbEntity
  8
M0
  6
CONTINUOUS
370
25
100
AcDbLine
 10
76.979631
 20
71.066176
 11
75.979631
 21
70.066176
  0
LINE
  5
8C
100
AcDbEntity
  8
M0
  6
CONTINUOUS
370
25
100
AcDbLine
 10
75.979631
 20
70.066176
 11
73.979631
 21
70.066176
  0
LINE
  5
8D
100
AcDbEntity
  8
M0
  6
CONTINUOUS
370
25
100
AcDbLine
 10
40.979631
 20
125.066176
 11
69.979631
 21
125.066176
  0
LINE
  5
8E
100
AcDbEntity
  8
M0
  6
CONTINUOUS
370
25
100
AcDbLine
 10
76.979631
 20
123.066176
 11
76.979631
 21
71.066176
  0
LINE
  5
8F
100
AcDbEntity
  8
M0
  6
CONTINUOUS
370
25
100
AcDbLine
 10
73.979631
 20
124.066176
 11
75.979631
 21
124.066176
  0
LINE
  5
90
100
AcDbEntity
  8
M0
  6
CONTINUOUS
370
25
100
AcDbLine
 10
69.979631
 20
69.066176
 11
40.879631
 21
69.066176
  0
LINE
  5
91
100
AcDbEntity
  8
M0
  6
CONTINUOUS
370
25
100
AcDbLine
 10
99.779631
 20
97.066176
 11
99.779631
 21
100.066176
  0
LINE
  5
92
100
AcDbEntity
  8
M0
  6
CONTINUOUS
370
25
100
AcDbLine
 10
99.779631
 20
97.066176
 11
99.779631
 21
94.566176
  0
LINE
  5
93
100
AcDbEntity
  8
M0
  6
CONTINUOUS
370
25
100
AcDbLine
 10
201.003755
 20
100.066176
 11
197.398204
 21
100.066176
  0
CIRCLE
  5
94
100
AcDbEntity
  8
M0
  6
CONTINUOUS
370
25
100
AcDbCircle
 10
199.20098
 20
97.066176
 40
3.5
  0
LINE
  5
95
100
AcDbEntity
  8
M0
  6
CONTINUOUS
370
25
100
AcDbLine
 10
196.20098
 20
95.263401
 11
196.20098
 21
98.868952
  0
CIRCLE
  5
96
100
AcDbEntity
  8
M0
  6
CONTINUOUS
370
25
100
AcDbCircle
 10
199.20098
 20
97.066176
 40
37.5
  0
CIRCLE
  5
97
100
AcDbEntity
  8
M0
  6
CONTINUOUS
370
25
100
AcDbCircle
 10
222.535503
 20
73.731653
 40
2.25
  0
CIRCLE
  5
98
100
AcDbEntity
  8
M0
  6
CONTINUOUS
370
25
100
AcDbCircle
 10
175.866456
 20
120.4007
 40
2.25
  0
CIRCLE
  5
99
100
AcDbEntity
  8
M0
  6
CONTINUOUS
370
25
100
AcDbCircle
 10
222.535503
 20
120.4007
 40
2.25
  0
CIRCLE
  5
9A
100
AcDbEntity
  8
M0
  6
CONTINUOUS
370
25
100
AcDbCircle
 10
175.866456
 20
73.731653
 40
2.25
  0
CIRCLE
  5
9B
100
AcDbEntity
  8
M0
  6
DASHDOT
370
13
100
AcDbCircle
 10
199.20098
 20
97.066176
 40
33.0
  0
LINE
  5
9C
100
AcDbEntity
  8
M0
  6
DASHED
370
13
100
AcDbLine
 10
197.680984
 20
131.532676
 11
197.680987
 21
134.535359
  0
LINE
  5
9D
100
AcDbEntity
  8
M0
  6
CONTINUOUS
370
25
100
AcDbLine
 10
198.22698
 20
156.28685
 11
198.22698
 21
151.08685
  0
LINE
  5
9E
100
AcDbEntity
  8
M0
  6
CONTINUOUS
370
25
100
AcDbLine
 10
199.201004
 20
146.795601
 11
199.201005
 21
151.08685
  0
LINE
  5
9F
100
AcDbEntity
  8
M0
  6
CONTINUOUS
370
25
100
AcDbLine
 10
199.00698
 20
156.28685
 11
199.00698
 21
151.08685
  0
LINE
  5
A0
100
AcDbEntity
  8
M0
  6
CONTINUOUS
370
25
100
AcDbLine
 10
197.681001
 20
145.897872
 11
197.680987
 21
151.08685
  0
LINE
  5
A1
100
AcDbEntity
  8
M0
  6
CONTINUOUS
370
25
100
AcDbLine
 10
199.00698
 20
156.28685
 11
197.96698
 21
156.28685
  0
CIRCLE
  5
A2
100
AcDbEntity
  8
M0
  6
CONTINUOUS
370
25
100
AcDbCircle
 10
199.20098
 20
97.066176
 40
16.0
  0
LINE
  5
A3
100
AcDbEntity
  8
M0
  6
CONTINUOUS
370
25
100
AcDbLine
 10
199.654979
 20
151.08685
 11
199.654979
 21
156.28685
  0
LINE
  5
A4
100
AcDbEntity
  8
M0
  6
CONTINUOUS
370
25
100
AcDbLine
 10
199.394979
 20
156.28685
 11
200.434979
 21
156.28685
  0
LINE
  5
A5
100
AcDbEntity
  8
M0
  6
CONTINUOUS
370
25
100
AcDbLine
 10
199.394979
 20
156.28685
 11
199.394979
 21
151.08685
  0
LINE
  5
A6
100
AcDbEntity
  8
M0
  6
CONTINUOUS
370
25
100
AcDbLine
 10
199.914979
 20
156.28685
 11
199.914979
 21
151.08685
  0
LINE
  5
A7
100
AcDbEntity
  8
M0
  6
CONTINUOUS
370
25
100
AcDbLine
 10
200.434979
 20
156.28685
 11
200.434979
 21
151.08685
  0
SPLINE
  5
A8
100
AcDbEntity
  8
M0
  6
CONTINUOUS
370
25
100
AcDbSpline
210
0.0
220
0.0
230
-1.0
 70
     8
 71
     3
 72
    14
 73
    10
 43
0.0000001
 40
0.0
 40
0.0
 40
0.0
 40
0.0
 40
1.0
 40
1.0
 40
1.0
 40
2.0
 40
2.0
 40
2.0
 40
3.0
 40
3.0
 40
3.0
 40
3.0
 10
197.681001
 20
145.889172
 10
197.683872
 20
145.889771
 10
197.686739
 20
145.890389
 10
197.6896
 20
145.891026
 10
198.234601
 20
146.012402
 10
198.592734
 20
146.827197
 10
199.207289
 20
146.916491
 10
199.61985
 20
146.976436
 10
200.147953
 20
146.709759
 10
200.720959
 20
146.316094
  0
SPLINE
  5
A9
100
AcDbEntity
  8
M0
  6
CONTINUOUS
370
25
100
AcDbSpline
210
0.0
220
0.0
230
-1.0
 70
     8
 71
     3
 72
    14
 73
    10
 43
0.0000001
 40
0.0
 40
0.0
 40
0.0
 40
0.0
 40
1.0
 40
1.0
 40
1.0
 40
2.0
 40
2.0
 40
2.0
 40
3.0
 40
3.0
 40
3.0
 40
3.0
 10
197.680999
 20
144.59157
 10
197.683871
 20
144.592169
 10
197.686738
 20
144.592787
 10
197.6896
 20
144.593425
 10
198.234601
 20
144.714801
 10
198.592734
 20
145.529596
 10
199.207289
 20
145.61889
 10
199.61985
 20
145.678835
 10
200.147953
 20
145.412158
 10
200.720959
 20
145.018492
  0
LINE
  5
AA
100
AcDbEntity
  8
M0
  6
CONTINUOUS
370
25
100
AcDbLine
 10
199.20098
 20
134.566176
 11
199.20098
 21
145.916242
  0
LINE
  5
AB
100
AcDbEntity
  8
M0
  6
CONTINUOUS
370
25
100
AcDbLine
 10
200.720993
 20
134.535358
 11
200.720959
 21
145.018492
  0
LINE
  5
AC
100
AcDbEntity
  8
M0
  6
CONTINUOUS
370
25
100
AcDbLine
 10
197.680961
 20
134.535358
 11
197.680999
 21
144.59157
  0
LINE
  5
AD
100
AcDbEntity
  8
M0
  6
DASHDOT
370
13
100
AcDbLine
 10
178.160699
 20
118.106457
 11
173.434897
 21
122.832259
  0
LINE
  5
AE
100
AcDbEntity
  8
M0
  6
CONTINUOUS
370
25
100
AcDbLine
 10
199.200955
 20
146.795601
 11
199.200954
 21
151.08685
  0
LINE
  5
AF
100
AcDbEntity
  8
M0
  6
CONTINUOUS
370
25
100
AcDbLine
 10
199.201005
 20
151.08685
 11
197.680978
 21
151.08685
  0
LINE
  5
B0
100
AcDbEntity
  8
M0
  6
CONTINUOUS
370
25
100
AcDbLine
 10
198.48698
 20
156.28685
 11
198.48698
 21
151.08685
  0
LINE
  5
B1
100
AcDbEntity
  8
M0
  6
DASHED
370
13
100
AcDbLine
 10
199.20098
 20
131.566176
 11
199.20098
 21
134.566176
  0
LINE
  5
B2
100
AcDbEntity
  8
M0
  6
DASHED
370
13
100
AcDbLine
 10
200.720975
 20
131.532676
 11
200.720972
 21
134.535359
  0
LINE
  5
B3
100
AcDbEntity
  8
M0
  6
CONTINUOUS
370
25
100
AcDbLine
 10
200.720959
 20
146.316094
 11
200.720972
 21
151.08685
  0
LINE
  5
B4
100
AcDbEntity
  8
M0
  6
CONTINUOUS
370
25
100
AcDbLine
 10
200.174979
 20
156.28685
 11
200.174979
 21
151.08685
  0
LINE
  5
B5
100
AcDbEntity
  8
M0
  6
CONTINUOUS
370
25
100
AcDbLine
 10
199.200954
 20
151.08685
 11
200.720982
 21
151.08685
  0
LINE
  5
B6
100
AcDbEntity
  8
M0
  6
CONTINUOUS
370
25
100
AcDbLine
 10
198.74698
 20
151.08685
 11
198.74698
 21
156.28685
  0
CIRCLE
  5
B7
100
AcDbEntity
  8
M0
  6
CONTINUOUS
370
25
100
AcDbCircle
 10
199.20098
 20
97.066176
 40
16.25
  0
LINE
  5
B8
100
AcDbEntity
  8
M0
  6
CONTINUOUS
370
25
100
AcDbLine
 10
197.96698
 20
156.28685
 11
197.96698
 21
151.08685
  0
LINE
  5
B9
100
AcDbEntity
  8
M0
  6
DASHDOT
370
13
100
AcDbLine
 10
154.96867
 20
97.066176
 11
241.228462
 21
97.066176
  0
LINE
  5
BA
100
AcDbEntity
  8
M0
  6
DASHDOT
370
13
100
AcDbLine
 10
199.20098
 20
53.714472
 11
199.20098
 21
144.39951
  0
LINE
  5
BB
100
AcDbEntity
  8
M0
  6
DASHDOT
370
13
100
AcDbLine
 10
220.088108
 20
117.953305
 11
224.772925
 21
122.638122
  0
LINE
  5
BC
100
AcDbEntity
  8
M0
  6
DASHDOT
370
13
100
AcDbLine
 10
220.171179
 20
76.095977
 11
224.886172
 21
71.380984
  0
LINE
  5
BD
100
AcDbEntity
  8
M0
  6
DASHDOT
370
13
100
AcDbLine
 10
178.274573
 20
76.13977
 11
173.572712
 21
71.437909
  0
CIRCLE
  5
BE
100
AcDbEntity
  8
M0
  6
CONTINUOUS
370
25
100
AcDbCircle
 10
199.20098
 20
97.066176
 40
11.0
  0
CIRCLE
  5
BF
100
AcDbEntity
  8
M0
  6
CONTINUOUS
370
25
100
AcDbCircle
 10
199.20098
 20
97.066176
 40
27.0
  0
CIRCLE
  5
C0
100
AcDbEntity
  8
M0
  6
CONTINUOUS
370
25
100
AcDbCircle
 10
199.20098
 20
97.066176
 40
26.0
  0
CIRCLE
  5
C1
100
AcDbEntity
  8
M0
  6
CONTINUOUS
370
25
100
AcDbCircle
 10
199.20098
 20
97.066176
 40
24.75
  0
LINE
  5
C2
100
AcDbEntity
  8
M0
  6
CONTINUOUS
370
25
100
AcDbLine
 10
79.779631
 20
95.263401
 11
98.779631
 21
98.868952
  0
LINE
  5
C3
100
AcDbEntity
  8
M0
  6
CONTINUOUS
370
25
100
AcDbLine
 10
79.779631
 20
98.868952
 11
98.779631
 21
95.263401
  0
TEXT
  5
C4
100
AcDbEntity
  8
M0
 62
     7
100
AcDbText
 10
131.302696
 20
15.470022
 40
4.846154
  1
ＰＭＢ－１０
 41
0.714286
  7
STANDARD
100
AcDbText
  0
ENDSEC
  0
SECTION
  2
OBJECTS
  0
DICTIONARY
  5
C
100
AcDbDictionary
  3
ACAD_GROUP
350
D
  3
ACAD_MLINESTYLE
350
E
  0
DICTIONARY
  5
D
102
{ACAD_REACTORS
330
C
102
}
100
AcDbDictionary
  0
DICTIONARY
  5
E
102
{ACAD_REACTORS
330
C
102
}
100
AcDbDictionary
  3
STANDARD
350
13
  0
MLINESTYLE
  5
13
102
{ACAD_REACTORS
330
E
102
}
100
AcDbMlineStyle
  2
STANDARD
 70
     0
  3

 62
     0
 51
90.0
 52
90.0
 71
     2
 49
0.5
 62
   256
  6
BYLAYER
 49
-0.5
 62
   256
  6
BYLAYER
  0
ENDSEC
  0
EOF
