  0
SECTION
  2
HEADER
  9
$ACADVER
  1
AC1015
  9
$INSBASE
 10
0.000000
 20
0.000000
 30
0.0
  9
$VIEWCTR
 10
7.531722
 20
4.5
  9
$VIEWSIZE
 40
9.0
  9
$SNAPMODE
 70
     0
  9
$SNAPUNIT
 10
1.0
 20
1.0
  9
$SNAPBASE
 10
0.0
 20
0.0
  9
$SNAPANG
 50
0.0
  9
$SNAPSTYLE
 70
     0
  9
$SNAPISOPAIR
 70
     0
  9
$GRIDMODE
 70
     0
  9
$GRIDUNIT
 10
0.0
 20
0.0
  9
$ORTHOMODE
 70
     0
  9
$REGENMODE
 70
     1
  9
$FILLMODE
 70
     1
  9
$QTEXTMODE
 70
     0
  9
$DRAGMODE
 70
     2
  9
$LTSCALE
  40
     1.000000
  9
$OSMODE
 70
     0
  9
$ATTMODE
 70
     1
  9
$TEXTSIZE
 40
0.2
  9
$TRACEWID
 40
0.05
  9
$TEXTSTYLE
  7
STANDARD
  9
$CELTYPE
  6
BYLAYER
  9
$CECOLOR
 62
   256
  9
$DIMSCALE
 40
1.0
  9
$DIMASZ
 40
0.18
  9
$DIMEXO
 40
0.0625
  9
$DIMDLI
 40
0.38
  9
$DIMRND
 40
0.0
  9
$DIMDLE
 40
0.0
  9
$DIMEXE
 40
0.18
  9
$DIMTP
 40
0.0
  9
$DIMTM
 40
0.0
  9
$DIMTXT
 40
0.18
  9
$DIMCEN
 40
0.09
  9
$DIMTSZ
 40
0.0
  9
$DIMADEC
 70
     0
  9
$DIMALTRND
 40
0.000000
  9
$DIMAZIN
 70
     0
  9
$DIMDSEP
 70
    46
  9
$DIMATFIT
 70
     3
  9
$DIMFRAC
 70
     0
  9
$DIMLDRBLK
  1

  9
$DIMLUNIT
 70
     2
  9
$DIMLWD
 70
   13
  9
$DIMLWE
 70
   13
  9
$DIMTMOVE
 70
     0
  9
$CELWEIGHT
370
    25
  9
$LWDISPLAY
290
    1
  9
$EXTNAMES
290
    1
  9
$DIMTOL
 70
     0
  9
$DIMLIM
 70
     0
  9
$DIMTIH
 70
     1
  9
$DIMTOH
 70
     1
  9
$DIMSE1
 70
     0
  9
$DIMSE2
 70
     0
  9
$DIMTAD
 70
     0
  9
$DIMZIN
 70
     0
  9
$DIMBLK
  1

  9
$LUNITS
 70
     2
  9
$LUPREC
 70
     4
  9
$AXISMODE
 70
     0
  9
$AXISUNIT
 10
0.0
 20
0.0
  9
$SKETCHINC
 40
0.1
  9
$FILLETRAD
 40
0.0
  9
$AUNITS
 70
     0
  9
$AUPREC
 70
     0
  9
$MENU
  1
ACAD
  9
$ELEVATION
 40
0.0
  9
$THICKNESS
 40
0.0
  9
$VIEWDIR
 10
0.0
 20
0.0
 30
1.0
  9
$LIMCHECK
 70
     0
  9
$BLIPMODE
 70
     1
  9
$CHAMFERA
 40
0.0
  9
$CHAMFERB
 40
0.0
  9
$FASTZOOM
 70
     1
  9
$SKPOLY
 70
     0
  9
$TDCREATE
 40
0000000.0000000000
  9
$TDUPDATE
 40
0000000.0000000000
  9
$TDINDWG
 40
0.0000000000
  9
$TDUSRTIMER
 40
0.0000000000
  9
$USRTIMER
 70
     1
  9
$ANGBASE
 50
0.0
  9
$ANGDIR
 70
     0
  9
$PDMODE
 70
     0
  9
$PDSIZE
 40
0.0
  9
$PLINEWID
 40
0.0
  9
$COORDS
 70
     0
  9
$USERI1
 70
     0
  9
$USERI2
 70
     0
  9
$USERI3
 70
     0
  9
$USERI4
 70
     0
  9
$USERI5
 70
     0
  9
$USERR1
 40
0.0
  9
$USERR2
 40
0.0
  9
$USERR3
 40
0.0
  9
$USERR4
 40
0.0
  9
$USERR5
 40
0.0
  9
$CLAYER
  8
M0
  9
$EXTMIN
 10
18.628352
 20
21.941177
  9
$EXTMAX
 10
269.750484
 20
196.756163
  9
$LIMMIN
 10
0.0
 20
0.0
  9
$LIMMAX
 10
420.0
 20
297.0
  9
$HANDSEED
  5
C9
  0
ENDSEC
  0
SECTION
  2
CLASSES
  0
CLASS
  1
DIMASSOC
  2
AcDbDimAssoc
  3
"AcDbDimAssoc|Product Desc:     AcDim ARX App For Dimension|Company:          Autodesk, Inc.|WEB Address:      www.autodesk.com"
 90
        0
280
     0
281
     0
  0
ENDSEC
  0
SECTION
  2
TABLES
  0
TABLE
  2
VPORT
  5
8
100
AcDbSymbolTable
 70
     2
  0
VPORT
  5
14
100
AcDbSymbolTableRecord
100
AcDbViewportTableRecord
  2
*ACTIVE
 70
     0
 10
0.0
 20
0.0
 11
1.0
 21
1.0
 12
484.0
 22
297.0
 13
0.0
 23
0.0
 14
1.0
 24
1.0
 15
0.0
 25
0.0
 16
0.0
 26
0.0
 36
1.0
 17
0.0
 27
0.0
 37
0.0
 40
594.0
 41
2.0
 42
50.0
 43
0.0
 44
0.0
 50
0.0
 51
0.0
 71
     0
 72
   100
 73
     1
 74
     1
 75
     0
 76
     0
 77
     0
 78
     0
  0
ENDTAB
  0
TABLE
  2
LTYPE
  5
5
100
AcDbSymbolTable
 70
     5
  0
LTYPE
  5
15
100
AcDbSymbolTableRecord
100
AcDbLinetypeTableRecord
  2
BYBLOCK
 70
     0
  3

 72
    65
 73
     0
 40
0.0
  0
LTYPE
  5
16
100
AcDbSymbolTableRecord
100
AcDbLinetypeTableRecord
  2
BYLAYER
 70
     0
  3

 72
    65
 73
     0
 40
0.0
  0
LTYPE
  5
17
100
AcDbSymbolTableRecord
100
AcDbLinetypeTableRecord
  2
CONTINUOUS
 70
    64
  3
Solid line
 72
    65
 73
     0
 40
0.0
  0
LTYPE
  5
18
100
AcDbSymbolTableRecord
100
AcDbLinetypeTableRecord
  2
DASHED
 70
    64
  3
__ __ __ __ __ __ __ __ __ __ __ __ __ __ __ __
 72
    65
 73
     2
 40
0.75
 49
0.5
 74
     0
 49
-0.25
 74
     0
  0
LTYPE
  5
19
100
AcDbSymbolTableRecord
100
AcDbLinetypeTableRecord
  2
DASHDOT
 70
    64
  3
__ . __ . __ . __ . __ . __ . __ . __ . __ . __
 72
    65
 73
     4
 40
1.0
 49
0.5
 74
     0
 49
-0.25
 74
     0
 49
0.0
 74
     0
 49
-0.25
 74
     0
  0
LTYPE
  5
1A
100
AcDbSymbolTableRecord
100
AcDbLinetypeTableRecord
  2
DIVIDE
 70
    64
  3
____ . . ____ . . ____ . . ____ . . ____ . . __
 72
    65
 73
     6
 40
1.25
 49
0.5
 74
     0
 49
-0.25
 74
     0
 49
0.0
 74
     0
 49
-0.25
 74
     0
 49
0.0
 74
     0
 49
-0.25
 74
     0
  0
LTYPE
  5
1B
100
AcDbSymbolTableRecord
100
AcDbLinetypeTableRecord
  2
DOT
 70
    64
  3
. . . . . . . . . . . . . . . . . . . . . . . .
 72
    65
 73
     2
 40
0.25
 49
0.0
 74
     0
 49
-0.25
 74
     0
  0
ENDTAB
  0
TABLE
  2
LAYER
  5
2
100
AcDbSymbolTable
 70
   102
  0
LAYER
  5
F
100
AcDbSymbolTableRecord
100
AcDbLayerTableRecord
  2
0
 70
     0
 62
     7
  6
CONTINUOUS
370
     -3
390
F
  0
LAYER
  5
1C
100
AcDbSymbolTableRecord
100
AcDbLayerTableRecord
  2
M0
 70
     0
 62
     3
  6
CONTINUOUS
370
     -3
390
F
  0
LAYER
  5
1D
100
AcDbSymbolTableRecord
100
AcDbLayerTableRecord
  2
DN0
 70
     0
 62
     2
  6
CONTINUOUS
370
     -3
390
F
  0
ENDTAB
  0
TABLE
  2
STYLE
  5
3
100
AcDbSymbolTable
 70
     2
  0
STYLE
  5
10
100
AcDbSymbolTableRecord
100
AcDbTextStyleTableRecord
  2
STANDARD
 70
     0
 40
0.0
 41
1.0
 50
0.0
 71
     0
 42
0.2
  3
txt
  4
BIGFONT
  0
ENDTAB
  0
TABLE
  2
VIEW
  5
6
100
AcDbSymbolTable
 70
     0
  0
ENDTAB
  0
TABLE
  2
UCS
  5
7
100
AcDbSymbolTable
 70
     0
  0
ENDTAB
  0
TABLE
  2
APPID
  5
9
100
AcDbSymbolTable
 70
     1
  0
APPID
  5
11
100
AcDbSymbolTableRecord
100
AcDbRegAppTableRecord
  2
ACAD
 70
     0
  0
ENDTAB
  0
TABLE
  2
DIMSTYLE
  5
A
100
AcDbSymbolTable
 70
     2
100
AcDbDimStyleTable
 71
     1
  0
DIMSTYLE
105
46
100
AcDbSymbolTableRecord
100
AcDbDimStyleTableRecord
  2
STANDARD
 70
     0
  3

  4

  5

  6
_OPEN
  7
_OPEN
 40
1.0
 41
3.0
 42
0.5
 43
8.0
 44
1.5
 45
0.0
 46
0.0
 47
0.0
 48
0.0
140
3.15
141
0.09
142
0.0
143
0.03937
144
1.0
145
0.0
146
1.0
147
1.0
148
0.000000
 71
     0
 72
     0
 73
     1
 74
     1
 75
     0
 76
     0
 77
     3
 78
     8
170
     0
171
     2
172
     0
173
     1
174
     0
175
     0
176
     0
177
     0
178
     0
270
     2
271
     2
272
     4
273
     2
274
     2
340
10
275
     0
278
    46
280
     0
281
     0
282
     0
283
     1
284
     0
285
     0
286
     0
287
     3
288
     0
371
   13
372
   13
  0
DIMSTYLE
105
47
100
AcDbSymbolTableRecord
100
AcDbDimStyleTableRecord
  2
LEADSTYL
 70
     0
  3

  4

  5

  6
_OPEN
  7
_OPEN
 40
1.0
 41
3.0
 42
0.0625
 43
0.38
 44
0.18
 45
0.0
 46
0.0
 47
0.0
 48
0.0
140
3.15
141
0.09
142
0.0
143
25.4
144
1.0
145
0.0
146
1.0
147
1.0
 71
     0
 72
     0
 73
     1
 74
     1
 75
     0
 76
     0
 77
     0
 78
     0
170
     0
171
     2
172
     0
173
     1
174
     0
175
     0
176
     0
177
     0
178
     0
270
     2
271
     4
272
     4
273
     2
274
     2
340
10
275
     0
280
     0
281
     0
282
     0
283
     1
284
     0
285
     0
286
     0
287
     3
288
     0
  0
ENDTAB
  0
TABLE
  2
BLOCK_RECORD
  5
1
100
AcDbSymbolTable
 70
     6
  0
BLOCK_RECORD
  5
1E
100
AcDbSymbolTableRecord
100
AcDbBlockTableRecord
  2
*MODEL_SPACE
  0
BLOCK_RECORD
  5
21
100
AcDbSymbolTableRecord
100
AcDbBlockTableRecord
  2
*PAPER_SPACE
  0
BLOCK_RECORD
  5
24
100
AcDbSymbolTableRecord
100
AcDbBlockTableRecord
  2
_NONE
  0
BLOCK_RECORD
  5
28
100
AcDbSymbolTableRecord
100
AcDbBlockTableRecord
  2
_OPEN
  0
BLOCK_RECORD
  5
2E
100
AcDbSymbolTableRecord
100
AcDbBlockTableRecord
  2
_CLOSED
  0
BLOCK_RECORD
  5
35
100
AcDbSymbolTableRecord
100
AcDbBlockTableRecord
  2
_ORIGIN
  0
BLOCK_RECORD
  5
3A
100
AcDbSymbolTableRecord
100
AcDbBlockTableRecord
  2
_DOT
  0
BLOCK_RECORD
  5
42
100
AcDbSymbolTableRecord
100
AcDbBlockTableRecord
  2
_OBLIQUE
  0
ENDTAB
  0
ENDSEC
  0
SECTION
  2
BLOCKS
  0
BLOCK
  5
1F
100
AcDbEntity
  8
0
100
AcDbBlockBegin
  2
*MODEL_SPACE
 70
     0
 10
0.0
 20
0.0
 30
0.0
  3
*MODEL_SPACE
  1

  0
ENDBLK
  5
20
100
AcDbEntity
  8
0
100
AcDbBlockEnd
  0
BLOCK
  5
22
100
AcDbEntity
 67
     1
  8
0
100
AcDbBlockBegin
  2
*PAPER_SPACE
 70
     0
 10
0.0
 20
0.0
 30
0.0
  3
*PAPER_SPACE
  1

  0
ENDBLK
  5
23
100
AcDbEntity
 67
     1
  8
0
100
AcDbBlockEnd
  0
BLOCK
  5
25
100
AcDbEntity
  8
0
100
AcDbBlockBegin
  2
_NONE
 70
     0
 10
0.0
 20
0.0
  0
CIRCLE
  5
26
100
AcDbEntity
  8
0
 62
     0
370
13
100
AcDbCircle
 10
0.0
 20
0.0
 40
0.25
  0
ENDBLK
  5
27
100
AcDbEntity
  8
0
100
AcDbBlockEnd
  0
BLOCK
  5
29
100
AcDbEntity
  8
0
100
AcDbBlockBegin
  2
_OPEN
 70
     0
 10
0.0
 20
0.0
  0
LINE
  5
2A
100
AcDbEntity
  8
0
 62
     0
370
13
100
AcDbLine
 10
-0.965926
 20
0.258819
 11
0.0
 21
0.0
  0
LINE
  5
2B
100
AcDbEntity
  8
0
 62
     0
370
13
100
AcDbLine
 10
0.0
 20
0.0
 11
-0.965926
 21
-0.258819
  0
LINE
  5
2C
100
AcDbEntity
  8
0
 62
     0
370
13
100
AcDbLine
 10
0.0
 20
0.0
 11
-1.0
 21
0.0
  0
ENDBLK
  5
2D
100
AcDbEntity
  8
0
100
AcDbBlockEnd
  0
BLOCK
  5
2F
100
AcDbEntity
  8
0
100
AcDbBlockBegin
  2
_CLOSED
 70
     0
 10
0.0
 20
0.0
  0
LINE
  5
30
100
AcDbEntity
  8
0
 62
     0
370
13
100
AcDbLine
 10
-0.965926
 20
0.258819
 11
0.0
 21
0.0
  0
LINE
  5
31
100
AcDbEntity
  8
0
 62
     0
370
13
100
AcDbLine
 10
0.0
 20
0.0
 11
-0.965926
 21
-0.258819
  0
LINE
  5
32
100
AcDbEntity
  8
0
 62
     0
370
13
100
AcDbLine
 10
-0.965926
 20
0.258819
 11
-0.965926
 21
-0.258819
  0
LINE
  5
33
100
AcDbEntity
  8
0
 62
     0
370
13
100
AcDbLine
 10
0.0
 20
0.0
 11
-1.0
 21
0.0
  0
ENDBLK
  5
34
100
AcDbEntity
  8
0
100
AcDbBlockEnd
  0
BLOCK
  5
36
100
AcDbEntity
  8
0
100
AcDbBlockBegin
  2
_ORIGIN
 70
     0
 10
0.0
 20
0.0
  0
CIRCLE
  5
37
100
AcDbEntity
  8
0
 62
     0
370
13
100
AcDbCircle
 10
0.0
 20
0.0
 40
0.5
  0
LINE
  5
38
100
AcDbEntity
  8
0
 62
     0
370
13
100
AcDbLine
 10
0.0
 20
0.0
 11
-1.0
 21
0.0
  0
ENDBLK
  5
39
100
AcDbEntity
  8
0
100
AcDbBlockEnd
  0
BLOCK
  5
3B
100
AcDbEntity
  8
0
100
AcDbBlockBegin
  2
_DOT
 70
     0
 10
0.0
 20
0.0
  0
POLYLINE
  5
3C
100
AcDbEntity
  8
0
 62
     0
100
AcDb2dPolyline
 66
     1
 70
     1
 40
0.5
 41
0.5
  0
VERTEX
  5
3D
100
AcDbEntity
  8
0
 62
     0
100
AcDbVertex
100
AcDb2dVertex
 10
-0.25
 20
0.0
 42
1.0
  0
VERTEX
  5
3E
100
AcDbEntity
  8
0
 62
     0
100
AcDbVertex
100
AcDb2dVertex
 10
0.25
 20
0.0
 42
1.0
  0
SEQEND
  5
3F
100
AcDbEntity
  8
0
 62
     0
  0
LINE
  5
40
100
AcDbEntity
  8
0
 62
     0
370
13
100
AcDbLine
 10
-0.5
 20
0.0
 11
-1.0
 21
0.0
  0
ENDBLK
  5
41
100
AcDbEntity
  8
0
100
AcDbBlockEnd
  0
BLOCK
  5
43
100
AcDbEntity
  8
0
100
AcDbBlockBegin
  2
_OBLIQUE
 70
     0
 10
0.0
 20
0.0
  0
LINE
  5
44
100
AcDbEntity
  8
0
 62
     0
370
13
100
AcDbLine
 10
-0.353553
 20
-0.353553
 11
0.353553
 21
0.353553
  0
ENDBLK
  5
45
100
AcDbEntity
  8
0
100
AcDbBlockEnd
  0
ENDSEC
  0
SECTION
  2
ENTITIES
  0
LINE
  5
48
100
AcDbEntity
  8
M0
  6
DASHDOT
370
13
 62
     7
100
AcDbLine
 10
18.628352
 20
129.486544
 11
94.966857
 21
129.486544
  0
LINE
  5
49
100
AcDbEntity
  8
M0
  6
CONTINUOUS
370
25
 62
     7
100
AcDbLine
 10
92.00877
 20
129.486544
 11
92.00877
 21
133.486544
  0
LINE
  5
4A
100
AcDbEntity
  8
M0
  6
CONTINUOUS
370
25
 62
     7
100
AcDbLine
 10
21.85877
 20
136.086544
 11
21.85877
 21
121.686544
  0
LINE
  5
4B
100
AcDbEntity
  8
M0
  6
CONTINUOUS
370
25
 62
     7
100
AcDbLine
 10
92.00877
 20
129.486544
 11
92.00877
 21
125.486544
  0
LINE
  5
4C
100
AcDbEntity
  8
M0
  6
CONTINUOUS
370
25
 62
   194
100
AcDbLine
 10
60.00877
 20
162.986544
 11
59.00877
 21
163.986544
  0
LINE
  5
4D
100
AcDbEntity
  8
M0
  6
CONTINUOUS
370
25
 62
   194
100
AcDbLine
 10
60.00877
 20
162.986544
 11
59.00877
 21
163.986544
  0
LINE
  5
4E
100
AcDbEntity
  8
M0
  6
CONTINUOUS
370
25
 62
   194
100
AcDbLine
 10
60.00877
 20
95.986544
 11
59.00877
 21
94.986544
  0
LINE
  5
4F
100
AcDbEntity
  8
M0
  6
CONTINUOUS
370
25
 62
   194
100
AcDbLine
 10
60.00877
 20
95.986544
 11
59.00877
 21
94.986544
  0
LINE
  5
50
100
AcDbEntity
  8
M0
  6
CONTINUOUS
370
25
100
AcDbLine
 10
59.00877
 20
94.986544
 11
57.00877
 21
94.986544
  0
LINE
  5
51
100
AcDbEntity
  8
M0
  6
CONTINUOUS
370
25
100
AcDbLine
 10
23.00877
 20
163.986544
 11
53.00877
 21
163.986544
  0
LINE
  5
52
100
AcDbEntity
  8
M0
  6
CONTINUOUS
370
25
100
AcDbLine
 10
60.00877
 20
162.986544
 11
60.00877
 21
95.986544
  0
LINE
  5
53
100
AcDbEntity
  8
M0
  6
CONTINUOUS
370
25
100
AcDbLine
 10
57.00877
 20
163.986544
 11
59.00877
 21
163.986544
  0
LINE
  5
54
100
AcDbEntity
  8
M0
  6
CONTINUOUS
370
25
100
AcDbLine
 10
53.00877
 20
94.986544
 11
22.90877
 21
94.986544
  0
CIRCLE
  5
55
100
AcDbEntity
  8
M0
  6
CONTINUOUS
370
25
100
AcDbCircle
 10
195.290764
 20
129.486544
 40
46.0
  0
CIRCLE
  5
56
100
AcDbEntity
  8
M0
  6
CONTINUOUS
370
25
100
AcDbCircle
 10
224.282142
 20
100.495166
 40
2.25
  0
CIRCLE
  5
57
100
AcDbEntity
  8
M0
  6
CONTINUOUS
370
25
100
AcDbCircle
 10
166.299386
 20
158.477922
 40
2.25
  0
CIRCLE
  5
58
100
AcDbEntity
  8
M0
  6
CONTINUOUS
370
25
100
AcDbCircle
 10
224.282142
 20
158.477922
 40
2.25
  0
CIRCLE
  5
59
100
AcDbEntity
  8
M0
  6
CONTINUOUS
370
25
100
AcDbCircle
 10
166.299386
 20
100.495166
 40
2.25
  0
CIRCLE
  5
5A
100
AcDbEntity
  8
M0
  6
DASHDOT
370
13
100
AcDbCircle
 10
195.290764
 20
129.486544
 40
41.0
  0
LINE
  5
5B
100
AcDbEntity
  8
M0
  6
DASHED
370
25
100
AcDbLine
 10
193.770769
 20
163.953044
 11
193.770778
 21
175.461424
  0
ARC
  5
5C
100
AcDbEntity
  8
M0
  6
CONTINUOUS
370
25
100
AcDbCircle
 10
190.790764
 20
123.048682
 40
1.0
100
AcDbArc
 50
0.0
 51
56.785261
  0
ARC
  5
5D
100
AcDbEntity
  8
M0
  6
CONTINUOUS
370
25
100
AcDbCircle
 10
197.790764
 20
122.836544
 40
1.0
100
AcDbArc
 50
270.0
 51
360.0
  0
ARC
  5
5E
100
AcDbEntity
  8
M0
  6
CONTINUOUS
370
25
100
AcDbCircle
 10
199.790764
 20
123.048682
 40
1.0
100
AcDbArc
 50
123.214739
 51
180.0
  0
LINE
  5
5F
100
AcDbEntity
  8
M0
  6
CONTINUOUS
370
25
100
AcDbLine
 10
194.316765
 20
194.837218
 11
194.316765
 21
189.637218
  0
LINE
  5
60
100
AcDbEntity
  8
M0
  6
CONTINUOUS
370
25
100
AcDbLine
 10
195.290789
 20
185.345968
 11
195.290789
 21
189.637218
  0
LINE
  5
61
100
AcDbEntity
  8
M0
  6
CONTINUOUS
370
25
100
AcDbLine
 10
195.096765
 20
194.837218
 11
195.096765
 21
189.637218
  0
LINE
  5
62
100
AcDbEntity
  8
M0
  6
CONTINUOUS
370
25
100
AcDbLine
 10
193.770785
 20
184.448239
 11
193.770771
 21
189.637218
  0
LINE
  5
63
100
AcDbEntity
  8
M0
  6
CONTINUOUS
370
25
100
AcDbLine
 10
195.096765
 20
194.837218
 11
194.056765
 21
194.837218
  0
CIRCLE
  5
64
100
AcDbEntity
  8
M0
  6
CONTINUOUS
370
25
100
AcDbCircle
 10
197.540764
 20
123.48196
 40
0.6
  0
CIRCLE
  5
65
100
AcDbEntity
  8
M0
  6
CONTINUOUS
370
25
100
AcDbCircle
 10
193.040764
 20
123.48196
 40
0.6
  0
CIRCLE
  5
66
100
AcDbEntity
  8
M0
  6
CONTINUOUS
370
25
100
AcDbCircle
 10
195.290764
 20
129.486544
 40
5.0
  0
CIRCLE
  5
67
100
AcDbEntity
  8
M0
  6
CONTINUOUS
370
25
100
AcDbCircle
 10
195.290764
 20
129.486544
 40
19.5
  0
ARC
  5
68
100
AcDbEntity
  8
M0
  6
CONTINUOUS
370
25
100
AcDbCircle
 10
195.290764
 20
129.921544
 40
7.215
100
AcDbArc
 50
303.214739
 51
596.785261
  0
ARC
  5
69
100
AcDbEntity
  8
M0
  6
CONTINUOUS
370
25
100
AcDbCircle
 10
192.790764
 20
122.836544
 40
1.0
100
AcDbArc
 50
180.0
 51
270.0
  0
LINE
  5
6A
100
AcDbEntity
  8
M0
  6
CONTINUOUS
370
25
100
AcDbLine
 10
195.744763
 20
189.637218
 11
195.744763
 21
194.837218
  0
LINE
  5
6B
100
AcDbEntity
  8
M0
  6
CONTINUOUS
370
25
100
AcDbLine
 10
195.484763
 20
194.837218
 11
196.524763
 21
194.837218
  0
LINE
  5
6C
100
AcDbEntity
  8
M0
  6
CONTINUOUS
370
25
100
AcDbLine
 10
195.484763
 20
194.837218
 11
195.484763
 21
189.637218
  0
LINE
  5
6D
100
AcDbEntity
  8
M0
  6
CONTINUOUS
370
25
100
AcDbLine
 10
196.004763
 20
194.837218
 11
196.004763
 21
189.637218
  0
LINE
  5
6E
100
AcDbEntity
  8
M0
  6
CONTINUOUS
370
25
100
AcDbLine
 10
196.524763
 20
194.837218
 11
196.524763
 21
189.637218
  0
SPLINE
  5
6F
100
AcDbEntity
  8
M0
  6
CONTINUOUS
370
25
100
AcDbSpline
210
0.0
220
0.0
230
-1.0
 70
     8
 71
     3
 72
    14
 73
    10
 43
0.0000001
 40
0.0
 40
0.0
 40
0.0
 40
0.0
 40
1.0
 40
1.0
 40
1.0
 40
2.0
 40
2.0
 40
2.0
 40
3.0
 40
3.0
 40
3.0
 40
3.0
 10
193.770785
 20
184.439539
 10
193.773657
 20
184.440138
 10
193.776523
 20
184.440756
 10
193.779384
 20
184.441393
 10
194.324386
 20
184.56277
 10
194.682518
 20
185.377565
 10
195.297073
 20
185.466859
 10
195.709634
 20
185.526803
 10
196.237738
 20
185.260127
 10
196.810744
 20
184.866461
  0
SPLINE
  5
70
100
AcDbEntity
  8
M0
  6
CONTINUOUS
370
25
100
AcDbSpline
210
0.0
220
0.0
230
-1.0
 70
     8
 71
     3
 72
    14
 73
    10
 43
0.0000001
 40
0.0
 40
0.0
 40
0.0
 40
0.0
 40
1.0
 40
1.0
 40
1.0
 40
2.0
 40
2.0
 40
2.0
 40
3.0
 40
3.0
 40
3.0
 40
3.0
 10
193.770784
 20
183.141937
 10
193.773656
 20
183.142537
 10
193.776523
 20
183.143155
 10
193.779384
 20
183.143792
 10
194.324386
 20
183.265168
 10
194.682518
 20
184.079963
 10
195.297073
 20
184.169257
 10
195.709634
 20
184.229202
 10
196.237737
 20
183.962525
 10
196.810744
 20
183.56886
  0
LINE
  5
71
100
AcDbEntity
  8
M0
  6
CONTINUOUS
370
25
100
AcDbLine
 10
195.290764
 20
175.486544
 11
195.290764
 21
184.466609
  0
LINE
  5
72
100
AcDbEntity
  8
M0
  6
CONTINUOUS
370
25
100
AcDbLine
 10
196.81075
 20
175.461424
 11
196.810744
 21
183.56886
  0
LINE
  5
73
100
AcDbEntity
  8
M0
  6
CONTINUOUS
370
25
100
AcDbLine
 10
193.770778
 20
175.461424
 11
193.770784
 21
183.141937
  0
LINE
  5
74
100
AcDbEntity
  8
M0
  6
DASHDOT
370
13
100
AcDbLine
 10
169.587844
 20
155.189464
 11
162.763852
 21
162.013456
  0
LINE
  5
75
100
AcDbEntity
  8
M0
  6
CONTINUOUS
370
25
100
AcDbLine
 10
195.290739
 20
185.345968
 11
195.290739
 21
189.637218
  0
LINE
  5
76
100
AcDbEntity
  8
M0
  6
CONTINUOUS
370
25
100
AcDbLine
 10
195.290789
 20
189.637218
 11
193.770762
 21
189.637218
  0
LINE
  5
77
100
AcDbEntity
  8
M0
  6
CONTINUOUS
370
25
100
AcDbLine
 10
194.576765
 20
194.837218
 11
194.576765
 21
189.637218
  0
CIRCLE
  5
78
100
AcDbEntity
  8
M0
  6
CONTINUOUS
370
25
100
AcDbCircle
 10
195.290764
 20
129.486544
 40
5.0
  0
LINE
  5
79
100
AcDbEntity
  8
M0
  6
DASHED
370
25
100
AcDbLine
 10
195.290764
 20
163.986544
 11
195.290764
 21
175.486544
  0
LINE
  5
7A
100
AcDbEntity
  8
M0
  6
DASHED
370
25
100
AcDbLine
 10
196.810759
 20
163.953044
 11
196.81075
 21
175.461424
  0
LINE
  5
7B
100
AcDbEntity
  8
M0
  6
CONTINUOUS
370
25
100
AcDbLine
 10
196.810744
 20
184.866461
 11
196.810757
 21
189.637218
  0
LINE
  5
7C
100
AcDbEntity
  8
M0
  6
CONTINUOUS
370
25
100
AcDbLine
 10
196.264763
 20
194.837218
 11
196.264763
 21
189.637218
  0
LINE
  5
7D
100
AcDbEntity
  8
M0
  6
CONTINUOUS
370
25
100
AcDbLine
 10
195.290739
 20
189.637218
 11
196.810766
 21
189.637218
  0
LINE
  5
7E
100
AcDbEntity
  8
M0
  6
CONTINUOUS
370
25
100
AcDbLine
 10
197.790764
 20
121.836544
 11
196.290764
 21
121.836544
  0
LINE
  5
7F
100
AcDbEntity
  8
M0
  6
CONTINUOUS
370
25
100
AcDbLine
 10
198.790764
 20
122.836544
 11
198.790764
 21
123.048682
  0
LINE
  5
80
100
AcDbEntity
  8
M0
  6
CONTINUOUS
370
25
100
AcDbLine
 10
196.290764
 20
124.587564
 11
196.290764
 21
121.836544
  0
LINE
  5
81
100
AcDbEntity
  8
M0
  6
CONTINUOUS
370
25
100
AcDbLine
 10
194.836765
 20
189.637218
 11
194.836765
 21
194.837218
  0
CIRCLE
  5
82
100
AcDbEntity
  8
M0
  6
CONTINUOUS
370
25
100
AcDbCircle
 10
195.290764
 20
129.486544
 40
20.0
  0
LINE
  5
83
100
AcDbEntity
  8
M0
  6
CONTINUOUS
370
25
100
AcDbLine
 10
191.290764
 20
126.486544
 11
191.290764
 21
132.486544
  0
LINE
  5
84
100
AcDbEntity
  8
M0
  6
CONTINUOUS
370
25
100
AcDbLine
 10
194.056765
 20
194.837218
 11
194.056765
 21
189.637218
  0
LINE
  5
85
100
AcDbEntity
  8
M0
  6
CONTINUOUS
370
25
100
AcDbLine
 10
192.290764
 20
133.486544
 11
198.290764
 21
133.486544
  0
LINE
  5
86
100
AcDbEntity
  8
M0
  6
CONTINUOUS
370
25
100
AcDbLine
 10
61.00877
 20
136.086544
 11
61.00877
 21
134.286544
  0
LINE
  5
87
100
AcDbEntity
  8
M0
  6
CONTINUOUS
370
25
100
AcDbLine
 10
61.00877
 20
136.086544
 11
60.00877
 21
136.086544
  0
LINE
  5
88
100
AcDbEntity
  8
M0
  6
CONTINUOUS
370
25
100
AcDbLine
 10
60.00877
 20
121.686544
 11
61.00877
 21
121.686544
  0
LINE
  5
89
100
AcDbEntity
  8
M0
  6
CONTINUOUS
370
25
100
AcDbLine
 10
61.00877
 20
121.686544
 11
61.00877
 21
124.686544
  0
LINE
  5
8A
100
AcDbEntity
  8
M0
  6
CONTINUOUS
370
25
100
AcDbLine
 10
194.290764
 20
124.587564
 11
194.290764
 21
121.836544
  0
LINE
  5
8B
100
AcDbEntity
  8
M0
  6
CONTINUOUS
370
25
100
AcDbLine
 10
191.790764
 20
123.048682
 11
191.790764
 21
122.836544
  0
LINE
  5
8C
100
AcDbEntity
  8
M0
  6
CONTINUOUS
370
25
100
AcDbLine
 10
194.290764
 20
121.836544
 11
192.790764
 21
121.836544
  0
SPLINE
  5
8D
100
AcDbEntity
  8
M0
  6
CONTINUOUS
370
13
100
AcDbSpline
210
0.0
220
0.0
230
-1.0
 70
     8
 71
     3
 72
    14
 73
    10
 43
0.0000001
 40
0.0
 40
0.0
 40
0.0
 40
0.0
 40
1.0
 40
1.0
 40
1.0
 40
2.0
 40
2.0
 40
2.0
 40
3.0
 40
3.0
 40
3.0
 40
3.0
 10
32.268795
 20
184.84068
 10
32.121002
 20
184.963748
 10
31.973208
 20
185.016215
 10
31.825417
 20
184.948318
 10
31.46844
 20
184.784319
 10
31.111443
 20
183.918067
 10
30.770243
 20
183.940391
 10
30.763079
 20
183.94086
 10
30.755921
 20
183.941719
 10
30.74877
 20
183.942954
  0
SPLINE
  5
8E
100
AcDbEntity
  8
M0
  6
CONTINUOUS
370
13
100
AcDbSpline
210
0.0
220
0.0
230
-1.0
 70
     8
 71
     3
 72
    14
 73
    10
 43
0.0000001
 40
0.0
 40
0.0
 40
0.0
 40
0.0
 40
1.0
 40
1.0
 40
1.0
 40
2.0
 40
2.0
 40
2.0
 40
3.0
 40
3.0
 40
3.0
 40
3.0
 10
32.268795
 20
185.720059
 10
32.121002
 20
185.843127
 10
31.973208
 20
185.895594
 10
31.825417
 20
185.827697
 10
31.46844
 20
185.663698
 10
31.111443
 20
184.797447
 10
30.770243
 20
184.81977
 10
30.763079
 20
184.820239
 10
30.755922
 20
184.821099
 10
30.748771
 20
184.822334
  0
LINE
  5
8F
100
AcDbEntity
  8
M0
  6
CONTINUOUS
370
25
100
AcDbLine
 10
30.748775
 20
164.360634
 11
30.748791
 21
183.942951
  0
LINE
  5
90
100
AcDbEntity
  8
M0
  6
CONTINUOUS
370
25
100
AcDbLine
 10
31.814771
 20
190.011309
 11
31.814771
 21
195.211309
  0
LINE
  5
91
100
AcDbEntity
  8
M0
  6
DASHDOT
370
13
100
AcDbLine
 10
31.50877
 20
164.360635
 11
31.50877
 21
196.756163
  0
LINE
  5
92
100
AcDbEntity
  8
M0
  6
CONTINUOUS
370
25
100
AcDbLine
 10
31.034771
 20
195.211309
 11
31.034771
 21
190.011309
  0
LINE
  5
93
100
AcDbEntity
  8
M0
  6
CONTINUOUS
370
25
100
AcDbLine
 10
32.268795
 20
190.011309
 11
30.748768
 21
190.011309
  0
LINE
  5
94
100
AcDbEntity
  8
M0
  6
DASHDOT
370
13
 62
     7
100
AcDbLine
 10
50.451683
 20
170.486544
 11
59.056742
 21
170.486544
  0
LINE
  5
95
100
AcDbEntity
  8
M0
  6
CONTINUOUS
370
25
 62
     7
100
AcDbLine
 10
53.00877
 20
175.486544
 11
53.00877
 21
129.486544
  0
LINE
  5
96
100
AcDbEntity
  8
M0
  6
CONTINUOUS
370
25
 62
     7
100
AcDbLine
 10
57.00877
 20
83.486544
 11
57.00877
 21
129.486544
  0
LINE
  5
97
100
AcDbEntity
  8
M0
  6
CONTINUOUS
370
25
 62
     7
100
AcDbLine
 10
57.00877
 20
175.486544
 11
57.00877
 21
129.486544
  0
LINE
  5
98
100
AcDbEntity
  8
M0
  6
DASHED
370
25
 62
     7
100
AcDbLine
 10
53.00877
 20
172.736544
 11
57.00877
 21
172.736544
  0
LINE
  5
99
100
AcDbEntity
  8
M0
  6
DASHED
370
25
 62
     7
100
AcDbLine
 10
53.00877
 20
168.236544
 11
57.00877
 21
168.236544
  0
LINE
  5
9A
100
AcDbEntity
  8
M0
  6
CONTINUOUS
370
25
100
AcDbLine
 10
32.26877
 20
164.360635
 11
32.26877
 21
184.8407
  0
LINE
  5
9B
100
AcDbEntity
  8
M0
  6
CONTINUOUS
370
25
 62
     7
100
AcDbLine
 10
57.00877
 20
175.486544
 11
53.00877
 21
175.486544
  0
LINE
  5
9C
100
AcDbEntity
  8
M0
  6
CONTINUOUS
370
25
100
AcDbLine
 10
30.748792
 20
184.82233
 11
30.748778
 21
190.011309
  0
LINE
  5
9D
100
AcDbEntity
  8
M0
  6
CONTINUOUS
370
25
100
AcDbLine
 10
31.294771
 20
195.211309
 11
31.294771
 21
190.011309
  0
LINE
  5
9E
100
AcDbEntity
  8
M0
  6
CONTINUOUS
370
25
100
AcDbLine
 10
31.554771
 20
195.211309
 11
31.554771
 21
190.011309
  0
LINE
  5
9F
100
AcDbEntity
  8
M0
  6
CONTINUOUS
370
25
100
AcDbLine
 10
32.074771
 20
195.211309
 11
32.074771
 21
190.011309
  0
LINE
  5
A0
100
AcDbEntity
  8
M0
  6
CONTINUOUS
370
25
100
AcDbLine
 10
32.268795
 20
185.720059
 11
32.268795
 21
190.011309
  0
LINE
  5
A1
100
AcDbEntity
  8
M0
  6
CONTINUOUS
370
25
100
AcDbLine
 10
32.074771
 20
195.211309
 11
31.034771
 21
195.211309
  0
LINE
  5
A2
100
AcDbEntity
  8
M0
  6
CONTINUOUS
370
25
100
AcDbLine
 10
61.00877
 20
124.486544
 11
61.00877
 21
129.486544
  0
LINE
  5
A3
100
AcDbEntity
  8
M0
  6
DASHDOT
370
13
100
AcDbLine
 10
142.31687
 20
129.486544
 11
249.552395
 21
129.486544
  0
LINE
  5
A4
100
AcDbEntity
  8
M0
  6
DASHDOT
370
13
100
AcDbLine
 10
195.290764
 20
77.97406
 11
195.290764
 21
176.819877
  0
LINE
  5
A5
100
AcDbEntity
  8
M0
  6
CONTINUOUS
370
25
100
AcDbLine
 10
92.00877
 20
133.486544
 11
63.00877
 21
133.486544
  0
LINE
  5
A6
100
AcDbEntity
  8
M0
  6
CONTINUOUS
370
25
100
AcDbLine
 10
91.00877
 20
133.486544
 11
91.00877
 21
129.486544
  0
LINE
  5
A7
100
AcDbEntity
  8
M0
  6
CONTINUOUS
370
25
100
AcDbLine
 10
91.00877
 20
132.486544
 11
63.00877
 21
132.486544
  0
LINE
  5
A8
100
AcDbEntity
  8
M0
  6
CONTINUOUS
370
25
100
AcDbLine
 10
63.00877
 20
126.486544
 11
63.00877
 21
132.486544
  0
LINE
  5
A9
100
AcDbEntity
  8
M0
  6
CONTINUOUS
370
25
100
AcDbLine
 10
91.00877
 20
124.486544
 11
91.00877
 21
129.486544
  0
LINE
  5
AA
100
AcDbEntity
  8
M0
  6
CONTINUOUS
370
25
100
AcDbLine
 10
91.00877
 20
126.486544
 11
63.00877
 21
126.486544
  0
LINE
  5
AB
100
AcDbEntity
  8
M0
  6
CONTINUOUS
370
25
100
AcDbLine
 10
63.00877
 20
133.486544
 11
63.00877
 21
134.486544
  0
LINE
  5
AC
100
AcDbEntity
  8
M0
  6
CONTINUOUS
370
25
100
AcDbLine
 10
61.00877
 20
134.486544
 11
61.00877
 21
129.486544
  0
LINE
  5
AD
100
AcDbEntity
  8
M0
  6
CONTINUOUS
370
25
100
AcDbLine
 10
91.00877
 20
124.486544
 11
92.00877
 21
125.486544
  0
LINE
  5
AE
100
AcDbEntity
  8
M0
  6
CONTINUOUS
370
25
 62
     7
100
AcDbLine
 10
53.00877
 20
83.486544
 11
53.00877
 21
129.486544
  0
LINE
  5
AF
100
AcDbEntity
  8
M0
  6
CONTINUOUS
370
25
 62
     7
100
AcDbLine
 10
57.00877
 20
83.486544
 11
53.00877
 21
83.486544
  0
LINE
  5
B0
100
AcDbEntity
  8
M0
  6
CONTINUOUS
370
25
100
AcDbLine
 10
20.50877
 20
124.786544
 11
20.50877
 21
134.186544
  0
LINE
  5
B1
100
AcDbEntity
  8
M0
  6
CONTINUOUS
370
25
100
AcDbLine
 10
20.80877
 20
134.486544
 11
21.85877
 21
134.486544
  0
LINE
  5
B2
100
AcDbEntity
  8
M0
  6
CONTINUOUS
370
25
100
AcDbLine
 10
20.80877
 20
124.486544
 11
21.85877
 21
124.486544
  0
LINE
  5
B3
100
AcDbEntity
  8
M0
  6
CONTINUOUS
370
25
100
AcDbLine
 10
21.85877
 20
121.686544
 11
22.85877
 21
121.686544
  0
LINE
  5
B4
100
AcDbEntity
  8
M0
  6
CONTINUOUS
370
25
100
AcDbLine
 10
22.85877
 20
136.086544
 11
21.85877
 21
136.086544
  0
LINE
  5
B5
100
AcDbEntity
  8
M0
  6
CONTINUOUS
370
25
100
AcDbLine
 10
22.85877
 20
121.686544
 11
22.85877
 21
136.086544
  0
LINE
  5
B6
100
AcDbEntity
  8
M0
  6
CONTINUOUS
370
25
100
AcDbLine
 10
23.00877
 20
163.986544
 11
23.00877
 21
94.986544
  0
LINE
  5
B7
100
AcDbEntity
  8
M0
  6
CONTINUOUS
370
25
100
AcDbLine
 10
20.80877
 20
124.486544
 11
20.50877
 21
124.786544
  0
LINE
  5
B8
100
AcDbEntity
  8
M0
  6
CONTINUOUS
370
25
100
AcDbLine
 10
20.50877
 20
134.186544
 11
20.80877
 21
134.486544
  0
LINE
  5
B9
100
AcDbEntity
  8
M0
  6
CONTINUOUS
370
25
100
AcDbLine
 10
61.00877
 20
124.486544
 11
91.00877
 21
124.486544
  0
LINE
  5
BA
100
AcDbEntity
  8
M0
  6
CONTINUOUS
370
25
100
AcDbLine
 10
61.00877
 20
134.486544
 11
63.00877
 21
134.486544
  0
LINE
  5
BB
100
AcDbEntity
  8
M0
  6
CONTINUOUS
370
25
100
AcDbLine
 10
22.85877
 20
124.486544
 11
23.00877
 21
124.486544
  0
LINE
  5
BC
100
AcDbEntity
  8
M0
  6
CONTINUOUS
370
25
100
AcDbLine
 10
22.85877
 20
134.486544
 11
23.00877
 21
134.486544
  0
LINE
  5
BD
100
AcDbEntity
  8
M0
  6
DASHDOT
370
13
100
AcDbLine
 10
220.993684
 20
155.189464
 11
227.817676
 21
162.013456
  0
LINE
  5
BE
100
AcDbEntity
  8
M0
  6
DASHDOT
370
13
100
AcDbLine
 10
220.993684
 20
103.783624
 11
227.817676
 21
96.959632
  0
LINE
  5
BF
100
AcDbEntity
  8
M0
  6
DASHDOT
370
13
100
AcDbLine
 10
169.587844
 20
103.783624
 11
162.763852
 21
96.959632
  0
LINE
  5
C0
100
AcDbEntity
  8
M0
  6
CONTINUOUS
370
25
100
AcDbLine
 10
60.00877
 20
136.086544
 11
60.00877
 21
121.686544
  0
CIRCLE
  5
C1
100
AcDbEntity
  8
M0
  6
CONTINUOUS
370
25
100
AcDbCircle
 10
195.290764
 20
129.486544
 40
13.0
  0
CIRCLE
  5
C2
100
AcDbEntity
  8
M0
  6
CONTINUOUS
370
25
100
AcDbCircle
 10
195.290764
 20
129.486544
 40
34.5
  0
CIRCLE
  5
C3
100
AcDbEntity
  8
M0
  6
CONTINUOUS
370
25
100
AcDbCircle
 10
195.290764
 20
129.486544
 40
33.5
  0
CIRCLE
  5
C4
100
AcDbEntity
  8
M0
  6
CONTINUOUS
370
25
100
AcDbCircle
 10
195.290764
 20
129.486544
 40
30.5
  0
LINE
  5
C5
100
AcDbEntity
  8
M0
  6
CONTINUOUS
370
25
100
AcDbLine
 10
63.00877
 20
126.486544
 11
91.00877
 21
132.486544
  0
LINE
  5
C6
100
AcDbEntity
  8
M0
  6
CONTINUOUS
370
25
100
AcDbLine
 10
63.00877
 20
132.486544
 11
91.00877
 21
126.486544
  0
TEXT
  5
C7
100
AcDbEntity
  8
DN0
100
AcDbText
 10
246.650484
 20
21.941177
 40
4.5
  1
ＰＭＢ－２０
 41
0.712963
  7
STANDARD
100
AcDbText
  0
ENDSEC
  0
SECTION
  2
OBJECTS
  0
DICTIONARY
  5
C
100
AcDbDictionary
  3
ACAD_GROUP
350
D
  3
ACAD_MLINESTYLE
350
E
  0
DICTIONARY
  5
D
102
{ACAD_REACTORS
330
C
102
}
100
AcDbDictionary
  0
DICTIONARY
  5
E
102
{ACAD_REACTORS
330
C
102
}
100
AcDbDictionary
  3
STANDARD
350
13
  0
MLINESTYLE
  5
13
102
{ACAD_REACTORS
330
E
102
}
100
AcDbMlineStyle
  2
STANDARD
 70
     0
  3

 62
     0
 51
90.0
 52
90.0
 71
     2
 49
0.5
 62
   256
  6
BYLAYER
 49
-0.5
 62
   256
  6
BYLAYER
  0
ENDSEC
  0
EOF
