  0
SECTION
  2
HEADER
  9
$ACADVER
  1
AC1015
  9
$INSBASE
 10
0.000000
 20
0.000000
 30
0.0
  9
$VIEWCTR
 10
7.531722
 20
4.5
  9
$VIEWSIZE
 40
9.0
  9
$SNAPMODE
 70
     0
  9
$SNAPUNIT
 10
1.0
 20
1.0
  9
$SNAPBASE
 10
0.0
 20
0.0
  9
$SNAPANG
 50
0.0
  9
$SNAPSTYLE
 70
     0
  9
$SNAPISOPAIR
 70
     0
  9
$GRIDMODE
 70
     0
  9
$GRIDUNIT
 10
0.0
 20
0.0
  9
$ORTHOMODE
 70
     0
  9
$REGENMODE
 70
     1
  9
$FILLMODE
 70
     1
  9
$QTEXTMODE
 70
     0
  9
$DRAGMODE
 70
     2
  9
$LTSCALE
  40
     1.000000
  9
$OSMODE
 70
     0
  9
$ATTMODE
 70
     1
  9
$TEXTSIZE
 40
0.2
  9
$TRACEWID
 40
0.05
  9
$TEXTSTYLE
  7
STANDARD
  9
$CELTYPE
  6
BYLAYER
  9
$CECOLOR
 62
   256
  9
$DIMSCALE
 40
1.0
  9
$DIMASZ
 40
0.18
  9
$DIMEXO
 40
0.0625
  9
$DIMDLI
 40
0.38
  9
$DIMRND
 40
0.0
  9
$DIMDLE
 40
0.0
  9
$DIMEXE
 40
0.18
  9
$DIMTP
 40
0.0
  9
$DIMTM
 40
0.0
  9
$DIMTXT
 40
0.18
  9
$DIMCEN
 40
0.09
  9
$DIMTSZ
 40
0.0
  9
$DIMADEC
 70
     0
  9
$DIMALTRND
 40
0.000000
  9
$DIMAZIN
 70
     0
  9
$DIMDSEP
 70
    46
  9
$DIMATFIT
 70
     3
  9
$DIMFRAC
 70
     0
  9
$DIMLDRBLK
  1

  9
$DIMLUNIT
 70
     2
  9
$DIMLWD
 70
   13
  9
$DIMLWE
 70
   13
  9
$DIMTMOVE
 70
     0
  9
$CELWEIGHT
370
    25
  9
$LWDISPLAY
290
    1
  9
$EXTNAMES
290
    1
  9
$DIMTOL
 70
     0
  9
$DIMLIM
 70
     0
  9
$DIMTIH
 70
     1
  9
$DIMTOH
 70
     1
  9
$DIMSE1
 70
     0
  9
$DIMSE2
 70
     0
  9
$DIMTAD
 70
     0
  9
$DIMZIN
 70
     0
  9
$DIMBLK
  1

  9
$LUNITS
 70
     2
  9
$LUPREC
 70
     4
  9
$AXISMODE
 70
     0
  9
$AXISUNIT
 10
0.0
 20
0.0
  9
$SKETCHINC
 40
0.1
  9
$FILLETRAD
 40
0.0
  9
$AUNITS
 70
     0
  9
$AUPREC
 70
     0
  9
$MENU
  1
ACAD
  9
$ELEVATION
 40
0.0
  9
$THICKNESS
 40
0.0
  9
$VIEWDIR
 10
0.0
 20
0.0
 30
1.0
  9
$LIMCHECK
 70
     0
  9
$BLIPMODE
 70
     1
  9
$CHAMFERA
 40
0.0
  9
$CHAMFERB
 40
0.0
  9
$FASTZOOM
 70
     1
  9
$SKPOLY
 70
     0
  9
$TDCREATE
 40
0000000.0000000000
  9
$TDUPDATE
 40
0000000.0000000000
  9
$TDINDWG
 40
0.0000000000
  9
$TDUSRTIMER
 40
0.0000000000
  9
$USRTIMER
 70
     1
  9
$ANGBASE
 50
0.0
  9
$ANGDIR
 70
     0
  9
$PDMODE
 70
     0
  9
$PDSIZE
 40
0.0
  9
$PLINEWID
 40
0.0
  9
$COORDS
 70
     0
  9
$USERI1
 70
     0
  9
$USERI2
 70
     0
  9
$USERI3
 70
     0
  9
$USERI4
 70
     0
  9
$USERI5
 70
     0
  9
$USERR1
 40
0.0
  9
$USERR2
 40
0.0
  9
$USERR3
 40
0.0
  9
$USERR4
 40
0.0
  9
$USERR5
 40
0.0
  9
$CLAYER
  8
M0
  9
$EXTMIN
 10
0.0
 20
0.0
  9
$EXTMAX
 10
420.0
 20
297.0
  9
$LIMMIN
 10
0.0
 20
0.0
  9
$LIMMAX
 10
420.0
 20
297.0
  9
$HANDSEED
  5
D1
  0
ENDSEC
  0
SECTION
  2
CLASSES
  0
CLASS
  1
DIMASSOC
  2
AcDbDimAssoc
  3
"AcDbDimAssoc|Product Desc:     AcDim ARX App For Dimension|Company:          Autodesk, Inc.|WEB Address:      www.autodesk.com"
 90
        0
280
     0
281
     0
  0
ENDSEC
  0
SECTION
  2
TABLES
  0
TABLE
  2
VPORT
  5
8
100
AcDbSymbolTable
 70
     2
  0
VPORT
  5
14
100
AcDbSymbolTableRecord
100
AcDbViewportTableRecord
  2
*ACTIVE
 70
     0
 10
0.0
 20
0.0
 11
1.0
 21
1.0
 12
484.0
 22
297.0
 13
0.0
 23
0.0
 14
1.0
 24
1.0
 15
0.0
 25
0.0
 16
0.0
 26
0.0
 36
1.0
 17
0.0
 27
0.0
 37
0.0
 40
594.0
 41
2.0
 42
50.0
 43
0.0
 44
0.0
 50
0.0
 51
0.0
 71
     0
 72
   100
 73
     1
 74
     1
 75
     0
 76
     0
 77
     0
 78
     0
  0
ENDTAB
  0
TABLE
  2
LTYPE
  5
5
100
AcDbSymbolTable
 70
     5
  0
LTYPE
  5
15
100
AcDbSymbolTableRecord
100
AcDbLinetypeTableRecord
  2
BYBLOCK
 70
     0
  3

 72
    65
 73
     0
 40
0.0
  0
LTYPE
  5
16
100
AcDbSymbolTableRecord
100
AcDbLinetypeTableRecord
  2
BYLAYER
 70
     0
  3

 72
    65
 73
     0
 40
0.0
  0
LTYPE
  5
17
100
AcDbSymbolTableRecord
100
AcDbLinetypeTableRecord
  2
CONTINUOUS
 70
    64
  3
Solid line
 72
    65
 73
     0
 40
0.0
  0
LTYPE
  5
18
100
AcDbSymbolTableRecord
100
AcDbLinetypeTableRecord
  2
DASHED
 70
    64
  3
__ __ __ __ __ __ __ __ __ __ __ __ __ __ __ __
 72
    65
 73
     2
 40
0.75
 49
0.5
 74
     0
 49
-0.25
 74
     0
  0
LTYPE
  5
19
100
AcDbSymbolTableRecord
100
AcDbLinetypeTableRecord
  2
DASHDOT
 70
    64
  3
__ . __ . __ . __ . __ . __ . __ . __ . __ . __
 72
    65
 73
     4
 40
1.0
 49
0.5
 74
     0
 49
-0.25
 74
     0
 49
0.0
 74
     0
 49
-0.25
 74
     0
  0
LTYPE
  5
1A
100
AcDbSymbolTableRecord
100
AcDbLinetypeTableRecord
  2
DIVIDE
 70
    64
  3
____ . . ____ . . ____ . . ____ . . ____ . . __
 72
    65
 73
     6
 40
1.25
 49
0.5
 74
     0
 49
-0.25
 74
     0
 49
0.0
 74
     0
 49
-0.25
 74
     0
 49
0.0
 74
     0
 49
-0.25
 74
     0
  0
LTYPE
  5
1B
100
AcDbSymbolTableRecord
100
AcDbLinetypeTableRecord
  2
DOT
 70
    64
  3
. . . . . . . . . . . . . . . . . . . . . . . .
 72
    65
 73
     2
 40
0.25
 49
0.0
 74
     0
 49
-0.25
 74
     0
  0
ENDTAB
  0
TABLE
  2
LAYER
  5
2
100
AcDbSymbolTable
 70
   102
  0
LAYER
  5
F
100
AcDbSymbolTableRecord
100
AcDbLayerTableRecord
  2
0
 70
     0
 62
     7
  6
CONTINUOUS
370
     -3
390
F
  0
LAYER
  5
1C
100
AcDbSymbolTableRecord
100
AcDbLayerTableRecord
  2
M0
 70
     0
 62
     7
  6
CONTINUOUS
370
     -3
390
F
  0
LAYER
  5
1D
100
AcDbSymbolTableRecord
100
AcDbLayerTableRecord
  2
M3
 70
     0
 62
     2
  6
CONTINUOUS
370
     -3
390
F
  0
ENDTAB
  0
TABLE
  2
STYLE
  5
3
100
AcDbSymbolTable
 70
     2
  0
STYLE
  5
10
100
AcDbSymbolTableRecord
100
AcDbTextStyleTableRecord
  2
STANDARD
 70
     0
 40
0.0
 41
1.0
 50
0.0
 71
     0
 42
0.2
  3
txt
  4
BIGFONT
  0
ENDTAB
  0
TABLE
  2
VIEW
  5
6
100
AcDbSymbolTable
 70
     0
  0
ENDTAB
  0
TABLE
  2
UCS
  5
7
100
AcDbSymbolTable
 70
     0
  0
ENDTAB
  0
TABLE
  2
APPID
  5
9
100
AcDbSymbolTable
 70
     1
  0
APPID
  5
11
100
AcDbSymbolTableRecord
100
AcDbRegAppTableRecord
  2
ACAD
 70
     0
  0
ENDTAB
  0
TABLE
  2
DIMSTYLE
  5
A
100
AcDbSymbolTable
 70
     2
100
AcDbDimStyleTable
 71
     1
  0
DIMSTYLE
105
46
100
AcDbSymbolTableRecord
100
AcDbDimStyleTableRecord
  2
STANDARD
 70
     0
  3

  4

  5

  6
_OPEN
  7
_OPEN
 40
1.0
 41
3.0
 42
0.5
 43
8.0
 44
1.5
 45
0.0
 46
0.0
 47
0.0
 48
0.0
140
3.15
141
0.09
142
0.0
143
0.03937
144
1.0
145
0.0
146
1.0
147
1.0
148
0.000000
 71
     0
 72
     0
 73
     1
 74
     1
 75
     0
 76
     0
 77
     3
 78
     8
170
     0
171
     2
172
     0
173
     1
174
     0
175
     0
176
     0
177
     0
178
     0
270
     2
271
     2
272
     4
273
     2
274
     2
340
10
275
     0
278
    46
280
     0
281
     0
282
     0
283
     1
284
     0
285
     0
286
     0
287
     3
288
     0
371
   13
372
   13
  0
DIMSTYLE
105
47
100
AcDbSymbolTableRecord
100
AcDbDimStyleTableRecord
  2
LEADSTYL
 70
     0
  3

  4

  5

  6
_OPEN
  7
_OPEN
 40
1.0
 41
3.0
 42
0.0625
 43
0.38
 44
0.18
 45
0.0
 46
0.0
 47
0.0
 48
0.0
140
3.15
141
0.09
142
0.0
143
25.4
144
1.0
145
0.0
146
1.0
147
1.0
 71
     0
 72
     0
 73
     1
 74
     1
 75
     0
 76
     0
 77
     0
 78
     0
170
     0
171
     2
172
     0
173
     1
174
     0
175
     0
176
     0
177
     0
178
     0
270
     2
271
     4
272
     4
273
     2
274
     2
340
10
275
     0
280
     0
281
     0
282
     0
283
     1
284
     0
285
     0
286
     0
287
     3
288
     0
  0
ENDTAB
  0
TABLE
  2
BLOCK_RECORD
  5
1
100
AcDbSymbolTable
 70
     6
  0
BLOCK_RECORD
  5
1E
100
AcDbSymbolTableRecord
100
AcDbBlockTableRecord
  2
*MODEL_SPACE
  0
BLOCK_RECORD
  5
21
100
AcDbSymbolTableRecord
100
AcDbBlockTableRecord
  2
*PAPER_SPACE
  0
BLOCK_RECORD
  5
24
100
AcDbSymbolTableRecord
100
AcDbBlockTableRecord
  2
_NONE
  0
BLOCK_RECORD
  5
28
100
AcDbSymbolTableRecord
100
AcDbBlockTableRecord
  2
_OPEN
  0
BLOCK_RECORD
  5
2E
100
AcDbSymbolTableRecord
100
AcDbBlockTableRecord
  2
_CLOSED
  0
BLOCK_RECORD
  5
35
100
AcDbSymbolTableRecord
100
AcDbBlockTableRecord
  2
_ORIGIN
  0
BLOCK_RECORD
  5
3A
100
AcDbSymbolTableRecord
100
AcDbBlockTableRecord
  2
_DOT
  0
BLOCK_RECORD
  5
42
100
AcDbSymbolTableRecord
100
AcDbBlockTableRecord
  2
_OBLIQUE
  0
ENDTAB
  0
ENDSEC
  0
SECTION
  2
BLOCKS
  0
BLOCK
  5
1F
100
AcDbEntity
  8
0
100
AcDbBlockBegin
  2
*MODEL_SPACE
 70
     0
 10
0.0
 20
0.0
 30
0.0
  3
*MODEL_SPACE
  1

  0
ENDBLK
  5
20
100
AcDbEntity
  8
0
100
AcDbBlockEnd
  0
BLOCK
  5
22
100
AcDbEntity
 67
     1
  8
0
100
AcDbBlockBegin
  2
*PAPER_SPACE
 70
     0
 10
0.0
 20
0.0
 30
0.0
  3
*PAPER_SPACE
  1

  0
ENDBLK
  5
23
100
AcDbEntity
 67
     1
  8
0
100
AcDbBlockEnd
  0
BLOCK
  5
25
100
AcDbEntity
  8
0
100
AcDbBlockBegin
  2
_NONE
 70
     0
 10
0.0
 20
0.0
  0
CIRCLE
  5
26
100
AcDbEntity
  8
0
 62
     0
370
13
100
AcDbCircle
 10
0.0
 20
0.0
 40
0.25
  0
ENDBLK
  5
27
100
AcDbEntity
  8
0
100
AcDbBlockEnd
  0
BLOCK
  5
29
100
AcDbEntity
  8
0
100
AcDbBlockBegin
  2
_OPEN
 70
     0
 10
0.0
 20
0.0
  0
LINE
  5
2A
100
AcDbEntity
  8
0
 62
     0
370
13
100
AcDbLine
 10
-0.965926
 20
0.258819
 11
0.0
 21
0.0
  0
LINE
  5
2B
100
AcDbEntity
  8
0
 62
     0
370
13
100
AcDbLine
 10
0.0
 20
0.0
 11
-0.965926
 21
-0.258819
  0
LINE
  5
2C
100
AcDbEntity
  8
0
 62
     0
370
13
100
AcDbLine
 10
0.0
 20
0.0
 11
-1.0
 21
0.0
  0
ENDBLK
  5
2D
100
AcDbEntity
  8
0
100
AcDbBlockEnd
  0
BLOCK
  5
2F
100
AcDbEntity
  8
0
100
AcDbBlockBegin
  2
_CLOSED
 70
     0
 10
0.0
 20
0.0
  0
LINE
  5
30
100
AcDbEntity
  8
0
 62
     0
370
13
100
AcDbLine
 10
-0.965926
 20
0.258819
 11
0.0
 21
0.0
  0
LINE
  5
31
100
AcDbEntity
  8
0
 62
     0
370
13
100
AcDbLine
 10
0.0
 20
0.0
 11
-0.965926
 21
-0.258819
  0
LINE
  5
32
100
AcDbEntity
  8
0
 62
     0
370
13
100
AcDbLine
 10
-0.965926
 20
0.258819
 11
-0.965926
 21
-0.258819
  0
LINE
  5
33
100
AcDbEntity
  8
0
 62
     0
370
13
100
AcDbLine
 10
0.0
 20
0.0
 11
-1.0
 21
0.0
  0
ENDBLK
  5
34
100
AcDbEntity
  8
0
100
AcDbBlockEnd
  0
BLOCK
  5
36
100
AcDbEntity
  8
0
100
AcDbBlockBegin
  2
_ORIGIN
 70
     0
 10
0.0
 20
0.0
  0
CIRCLE
  5
37
100
AcDbEntity
  8
0
 62
     0
370
13
100
AcDbCircle
 10
0.0
 20
0.0
 40
0.5
  0
LINE
  5
38
100
AcDbEntity
  8
0
 62
     0
370
13
100
AcDbLine
 10
0.0
 20
0.0
 11
-1.0
 21
0.0
  0
ENDBLK
  5
39
100
AcDbEntity
  8
0
100
AcDbBlockEnd
  0
BLOCK
  5
3B
100
AcDbEntity
  8
0
100
AcDbBlockBegin
  2
_DOT
 70
     0
 10
0.0
 20
0.0
  0
POLYLINE
  5
3C
100
AcDbEntity
  8
0
 62
     0
100
AcDb2dPolyline
 66
     1
 70
     1
 40
0.5
 41
0.5
  0
VERTEX
  5
3D
100
AcDbEntity
  8
0
 62
     0
100
AcDbVertex
100
AcDb2dVertex
 10
-0.25
 20
0.0
 42
1.0
  0
VERTEX
  5
3E
100
AcDbEntity
  8
0
 62
     0
100
AcDbVertex
100
AcDb2dVertex
 10
0.25
 20
0.0
 42
1.0
  0
SEQEND
  5
3F
100
AcDbEntity
  8
0
 62
     0
  0
LINE
  5
40
100
AcDbEntity
  8
0
 62
     0
370
13
100
AcDbLine
 10
-0.5
 20
0.0
 11
-1.0
 21
0.0
  0
ENDBLK
  5
41
100
AcDbEntity
  8
0
100
AcDbBlockEnd
  0
BLOCK
  5
43
100
AcDbEntity
  8
0
100
AcDbBlockBegin
  2
_OBLIQUE
 70
     0
 10
0.0
 20
0.0
  0
LINE
  5
44
100
AcDbEntity
  8
0
 62
     0
370
13
100
AcDbLine
 10
-0.353553
 20
-0.353553
 11
0.353553
 21
0.353553
  0
ENDBLK
  5
45
100
AcDbEntity
  8
0
100
AcDbBlockEnd
  0
ENDSEC
  0
SECTION
  2
ENTITIES
  0
CIRCLE
  5
48
100
AcDbEntity
  8
M0
  6
CONTINUOUS
370
25
 62
     3
100
AcDbCircle
 10
150.082319
 20
122.310418
 40
32.5
  0
CIRCLE
  5
49
100
AcDbEntity
  8
M0
  6
CONTINUOUS
370
25
 62
     3
100
AcDbCircle
 10
169.881309
 20
102.511428
 40
2.25
  0
CIRCLE
  5
4A
100
AcDbEntity
  8
M0
  6
CONTINUOUS
370
25
 62
     3
100
AcDbCircle
 10
130.283329
 20
142.109407
 40
2.25
  0
CIRCLE
  5
4B
100
AcDbEntity
  8
M0
  6
CONTINUOUS
370
25
 62
     3
100
AcDbCircle
 10
169.881309
 20
142.109407
 40
2.25
  0
CIRCLE
  5
4C
100
AcDbEntity
  8
M0
  6
CONTINUOUS
370
25
 62
     3
100
AcDbCircle
 10
130.283329
 20
102.511428
 40
2.25
  0
LINE
  5
4D
100
AcDbEntity
  8
M0
  6
CONTINUOUS
370
25
 62
     3
100
AcDbLine
 10
149.10832
 20
176.194592
 11
149.10832
 21
170.994592
  0
LINE
  5
4E
100
AcDbEntity
  8
M0
  6
CONTINUOUS
370
25
 62
     3
100
AcDbLine
 10
150.082344
 20
166.823293
 11
150.082344
 21
170.994592
  0
LINE
  5
4F
100
AcDbEntity
  8
M0
  6
CONTINUOUS
370
25
 62
     3
100
AcDbLine
 10
149.88832
 20
176.194592
 11
149.88832
 21
170.994592
  0
LINE
  5
50
100
AcDbEntity
  8
M0
  6
CONTINUOUS
370
25
 62
     3
100
AcDbLine
 10
148.562341
 20
165.805613
 11
148.562327
 21
170.994592
  0
LINE
  5
51
100
AcDbEntity
  8
M0
  6
CONTINUOUS
370
25
 62
     3
100
AcDbLine
 10
149.88832
 20
176.194592
 11
148.84832
 21
176.194592
  0
CIRCLE
  5
52
100
AcDbEntity
  8
M0
  6
CONTINUOUS
370
25
 60
     1
 62
     3
100
AcDbCircle
 10
203.087356
 20
133.624124
 40
19.5
  0
LINE
  5
53
100
AcDbEntity
  8
M0
  6
CONTINUOUS
370
25
 62
     3
100
AcDbLine
 10
150.536318
 20
170.994592
 11
150.536318
 21
176.194592
  0
LINE
  5
54
100
AcDbEntity
  8
M0
  6
CONTINUOUS
370
25
 62
     3
100
AcDbLine
 10
150.276318
 20
176.194592
 11
151.316318
 21
176.194592
  0
LINE
  5
55
100
AcDbEntity
  8
M0
  6
CONTINUOUS
370
25
 62
     3
100
AcDbLine
 10
150.276318
 20
176.194592
 11
150.276318
 21
170.994592
  0
LINE
  5
56
100
AcDbEntity
  8
M0
  6
CONTINUOUS
370
25
 62
     3
100
AcDbLine
 10
150.796318
 20
176.194592
 11
150.796318
 21
170.994592
  0
LINE
  5
57
100
AcDbEntity
  8
M0
  6
CONTINUOUS
370
25
 62
     3
100
AcDbLine
 10
151.316318
 20
176.194592
 11
151.316318
 21
170.994592
  0
SPLINE
  5
58
100
AcDbEntity
  8
M0
  6
CONTINUOUS
370
25
 62
     3
100
AcDbSpline
210
0.0
220
0.0
230
-1.0
 70
     8
 71
     3
 72
    14
 73
    10
 43
0.0000001
 40
0.0
 40
0.0
 40
0.0
 40
0.0
 40
1.0
 40
1.0
 40
1.0
 40
2.0
 40
2.0
 40
2.0
 40
3.0
 40
3.0
 40
3.0
 40
3.0
 10
148.562341
 20
165.796913
 10
148.565212
 20
165.797512
 10
148.568079
 20
165.79813
 10
148.57094
 20
165.798767
 10
149.115941
 20
165.920144
 10
149.474073
 20
166.734939
 10
150.088629
 20
166.824233
 10
150.50119
 20
166.884177
 10
151.029293
 20
166.617501
 10
151.602299
 20
166.223835
  0
SPLINE
  5
59
100
AcDbEntity
  8
M0
  6
CONTINUOUS
370
25
 62
     3
100
AcDbSpline
210
0.0
220
0.0
230
-1.0
 70
     8
 71
     3
 72
    14
 73
    10
 43
0.0000001
 40
0.0
 40
0.0
 40
0.0
 40
0.0
 40
1.0
 40
1.0
 40
1.0
 40
2.0
 40
2.0
 40
2.0
 40
3.0
 40
3.0
 40
3.0
 40
3.0
 10
148.562339
 20
164.499311
 10
148.565211
 20
164.49991
 10
148.568078
 20
164.500529
 10
148.57094
 20
164.501166
 10
149.115941
 20
164.622542
 10
149.474073
 20
165.437337
 10
150.088629
 20
165.526631
 10
150.501189
 20
165.586576
 10
151.029293
 20
165.319899
 10
151.602299
 20
164.926234
  0
LINE
  5
5A
100
AcDbEntity
  8
M0
  6
CONTINUOUS
370
25
 62
     3
100
AcDbLine
 10
150.082319
 20
154.810418
 11
150.082319
 21
165.525688
  0
LINE
  5
5B
100
AcDbEntity
  8
M0
  6
CONTINUOUS
370
25
 62
     3
100
AcDbLine
 10
151.602307
 20
154.774854
 11
151.602299
 21
164.926234
  0
LINE
  5
5C
100
AcDbEntity
  8
M0
  6
CONTINUOUS
370
25
 62
     3
100
AcDbLine
 10
148.562332
 20
154.774854
 11
148.562339
 21
164.499311
  0
LINE
  5
5D
100
AcDbEntity
  8
M0
  6
DASHDOT
370
13
 62
     3
100
AcDbLine
 10
132.954608
 20
139.438129
 11
127.977941
 21
144.414796
  0
LINE
  5
5E
100
AcDbEntity
  8
M0
  6
CONTINUOUS
370
25
 62
     3
100
AcDbLine
 10
150.082295
 20
166.823285
 11
150.082294
 21
170.994592
  0
LINE
  5
5F
100
AcDbEntity
  8
M0
  6
CONTINUOUS
370
25
 62
     3
100
AcDbLine
 10
150.082344
 20
170.994592
 11
148.562317
 21
170.994592
  0
LINE
  5
60
100
AcDbEntity
  8
M0
  6
CONTINUOUS
370
25
 62
     3
100
AcDbLine
 10
149.36832
 20
176.194592
 11
149.36832
 21
170.994592
  0
LINE
  5
61
100
AcDbEntity
  8
M0
  6
CONTINUOUS
370
25
 62
     3
100
AcDbLine
 10
151.602299
 20
166.223835
 11
151.602312
 21
170.994592
  0
LINE
  5
62
100
AcDbEntity
  8
M0
  6
CONTINUOUS
370
25
 62
     3
100
AcDbLine
 10
151.056318
 20
176.194592
 11
151.056318
 21
170.994592
  0
LINE
  5
63
100
AcDbEntity
  8
M0
  6
CONTINUOUS
370
25
 62
     3
100
AcDbLine
 10
150.082294
 20
170.994592
 11
151.602321
 21
170.994592
  0
LINE
  5
64
100
AcDbEntity
  8
M0
  6
CONTINUOUS
370
25
 62
     3
100
AcDbLine
 10
149.62832
 20
170.994592
 11
149.62832
 21
176.194592
  0
CIRCLE
  5
65
100
AcDbEntity
  8
M0
  6
CONTINUOUS
370
25
 60
     1
 62
     3
100
AcDbCircle
 10
203.087356
 20
133.624124
 40
20.0
  0
LINE
  5
66
100
AcDbEntity
  8
M0
  6
CONTINUOUS
370
25
 62
     3
100
AcDbLine
 10
148.84832
 20
176.194592
 11
148.84832
 21
170.994592
  0
LINE
  5
67
100
AcDbEntity
  8
M0
  6
DASHDOT
370
13
 62
     3
100
AcDbLine
 10
110.195716
 20
122.310418
 11
189.087356
 21
122.310418
  0
LINE
  5
68
100
AcDbEntity
  8
M0
  6
DASHDOT
370
13
 62
     3
100
AcDbLine
 10
150.082319
 20
82.73368
 11
150.082319
 21
178.848143
  0
LINE
  5
69
100
AcDbEntity
  8
M0
  6
DASHDOT
370
13
 62
     3
100
AcDbLine
 10
167.394325
 20
139.622424
 11
172.122159
 21
144.350257
  0
LINE
  5
6A
100
AcDbEntity
  8
M0
  6
DASHDOT
370
13
 62
     3
100
AcDbLine
 10
167.639071
 20
104.753666
 11
172.331357
 21
100.06138
  0
LINE
  5
6B
100
AcDbEntity
  8
M0
  6
DASHDOT
370
13
 62
     3
100
AcDbLine
 10
132.74541
 20
104.973508
 11
127.875386
 21
100.103484
  0
CIRCLE
  5
6C
100
AcDbEntity
  8
M0
  6
DASHDOT
370
13
 62
     3
100
AcDbCircle
 10
150.082319
 20
122.310418
 40
28.0
  0
CIRCLE
  5
6D
100
AcDbEntity
  8
M0
  6
CONTINUOUS
370
25
 62
     3
100
AcDbCircle
 10
150.082319
 20
122.310418
 40
6.5
  0
CIRCLE
  5
6E
100
AcDbEntity
  8
M0
  6
CONTINUOUS
370
25
 62
     3
100
AcDbCircle
 10
150.082319
 20
122.310418
 40
13.5
  0
CIRCLE
  5
6F
100
AcDbEntity
  8
M0
  6
CONTINUOUS
370
25
 62
     3
100
AcDbCircle
 10
150.082319
 20
122.310418
 40
14.0
  0
CIRCLE
  5
70
100
AcDbEntity
  8
M0
  6
CONTINUOUS
370
25
 62
     3
100
AcDbCircle
 10
150.082319
 20
122.310418
 40
21.5
  0
CIRCLE
  5
71
100
AcDbEntity
  8
M0
  6
CONTINUOUS
370
25
 62
     3
100
AcDbCircle
 10
150.082319
 20
122.310418
 40
21.0
  0
CIRCLE
  5
72
100
AcDbEntity
  8
M0
  6
CONTINUOUS
370
25
 62
     3
100
AcDbCircle
 10
150.082319
 20
122.310418
 40
20.0
  0
LINE
  5
73
100
AcDbEntity
  8
M0
  6
CONTINUOUS
370
25
 62
     3
100
AcDbLine
 10
84.526173
 20
120.650418
 11
103.526173
 21
123.970418
  0
LINE
  5
74
100
AcDbEntity
  8
M0
  6
CONTINUOUS
370
25
 62
     3
100
AcDbLine
 10
84.526173
 20
123.970418
 11
103.526173
 21
120.650418
  0
LINE
  5
75
100
AcDbEntity
  8
M0
  6
CONTINUOUS
370
25
 62
     3
100
AcDbLine
 10
151.740632
 20
124.810418
 11
148.424007
 21
124.810418
  0
LINE
  5
76
100
AcDbEntity
  8
M0
  6
CONTINUOUS
370
25
 62
     3
100
AcDbLine
 10
147.582319
 20
120.652105
 11
147.582319
 21
123.96873
  0
CIRCLE
  5
77
100
AcDbEntity
  8
M0
  6
CONTINUOUS
370
25
 62
     3
100
AcDbCircle
 10
150.082319
 20
122.310418
 40
3.0
  0
LINE
  5
78
100
AcDbEntity
  8
M0
  6
CONTINUOUS
370
25
 62
     3
100
AcDbLine
 10
76.026173
 20
89.810418
 11
76.026173
 21
122.310418
  0
LINE
  5
79
100
AcDbEntity
  8
M0
  6
CONTINUOUS
370
25
 62
     3
100
AcDbLine
 10
79.026173
 20
89.810418
 11
79.026173
 21
122.310418
  0
LINE
  5
7A
100
AcDbEntity
  8
M0
  6
CONTINUOUS
370
25
 62
     3
100
AcDbLine
 10
79.026173
 20
89.810418
 11
76.026173
 21
89.810418
  0
LINE
  5
7B
100
AcDbEntity
  8
M0
  6
CONTINUOUS
370
25
 62
     3
100
AcDbLine
 10
103.526173
 20
119.310418
 11
104.526173
 21
120.310418
  0
LINE
  5
7C
100
AcDbEntity
  8
M0
  6
CONTINUOUS
370
25
 62
     3
100
AcDbLine
 10
48.526173
 20
119.610418
 11
48.526173
 21
125.010418
  0
LINE
  5
7D
100
AcDbEntity
  8
M0
  6
CONTINUOUS
370
25
 62
     3
100
AcDbLine
 10
84.526173
 20
124.810418
 11
84.526173
 21
125.310418
  0
LINE
  5
7E
100
AcDbEntity
  8
M0
  6
CONTINUOUS
370
25
 62
     3
100
AcDbLine
 10
48.826173
 20
119.310418
 11
50.676173
 21
119.310418
  0
LINE
  5
7F
100
AcDbEntity
  8
M0
  6
CONTINUOUS
370
25
 62
     3
100
AcDbLine
 10
82.226173
 20
125.310418
 11
82.226173
 21
122.310418
  0
LINE
  5
80
100
AcDbEntity
  8
M0
  6
CONTINUOUS
370
25
 62
     3
100
AcDbLine
 10
103.526173
 20
123.970418
 11
84.526173
 21
123.970418
  0
LINE
  5
81
100
AcDbEntity
  8
M0
  6
CONTINUOUS
370
25
 62
     3
100
AcDbLine
 10
84.526173
 20
120.650418
 11
84.526173
 21
123.970418
  0
LINE
  5
82
100
AcDbEntity
  8
M0
  6
CONTINUOUS
370
25
 62
     3
100
AcDbLine
 10
104.526173
 20
124.810418
 11
84.526173
 21
124.810418
  0
LINE
  5
83
100
AcDbEntity
  8
M0
  6
CONTINUOUS
370
25
 62
     3
100
AcDbLine
 10
103.526173
 20
120.650418
 11
84.526173
 21
120.650418
  0
LINE
  5
84
100
AcDbEntity
  8
M0
  6
CONTINUOUS
370
25
 62
     3
100
AcDbLine
 10
48.826173
 20
125.310418
 11
50.676173
 21
125.310418
  0
LINE
  5
85
100
AcDbEntity
  8
M0
  6
CONTINUOUS
370
25
 62
     3
100
AcDbLine
 10
103.526173
 20
124.810418
 11
103.526173
 21
122.310418
  0
LINE
  5
86
100
AcDbEntity
  8
M0
  6
CONTINUOUS
370
25
 62
     3
100
AcDbLine
 10
48.526173
 20
125.010418
 11
48.826173
 21
125.310418
  0
LINE
  5
87
100
AcDbEntity
  8
M0
  6
CONTINUOUS
370
25
 62
     3
100
AcDbLine
 10
82.226173
 20
119.310418
 11
103.526173
 21
119.310418
  0
LINE
  5
88
100
AcDbEntity
  8
M0
  6
CONTINUOUS
370
25
 62
     3
100
AcDbLine
 10
51.526173
 20
145.310418
 11
51.526173
 21
99.310418
  0
LINE
  5
89
100
AcDbEntity
  8
M0
  6
CONTINUOUS
370
25
 62
     3
100
AcDbLine
 10
51.376173
 20
119.310418
 11
51.526173
 21
119.310418
  0
LINE
  5
8A
100
AcDbEntity
  8
M0
  6
CONTINUOUS
370
25
 62
     3
100
AcDbLine
 10
51.376173
 20
125.310418
 11
51.526173
 21
125.310418
  0
LINE
  5
8B
100
AcDbEntity
  8
M0
  6
CONTINUOUS
370
25
 62
     3
100
AcDbLine
 10
48.826173
 20
119.310418
 11
48.526173
 21
119.610418
  0
LINE
  5
8C
100
AcDbEntity
  8
M0
  6
CONTINUOUS
370
25
 62
     3
100
AcDbLine
 10
103.526173
 20
119.310418
 11
103.526173
 21
122.310418
  0
LINE
  5
8D
100
AcDbEntity
  8
M0
  6
CONTINUOUS
370
25
 62
     3
100
AcDbLine
 10
82.226173
 20
125.310418
 11
84.526173
 21
125.310418
  0
LINE
  5
8E
100
AcDbEntity
  8
M0
  6
DASHDOT
370
13
 62
     3
100
AcDbLine
 10
58.526173
 20
145.310418
 11
58.526173
 21
177.740037
  0
LINE
  5
8F
100
AcDbEntity
  8
M0
  6
CONTINUOUS
370
25
 62
     3
100
AcDbLine
 10
58.052174
 20
176.195183
 11
58.052174
 21
170.995183
  0
SPLINE
  5
90
100
AcDbEntity
  8
M0
  6
CONTINUOUS
370
13
 62
     3
100
AcDbSpline
210
0.0
220
0.0
230
-1.0
 70
     8
 71
     3
 72
    14
 73
    10
 43
0.0000001
 40
0.0
 40
0.0
 40
0.0
 40
0.0
 40
1.0
 40
1.0
 40
1.0
 40
2.0
 40
2.0
 40
2.0
 40
3.0
 40
3.0
 40
3.0
 40
3.0
 10
59.286198
 20
166.703933
 10
59.138405
 20
166.827001
 10
58.99061
 20
166.879468
 10
58.842819
 20
166.811571
 10
58.485843
 20
166.647572
 10
58.128845
 20
165.78132
 10
57.787646
 20
165.803644
 10
57.780482
 20
165.804113
 10
57.773325
 20
165.804972
 10
57.766174
 20
165.806207
  0
LINE
  5
91
100
AcDbEntity
  8
M0
  6
DASHDOT
370
13
 62
     3
100
AcDbLine
 10
73.469085
 20
149.810418
 11
81.074144
 21
149.810418
  0
LINE
  5
92
100
AcDbEntity
  8
M0
  6
CONTINUOUS
370
25
 62
     3
100
AcDbLine
 10
76.026173
 20
154.810418
 11
76.026173
 21
122.310418
  0
LINE
  5
93
100
AcDbEntity
  8
M0
  6
CONTINUOUS
370
25
 62
     3
100
AcDbLine
 10
58.832174
 20
170.995183
 11
58.832174
 21
176.195183
  0
SPLINE
  5
94
100
AcDbEntity
  8
M0
  6
CONTINUOUS
370
13
 62
     3
100
AcDbSpline
210
0.0
220
0.0
230
-1.0
 70
     8
 71
     3
 72
    14
 73
    10
 43
0.0000001
 40
0.0
 40
0.0
 40
0.0
 40
0.0
 40
1.0
 40
1.0
 40
1.0
 40
2.0
 40
2.0
 40
2.0
 40
3.0
 40
3.0
 40
3.0
 40
3.0
 10
59.286198
 20
165.824554
 10
59.138405
 20
165.947622
 10
58.99061
 20
166.000089
 10
58.842819
 20
165.932192
 10
58.485843
 20
165.768193
 10
58.128845
 20
164.901941
 10
57.787646
 20
164.924265
 10
57.780481
 20
164.924734
 10
57.773324
 20
164.925593
 10
57.766173
 20
164.926828
  0
LINE
  5
95
100
AcDbEntity
  8
M0
  6
CONTINUOUS
370
25
 62
     3
100
AcDbLine
 10
59.286198
 20
170.995183
 11
57.766171
 21
170.995183
  0
LINE
  5
96
100
AcDbEntity
  8
M0
  6
CONTINUOUS
370
25
 62
     3
100
AcDbLine
 10
58.572174
 20
176.195183
 11
58.572174
 21
170.995183
  0
LINE
  5
97
100
AcDbEntity
  8
M0
  6
CONTINUOUS
370
25
 62
     3
100
AcDbLine
 10
59.092174
 20
176.195183
 11
59.092174
 21
170.995183
  0
LINE
  5
98
100
AcDbEntity
  8
M0
  6
CONTINUOUS
370
25
 62
     3
100
AcDbLine
 10
57.766194
 20
165.806204
 11
57.76618
 21
170.995183
  0
LINE
  5
99
100
AcDbEntity
  8
M0
  6
CONTINUOUS
370
25
 62
     3
100
AcDbLine
 10
59.092174
 20
176.195183
 11
58.052174
 21
176.195183
  0
LINE
  5
9A
100
AcDbEntity
  8
M0
  6
CONTINUOUS
370
25
 62
     3
100
AcDbLine
 10
82.226173
 20
119.310418
 11
82.226173
 21
122.310418
  0
LINE
  5
9B
100
AcDbEntity
  8
M0
  6
CONTINUOUS
370
25
 62
     3
100
AcDbLine
 10
58.312174
 20
176.195183
 11
58.312174
 21
170.995183
  0
LINE
  5
9C
100
AcDbEntity
  8
M0
  6
DASHED
370
25
 62
     3
100
AcDbLine
 10
76.026173
 20
152.060418
 11
79.026173
 21
152.060418
  0
LINE
  5
9D
100
AcDbEntity
  8
M0
  6
DASHED
370
25
 62
     3
100
AcDbLine
 10
76.026173
 20
147.560418
 11
79.026173
 21
147.560418
  0
LINE
  5
9E
100
AcDbEntity
  8
M0
  6
CONTINUOUS
370
25
 62
     3
100
AcDbLine
 10
57.766178
 20
145.310418
 11
57.766193
 21
164.926825
  0
LINE
  5
9F
100
AcDbEntity
  8
M0
  6
CONTINUOUS
370
25
 62
     3
100
AcDbLine
 10
79.026173
 20
154.810418
 11
76.026173
 21
154.810418
  0
LINE
  5
A0
100
AcDbEntity
  8
M0
  6
CONTINUOUS
370
25
 62
     3
100
AcDbLine
 10
59.286198
 20
166.703933
 11
59.286198
 21
170.995183
  0
LINE
  5
A1
100
AcDbEntity
  8
M0
  6
CONTINUOUS
370
25
 62
     3
100
AcDbLine
 10
79.026173
 20
154.810418
 11
79.026173
 21
122.310418
  0
LINE
  5
A2
100
AcDbEntity
  8
M0
  6
CONTINUOUS
370
25
 62
     3
100
AcDbLine
 10
59.286173
 20
145.310418
 11
59.286173
 21
165.824574
  0
LINE
  5
A3
100
AcDbEntity
  8
M0
  6
CONTINUOUS
370
25
 62
     3
100
AcDbLine
 10
81.526173
 20
128.910418
 11
81.526173
 21
114.510418
  0
LINE
  5
A4
100
AcDbEntity
  8
M0
  6
DASHDOT
370
13
 62
     3
100
AcDbLine
 10
46.645755
 20
122.310418
 11
107.48426
 21
122.310418
  0
LINE
  5
A5
100
AcDbEntity
  8
M0
  6
CONTINUOUS
370
25
 62
     3
100
AcDbLine
 10
81.026173
 20
100.810418
 11
79.026173
 21
100.810418
  0
LINE
  5
A6
100
AcDbEntity
  8
M0
  6
CONTINUOUS
370
25
 62
     3
100
AcDbLine
 10
51.526173
 20
145.310418
 11
76.026173
 21
145.310418
  0
LINE
  5
A7
100
AcDbEntity
  8
M0
  6
CONTINUOUS
370
25
 62
     3
100
AcDbLine
 10
81.526173
 20
143.310418
 11
81.526173
 21
101.310418
  0
LINE
  5
A8
100
AcDbEntity
  8
M0
  6
CONTINUOUS
370
25
 62
     3
100
AcDbLine
 10
79.026173
 20
143.810418
 11
81.026173
 21
143.810418
  0
LINE
  5
A9
100
AcDbEntity
  8
M0
  6
CONTINUOUS
370
25
 62
     3
100
AcDbLine
 10
76.026173
 20
99.310418
 11
51.426173
 21
99.310418
  0
LINE
  5
AA
100
AcDbEntity
  8
M0
  6
CONTINUOUS
370
25
 62
     3
100
AcDbLine
 10
104.526173
 20
122.310418
 11
104.526173
 21
124.810418
  0
LINE
  5
AB
100
AcDbEntity
  8
M0
  6
CONTINUOUS
370
25
 62
     3
100
AcDbLine
 10
104.526173
 20
122.310418
 11
104.526173
 21
120.310418
  0
LINE
  5
AC
100
AcDbEntity
  8
M0
  6
CONTINUOUS
370
25
 62
     3
100
AcDbLine
 10
81.026173
 20
143.810418
 11
81.526173
 21
143.310418
  0
LINE
  5
AD
100
AcDbEntity
  8
M0
  6
CONTINUOUS
370
25
 62
     3
100
AcDbLine
 10
81.526173
 20
101.310418
 11
81.026173
 21
100.810418
  0
ARC
  5
AE
100
AcDbEntity
  8
M0
  6
CONTINUOUS
370
25
 62
     3
100
AcDbCircle
 10
149.482319
 20
118.110418
 40
0.4
100
AcDbArc
 50
90.0
 51
270.0
  0
ARC
  5
AF
100
AcDbEntity
  8
M0
  6
CONTINUOUS
370
25
 62
     3
100
AcDbCircle
 10
147.782319
 20
119.287804
 40
0.6
100
AcDbArc
 50
0.0
 51
54.900367
  0
CIRCLE
  5
B0
100
AcDbEntity
  8
M0
  6
DASHED
370
13
 62
     3
100
AcDbCircle
 10
150.082319
 20
122.310418
 40
2.8
  0
ARC
  5
B1
100
AcDbEntity
  8
M0
  6
CONTINUOUS
370
25
 62
     3
100
AcDbCircle
 10
150.082319
 20
122.806394
 40
3.604023
100
AcDbArc
 50
302.850534
 51
597.149468
  0
ARC
  5
B2
100
AcDbEntity
  8
M0
  6
CONTINUOUS
370
25
 62
     3
100
AcDbCircle
 10
151.182319
 20
117.310418
 40
0.6
100
AcDbArc
 50
270.0
 51
360.0
  0
ARC
  5
B3
100
AcDbEntity
  8
M0
  6
CONTINUOUS
370
25
 62
     3
100
AcDbCircle
 10
150.682319
 20
118.110418
 40
0.4
100
AcDbArc
 50
270.0
 51
450.0
  0
ARC
  5
B4
100
AcDbEntity
  8
M0
  6
CONTINUOUS
370
25
 62
     3
100
AcDbCircle
 10
148.982319
 20
117.310418
 40
0.6
100
AcDbArc
 50
179.999991
 51
270.0
  0
LINE
  5
B5
100
AcDbEntity
  8
M0
  6
CONTINUOUS
370
25
 62
     3
100
AcDbLine
 10
151.782319
 20
119.287804
 11
151.782319
 21
117.310418
  0
LINE
  5
B6
100
AcDbEntity
  8
M0
  6
CONTINUOUS
370
25
 62
     3
100
AcDbLine
 10
149.482319
 20
117.710418
 11
150.682665
 21
117.710418
  0
LINE
  5
B7
100
AcDbEntity
  8
M0
  6
CONTINUOUS
370
25
 62
     3
100
AcDbLine
 10
148.982319
 20
116.710418
 11
151.182698
 21
116.710418
  0
LINE
  5
B8
100
AcDbEntity
  8
M0
  6
CONTINUOUS
370
25
 62
     3
100
AcDbLine
 10
148.382319
 20
119.287804
 11
148.382319
 21
117.310418
  0
LINE
  5
B9
100
AcDbEntity
  8
M0
  6
CONTINUOUS
370
25
 62
     3
100
AcDbLine
 10
150.082492
 20
117.710418
 11
150.082508
 21
116.710418
  0
ARC
  5
BA
100
AcDbEntity
  8
M0
  6
CONTINUOUS
370
25
 62
     3
100
AcDbCircle
 10
152.382319
 20
119.287804
 40
0.6
100
AcDbArc
 50
125.099627
 51
180.000005
  0
LINE
  5
BB
100
AcDbEntity
  8
M0
  6
CONTINUOUS
370
25
 62
     3
100
AcDbLine
 10
149.482319
 20
118.510417
 11
150.682665
 21
118.510417
  0
LINE
  5
BC
100
AcDbEntity
  8
M0
  6
CONTINUOUS
370
25
 62
     3
100
AcDbLine
 10
150.082319
 20
119.510418
 11
150.082319
 21
118.510417
  0
LINE
  5
BD
100
AcDbEntity
  8
M0
  6
DASHDOT
370
13
 62
     3
100
AcDbLine
 10
80.286915
 20
122.310418
 11
83.499505
 21
122.310418
  0
LINE
  5
BE
100
AcDbEntity
  8
M0
  6
DASHED
370
13
 62
     3
100
AcDbLine
 10
81.526173
 20
119.510418
 11
82.226173
 21
119.510418
  0
LINE
  5
BF
100
AcDbEntity
  8
M0
  6
DASHED
370
13
 62
     3
100
AcDbLine
 10
81.526173
 20
125.110418
 11
82.226173
 21
125.110418
  0
LINE
  5
C0
100
AcDbEntity
  8
M0
  6
DASHED
370
13
 62
     3
100
AcDbLine
 10
81.526173
 20
117.710418
 11
82.226173
 21
117.710418
  0
LINE
  5
C1
100
AcDbEntity
  8
M0
  6
DASHED
370
13
 62
     3
100
AcDbLine
 10
81.526173
 20
118.510418
 11
82.226173
 21
118.510418
  0
LINE
  5
C2
100
AcDbEntity
  8
M0
  6
CONTINUOUS
370
25
 62
     3
100
AcDbLine
 10
81.526173
 20
126.410418
 11
81.526173
 21
116.710418
  0
LINE
  5
C3
100
AcDbEntity
  8
M0
  6
CONTINUOUS
370
25
 62
     3
100
AcDbLine
 10
82.226173
 20
126.410418
 11
82.226173
 21
116.710418
  0
LINE
  5
C4
100
AcDbEntity
  8
M0
  6
CONTINUOUS
370
25
 62
     3
100
AcDbLine
 10
81.526173
 20
126.410418
 11
82.226173
 21
126.410418
  0
LINE
  5
C5
100
AcDbEntity
  8
M0
  6
CONTINUOUS
370
25
 62
     3
100
AcDbLine
 10
81.526173
 20
116.710418
 11
82.226173
 21
116.710418
  0
LINE
  5
C6
100
AcDbEntity
  8
M0
  6
DASHDOT
370
13
 62
     3
100
AcDbLine
 10
49.436915
 20
122.310418
 11
52.649505
 21
122.310418
  0
LINE
  5
C7
100
AcDbEntity
  8
M0
  6
DASHED
370
13
 62
     3
100
AcDbLine
 10
50.676173
 20
119.510418
 11
51.376173
 21
119.510418
  0
LINE
  5
C8
100
AcDbEntity
  8
M0
  6
DASHED
370
13
 62
     3
100
AcDbLine
 10
50.676173
 20
125.110418
 11
51.376173
 21
125.110418
  0
LINE
  5
C9
100
AcDbEntity
  8
M0
  6
DASHED
370
13
 62
     3
100
AcDbLine
 10
50.676173
 20
117.710418
 11
51.376173
 21
117.710418
  0
LINE
  5
CA
100
AcDbEntity
  8
M0
  6
DASHED
370
13
 62
     3
100
AcDbLine
 10
50.676173
 20
118.510418
 11
51.376173
 21
118.510418
  0
LINE
  5
CB
100
AcDbEntity
  8
M0
  6
CONTINUOUS
370
25
 62
     3
100
AcDbLine
 10
50.676173
 20
126.410418
 11
50.676173
 21
116.710418
  0
LINE
  5
CC
100
AcDbEntity
  8
M0
  6
CONTINUOUS
370
25
 62
     3
100
AcDbLine
 10
51.376173
 20
126.410418
 11
51.376173
 21
116.710418
  0
LINE
  5
CD
100
AcDbEntity
  8
M0
  6
CONTINUOUS
370
25
 62
     3
100
AcDbLine
 10
50.676173
 20
126.410418
 11
51.376173
 21
126.410418
  0
LINE
  5
CE
100
AcDbEntity
  8
M0
  6
CONTINUOUS
370
25
 62
     3
100
AcDbLine
 10
50.676173
 20
116.710418
 11
51.376173
 21
116.710418
  0
TEXT
  5
CF
100
AcDbEntity
  8
M3
100
AcDbText
 10
155.411499
 20
62.360378
 40
6.3
  1
ＰＭＢ－５
 41
0.714286
  7
STANDARD
100
AcDbText
  0
ENDSEC
  0
SECTION
  2
OBJECTS
  0
DICTIONARY
  5
C
100
AcDbDictionary
  3
ACAD_GROUP
350
D
  3
ACAD_MLINESTYLE
350
E
  0
DICTIONARY
  5
D
102
{ACAD_REACTORS
330
C
102
}
100
AcDbDictionary
  0
DICTIONARY
  5
E
102
{ACAD_REACTORS
330
C
102
}
100
AcDbDictionary
  3
STANDARD
350
13
  0
MLINESTYLE
  5
13
102
{ACAD_REACTORS
330
E
102
}
100
AcDbMlineStyle
  2
STANDARD
 70
     0
  3

 62
     0
 51
90.0
 52
90.0
 71
     2
 49
0.5
 62
   256
  6
BYLAYER
 49
-0.5
 62
   256
  6
BYLAYER
  0
ENDSEC
  0
EOF
