  0
SECTION
  2
HEADER
  9
$ACADVER
  1
AC1015
  9
$INSBASE
 10
0.0
 20
0.0
  9
$VIEWCTR
 10
7.531722
 20
4.5
  9
$VIEWSIZE
 40
9.0
  9
$SNAPMODE
 70
     0
  9
$SNAPUNIT
 10
1.0
 20
1.0
  9
$SNAPBASE
 10
0.0
 20
0.0
  9
$SNAPANG
 50
0.0
  9
$SNAPSTYLE
 70
     0
  9
$SNAPISOPAIR
 70
     0
  9
$GRIDMODE
 70
     0
  9
$GRIDUNIT
 10
0.0
 20
0.0
  9
$ORTHOMODE
 70
     0
  9
$REGENMODE
 70
     1
  9
$FILLMODE
 70
     1
  9
$QTEXTMODE
 70
     0
  9
$DRAGMODE
 70
     2
  9
$LTSCALE
 40
1.0
  9
$OSMODE
 70
     0
  9
$ATTMODE
 70
     1
  9
$TEXTSIZE
 40
0.2
  9
$TRACEWID
 40
0.05
  9
$TEXTSTYLE
  7
STANDARD
  9
$CELTYPE
  6
BYLAYER
  9
$CECOLOR
 62
   256
  9
$DIMSCALE
 40
1.0
  9
$DIMASZ
 40
0.18
  9
$DIMEXO
 40
0.0625
  9
$DIMDLI
 40
0.38
  9
$DIMRND
 40
0.0
  9
$DIMDLE
 40
0.0
  9
$DIMEXE
 40
0.18
  9
$DIMTP
 40
0.0
  9
$DIMTM
 40
0.0
  9
$DIMTXT
 40
0.18
  9
$DIMCEN
 40
0.09
  9
$DIMTSZ
 40
0.0
  9
$DIMADEC
 70
     0
  9
$DIMALTRND
 40
0.000000
  9
$DIMAZIN
 70
     0
  9
$DIMDSEP
 70
    46
  9
$DIMATFIT
 70
     3
  9
$DIMFRAC
 70
     0
  9
$DIMLDRBLK
  1

  9
$DIMLUNIT
 70
     2
  9
$DIMLWD
 70
   13
  9
$DIMLWE
 70
   13
  9
$DIMTMOVE
 70
     0
  9
$CELWEIGHT
370
    25
  9
$LWDISPLAY
290
    1
  9
$EXTNAMES
290
    1
  9
$DIMTOL
 70
     0
  9
$DIMLIM
 70
     0
  9
$DIMTIH
 70
     1
  9
$DIMTOH
 70
     1
  9
$DIMSE1
 70
     0
  9
$DIMSE2
 70
     0
  9
$DIMTAD
 70
     0
  9
$DIMZIN
 70
     0
  9
$DIMBLK
  1

  9
$LUNITS
 70
     2
  9
$LUPREC
 70
     4
  9
$AXISMODE
 70
     0
  9
$AXISUNIT
 10
0.0
 20
0.0
  9
$SKETCHINC
 40
0.1
  9
$FILLETRAD
 40
0.0
  9
$AUNITS
 70
     0
  9
$AUPREC
 70
     0
  9
$MENU
  1
ACAD
  9
$ELEVATION
 40
0.0
  9
$THICKNESS
 40
0.0
  9
$VIEWDIR
 10
0.0
 20
0.0
 30
1.0
  9
$LIMCHECK
 70
     0
  9
$BLIPMODE
 70
     1
  9
$CHAMFERA
 40
0.0
  9
$CHAMFERB
 40
0.0
  9
$FASTZOOM
 70
     1
  9
$SKPOLY
 70
     0
  9
$TDCREATE
 40
0000000.0000000000
  9
$TDUPDATE
 40
0000000.0000000000
  9
$TDINDWG
 40
0.0000000000
  9
$TDUSRTIMER
 40
0.0000000000
  9
$USRTIMER
 70
     1
  9
$ANGBASE
 50
0.0
  9
$ANGDIR
 70
     0
  9
$PDMODE
 70
     0
  9
$PDSIZE
 40
0.0
  9
$PLINEWID
 40
0.0
  9
$COORDS
 70
     0
  9
$USERI1
 70
     0
  9
$USERI2
 70
     0
  9
$USERI3
 70
     0
  9
$USERI4
 70
     0
  9
$USERI5
 70
     0
  9
$USERR1
 40
0.0
  9
$USERR2
 40
0.0
  9
$USERR3
 40
0.0
  9
$USERR4
 40
0.0
  9
$USERR5
 40
0.0
  9
$CLAYER
  8
M1
  9
$EXTMIN
 10
0.0
 20
0.0
  9
$EXTMAX
 10
841.0
 20
594.0
  9
$LIMMIN
 10
0.0
 20
0.0
  9
$LIMMAX
 10
841.0
 20
594.0
  9
$HANDSEED
  5
281
  0
ENDSEC
  0
SECTION
  2
CLASSES
  0
ENDSEC
  0
SECTION
  2
TABLES
  0
TABLE
  2
VPORT
  5
8
100
AcDbSymbolTable
 70
     2
  0
VPORT
  5
14
100
AcDbSymbolTableRecord
100
AcDbViewportTableRecord
  2
*ACTIVE
 70
     0
 10
0.0
 20
0.0
 11
1.0
 21
1.0
 12
484.0
 22
297.0
 13
0.0
 23
0.0
 14
1.0
 24
1.0
 15
0.0
 25
0.0
 16
0.0
 26
0.0
 36
1.0
 17
0.0
 27
0.0
 37
0.0
 40
594.0
 41
2.0
 42
50.0
 43
0.0
 44
0.0
 50
0.0
 51
0.0
 71
     0
 72
   100
 73
     1
 74
     1
 75
     0
 76
     0
 77
     0
 78
     0
  0
ENDTAB
  0
TABLE
  2
LTYPE
  5
5
100
AcDbSymbolTable
 70
     5
  0
LTYPE
  5
15
100
AcDbSymbolTableRecord
100
AcDbLinetypeTableRecord
  2
BYBLOCK
 70
     0
  3

 72
    65
 73
     0
 40
0.0
  0
LTYPE
  5
16
100
AcDbSymbolTableRecord
100
AcDbLinetypeTableRecord
  2
BYLAYER
 70
     0
  3

 72
    65
 73
     0
 40
0.0
  0
LTYPE
  5
17
100
AcDbSymbolTableRecord
100
AcDbLinetypeTableRecord
  2
CONTINUOUS
 70
    64
  3
Solid line
 72
    65
 73
     0
 40
0.0
  0
LTYPE
  5
18
100
AcDbSymbolTableRecord
100
AcDbLinetypeTableRecord
  2
DASHED
 70
    64
  3
__ __ __ __ __ __ __ __ __ __ __ __ __ __ __ __
 72
    65
 73
     2
 40
0.75
 49
0.5
 74
     0
 49
-0.25
 74
     0
  0
LTYPE
  5
19
100
AcDbSymbolTableRecord
100
AcDbLinetypeTableRecord
  2
DASHDOT
 70
    64
  3
__ . __ . __ . __ . __ . __ . __ . __ . __ . __
 72
    65
 73
     4
 40
1.0
 49
0.5
 74
     0
 49
-0.25
 74
     0
 49
0.0
 74
     0
 49
-0.25
 74
     0
  0
LTYPE
  5
1A
100
AcDbSymbolTableRecord
100
AcDbLinetypeTableRecord
  2
DIVIDE
 70
    64
  3
____ . . ____ . . ____ . . ____ . . ____ . . __
 72
    65
 73
     6
 40
1.25
 49
0.5
 74
     0
 49
-0.25
 74
     0
 49
0.0
 74
     0
 49
-0.25
 74
     0
 49
0.0
 74
     0
 49
-0.25
 74
     0
  0
LTYPE
  5
1B
100
AcDbSymbolTableRecord
100
AcDbLinetypeTableRecord
  2
DOT
 70
    64
  3
. . . . . . . . . . . . . . . . . . . . . . . .
 72
    65
 73
     2
 40
0.25
 49
0.0
 74
     0
 49
-0.25
 74
     0
  0
ENDTAB
  0
TABLE
  2
LAYER
  5
2
100
AcDbSymbolTable
 70
   102
  0
LAYER
  5
F
100
AcDbSymbolTableRecord
100
AcDbLayerTableRecord
  2
0
 70
     0
 62
     7
  6
CONTINUOUS
370
     -3
390
F
  0
LAYER
  5
1C
100
AcDbSymbolTableRecord
100
AcDbLayerTableRecord
  2
M1
 70
     0
 62
     3
  6
CONTINUOUS
370
     -3
390
F
  0
LAYER
  5
1D
100
AcDbSymbolTableRecord
100
AcDbLayerTableRecord
  2
M2
 70
     0
 62
     2
  6
CONTINUOUS
370
     -3
390
F
  0
ENDTAB
  0
TABLE
  2
STYLE
  5
3
100
AcDbSymbolTable
 70
     2
  0
STYLE
  5
10
100
AcDbSymbolTableRecord
100
AcDbTextStyleTableRecord
  2
STANDARD
 70
     0
 40
0.0
 41
1.0
 50
0.0
 71
     0
 42
0.2
  3
txt
  4
BIGFONT
  0
ENDTAB
  0
TABLE
  2
VIEW
  5
6
100
AcDbSymbolTable
 70
     0
  0
ENDTAB
  0
TABLE
  2
UCS
  5
7
100
AcDbSymbolTable
 70
     0
  0
ENDTAB
  0
TABLE
  2
APPID
  5
9
100
AcDbSymbolTable
 70
     1
  0
APPID
  5
11
100
AcDbSymbolTableRecord
100
AcDbRegAppTableRecord
  2
ACAD
 70
     0
  0
ENDTAB
  0
TABLE
  2
DIMSTYLE
  5
A
100
AcDbSymbolTable
 70
     2
100
AcDbDimStyleTable
 71
     1
  0
DIMSTYLE
105
24
100
AcDbSymbolTableRecord
100
AcDbDimStyleTableRecord
  2
STANDARD
 70
     0
  3

  4

  5

  6
_OPEN
  7
_OPEN
 40
1.0
 41
3.0
 42
0.5
 43
8.0
 44
1.5
 45
0.0
 46
0.0
 47
0.0
 48
0.0
140
3.15
141
0.09
142
0.0
143
0.03937
144
1.0
145
0.0
146
1.0
147
1.0
148
0.000000
 71
     0
 72
     0
 73
     0
 74
     0
 75
     0
 76
     0
 77
     3
 78
     8
170
     0
171
     2
172
     0
173
     1
174
     0
175
     0
176
     0
177
     0
178
     0
270
     2
271
     2
272
     4
273
     2
274
     2
340
10
275
     0
278
    46
280
     0
281
     0
282
     0
283
     1
284
     0
285
     0
286
     0
287
     3
288
     0
371
   13
372
   13
  0
DIMSTYLE
105
25
100
AcDbSymbolTableRecord
100
AcDbDimStyleTableRecord
  2
LEADSTYL
 70
     0
  3

  4

  5

  6
_OPEN
  7
_OPEN
 40
1.0
 41
3.0
 42
0.0625
 43
0.38
 44
0.18
 45
0.0
 46
0.0
 47
0.0
 48
0.0
140
3.15
141
0.09
142
0.0
143
25.4
144
1.0
145
0.0
146
1.0
147
1.0
 71
     0
 72
     0
 73
     1
 74
     1
 75
     0
 76
     0
 77
     0
 78
     0
170
     0
171
     2
172
     0
173
     1
174
     0
175
     0
176
     0
177
     0
178
     0
270
     2
271
     4
272
     4
273
     2
274
     2
340
10
275
     0
280
     0
281
     0
282
     0
283
     1
284
     0
285
     0
286
     0
287
     3
288
     0
  0
ENDTAB
  0
TABLE
  2
BLOCK_RECORD
  5
1
100
AcDbSymbolTable
 70
     6
  0
BLOCK_RECORD
  5
1E
100
AcDbSymbolTableRecord
100
AcDbBlockTableRecord
  2
*MODEL_SPACE
  0
BLOCK_RECORD
  5
21
100
AcDbSymbolTableRecord
100
AcDbBlockTableRecord
  2
*PAPER_SPACE
  0
BLOCK_RECORD
  5
26
100
AcDbSymbolTableRecord
100
AcDbBlockTableRecord
  2
_NONE
  0
BLOCK_RECORD
  5
2A
100
AcDbSymbolTableRecord
100
AcDbBlockTableRecord
  2
_OPEN
  0
BLOCK_RECORD
  5
30
100
AcDbSymbolTableRecord
100
AcDbBlockTableRecord
  2
_CLOSED
  0
BLOCK_RECORD
  5
37
100
AcDbSymbolTableRecord
100
AcDbBlockTableRecord
  2
_ORIGIN
  0
BLOCK_RECORD
  5
3C
100
AcDbSymbolTableRecord
100
AcDbBlockTableRecord
  2
_DOT
  0
BLOCK_RECORD
  5
44
100
AcDbSymbolTableRecord
100
AcDbBlockTableRecord
  2
_OBLIQUE
  0
ENDTAB
  0
ENDSEC
  0
SECTION
  2
BLOCKS
  0
BLOCK
  5
1F
100
AcDbEntity
  8
0
100
AcDbBlockBegin
  2
*MODEL_SPACE
 70
     0
 10
0.0
 20
0.0
 30
0.0
  3
*MODEL_SPACE
  1

  0
ENDBLK
  5
20
100
AcDbEntity
  8
0
100
AcDbBlockEnd
  0
BLOCK
  5
22
100
AcDbEntity
 67
     1
  8
0
100
AcDbBlockBegin
  2
*PAPER_SPACE
 70
     0
 10
0.0
 20
0.0
 30
0.0
  3
*PAPER_SPACE
  1

  0
ENDBLK
  5
23
100
AcDbEntity
 67
     1
  8
0
100
AcDbBlockEnd
  0
BLOCK
  5
27
100
AcDbEntity
  8
0
100
AcDbBlockBegin
  2
_NONE
 70
     0
 10
0.0
 20
0.0
  0
CIRCLE
  5
28
100
AcDbEntity
  8
0
 62
     0
370
13
100
AcDbCircle
 10
0.0
 20
0.0
 40
0.25
  0
ENDBLK
  5
29
100
AcDbEntity
  8
0
100
AcDbBlockEnd
  0
BLOCK
  5
2B
100
AcDbEntity
  8
0
100
AcDbBlockBegin
  2
_OPEN
 70
     0
 10
0.0
 20
0.0
  0
LINE
  5
2C
100
AcDbEntity
  8
0
 62
     0
370
13
100
AcDbLine
 10
-0.965926
 20
0.258819
 11
0.0
 21
0.0
  0
LINE
  5
2D
100
AcDbEntity
  8
0
 62
     0
370
13
100
AcDbLine
 10
0.0
 20
0.0
 11
-0.965926
 21
-0.258819
  0
LINE
  5
2E
100
AcDbEntity
  8
0
 62
     0
370
13
100
AcDbLine
 10
0.0
 20
0.0
 11
-1.0
 21
0.0
  0
ENDBLK
  5
2F
100
AcDbEntity
  8
0
100
AcDbBlockEnd
  0
BLOCK
  5
31
100
AcDbEntity
  8
0
100
AcDbBlockBegin
  2
_CLOSED
 70
     0
 10
0.0
 20
0.0
  0
LINE
  5
32
100
AcDbEntity
  8
0
 62
     0
370
13
100
AcDbLine
 10
-0.965926
 20
0.258819
 11
0.0
 21
0.0
  0
LINE
  5
33
100
AcDbEntity
  8
0
 62
     0
370
13
100
AcDbLine
 10
0.0
 20
0.0
 11
-0.965926
 21
-0.258819
  0
LINE
  5
34
100
AcDbEntity
  8
0
 62
     0
370
13
100
AcDbLine
 10
-0.965926
 20
0.258819
 11
-0.965926
 21
-0.258819
  0
LINE
  5
35
100
AcDbEntity
  8
0
 62
     0
370
13
100
AcDbLine
 10
0.0
 20
0.0
 11
-1.0
 21
0.0
  0
ENDBLK
  5
36
100
AcDbEntity
  8
0
100
AcDbBlockEnd
  0
BLOCK
  5
38
100
AcDbEntity
  8
0
100
AcDbBlockBegin
  2
_ORIGIN
 70
     0
 10
0.0
 20
0.0
  0
CIRCLE
  5
39
100
AcDbEntity
  8
0
 62
     0
370
13
100
AcDbCircle
 10
0.0
 20
0.0
 40
0.5
  0
LINE
  5
3A
100
AcDbEntity
  8
0
 62
     0
370
13
100
AcDbLine
 10
0.0
 20
0.0
 11
-1.0
 21
0.0
  0
ENDBLK
  5
3B
100
AcDbEntity
  8
0
100
AcDbBlockEnd
  0
BLOCK
  5
3D
100
AcDbEntity
  8
0
100
AcDbBlockBegin
  2
_DOT
 70
     0
 10
0.0
 20
0.0
  0
POLYLINE
  5
3E
100
AcDbEntity
  8
0
 62
     0
100
AcDb2dPolyline
 66
     1
 70
     1
 40
0.5
 41
0.5
  0
VERTEX
  5
3F
100
AcDbEntity
  8
0
 62
     0
100
AcDbVertex
100
AcDb2dVertex
 10
-0.25
 20
0.0
 42
1.0
  0
VERTEX
  5
40
100
AcDbEntity
  8
0
 62
     0
100
AcDbVertex
100
AcDb2dVertex
 10
0.25
 20
0.0
 42
1.0
  0
SEQEND
  5
41
100
AcDbEntity
  8
0
 62
     0
  0
LINE
  5
42
100
AcDbEntity
  8
0
 62
     0
370
13
100
AcDbLine
 10
-0.5
 20
0.0
 11
-1.0
 21
0.0
  0
ENDBLK
  5
43
100
AcDbEntity
  8
0
100
AcDbBlockEnd
  0
BLOCK
  5
45
100
AcDbEntity
  8
0
100
AcDbBlockBegin
  2
_OBLIQUE
 70
     0
 10
0.0
 20
0.0
  0
LINE
  5
46
100
AcDbEntity
  8
0
 62
     0
370
13
100
AcDbLine
 10
-0.353553
 20
-0.353553
 11
0.353553
 21
0.353553
  0
ENDBLK
  5
47
100
AcDbEntity
  8
0
100
AcDbBlockEnd
  0
ENDSEC
  0
SECTION
  2
ENTITIES
  0
LINE
  5
48
100
AcDbEntity
  8
M1
  6
CONTINUOUS
370
13
 62
     7
100
AcDbLine
 10
185.062472
 20
348.452301
 11
189.266472
 21
348.452301
  0
LINE
  5
49
100
AcDbEntity
  8
M1
  6
CONTINUOUS
370
25
 62
     7
100
AcDbLine
 10
395.340472
 20
408.452301
 11
423.340472
 21
408.452301
  0
LINE
  5
4A
100
AcDbEntity
  8
M1
  6
CONTINUOUS
370
25
 62
     7
100
AcDbLine
 10
394.340472
 20
407.452301
 11
394.340472
 21
348.452301
  0
LINE
  5
4B
100
AcDbEntity
  8
M1
  6
CONTINUOUS
370
25
 62
     7
100
AcDbLine
 10
424.340472
 20
407.452201
 11
424.340472
 21
348.452301
  0
LINE
  5
4C
100
AcDbEntity
  8
M1
  6
CONTINUOUS
370
25
 62
     7
100
AcDbLine
 10
386.340472
 20
402.452301
 11
394.340472
 21
402.452301
  0
LINE
  5
4D
100
AcDbEntity
  8
M1
  6
CONTINUOUS
370
25
 62
     7
100
AcDbLine
 10
365.840472
 20
368.952301
 11
365.840472
 21
348.452301
  0
LINE
  5
4E
100
AcDbEntity
  8
M1
  6
CONTINUOUS
370
25
 62
     7
100
AcDbLine
 10
366.340472
 20
369.452301
 11
376.840472
 21
369.452301
  0
LINE
  5
4F
100
AcDbEntity
  8
M1
  6
CONTINUOUS
370
25
 62
     7
100
AcDbLine
 10
376.840472
 20
386.452301
 11
376.840472
 21
348.452301
  0
LINE
  5
50
100
AcDbEntity
  8
M1
  6
CONTINUOUS
370
25
 62
     7
100
AcDbLine
 10
376.840472
 20
386.452301
 11
381.788272
 21
386.452301
  0
LINE
  5
51
100
AcDbEntity
  8
M1
  6
CONTINUOUS
370
25
 62
     7
100
AcDbLine
 10
385.340472
 20
401.452301
 11
385.340472
 21
348.452301
  0
LINE
  5
52
100
AcDbEntity
  8
M1
  6
CONTINUOUS
370
25
 62
     7
100
AcDbLine
 10
385.341172
 20
392.452101
 11
383.672372
 21
387.779401
  0
LINE
  5
53
100
AcDbEntity
  8
M1
  6
CONTINUOUS
370
25
 62
     7
100
AcDbLine
 10
394.340872
 20
407.452101
 11
395.340772
 21
408.452101
  0
LINE
  5
54
100
AcDbEntity
  8
M1
  6
CONTINUOUS
370
25
 62
     7
100
AcDbLine
 10
423.340572
 20
408.452501
 11
424.340572
 21
407.452401
  0
LINE
  5
55
100
AcDbEntity
  8
M1
  6
CONTINUOUS
370
25
 62
     7
100
AcDbLine
 10
366.340472
 20
369.452301
 11
365.840572
 21
368.952401
  0
LINE
  5
56
100
AcDbEntity
  8
M1
  6
CONTINUOUS
370
25
 62
     7
100
AcDbLine
 10
432.340472
 20
402.452301
 11
424.340472
 21
402.452301
  0
LINE
  5
57
100
AcDbEntity
  8
M1
  6
CONTINUOUS
370
25
 62
     7
100
AcDbLine
 10
433.340472
 20
401.452301
 11
433.340472
 21
348.452301
  0
LINE
  5
58
100
AcDbEntity
  8
M1
  6
CONTINUOUS
370
25
 62
     7
100
AcDbLine
 10
433.340672
 20
392.452301
 11
435.009372
 21
387.779601
  0
LINE
  5
59
100
AcDbEntity
  8
M1
  6
CONTINUOUS
370
25
 62
     7
100
AcDbLine
 10
441.840472
 20
386.452301
 11
436.892772
 21
386.452301
  0
LINE
  5
5A
100
AcDbEntity
  8
M1
  6
CONTINUOUS
370
25
 62
     7
100
AcDbLine
 10
441.840472
 20
386.452301
 11
441.840472
 21
348.452301
  0
LINE
  5
5B
100
AcDbEntity
  8
M1
  6
CONTINUOUS
370
25
 62
     7
100
AcDbLine
 10
452.340472
 20
369.452301
 11
441.840472
 21
369.452301
  0
LINE
  5
5C
100
AcDbEntity
  8
M1
  6
CONTINUOUS
370
25
 62
     7
100
AcDbLine
 10
452.340872
 20
369.452301
 11
452.840772
 21
368.952401
  0
LINE
  5
5D
100
AcDbEntity
  8
M1
  6
CONTINUOUS
370
25
 62
     7
100
AcDbLine
 10
452.840472
 20
368.952301
 11
452.840472
 21
348.452301
  0
LINE
  5
5E
100
AcDbEntity
  8
M1
  6
CONTINUOUS
370
25
 62
     7
100
AcDbLine
 10
335.840472
 20
353.452301
 11
335.840472
 21
343.452301
  0
LINE
  5
5F
100
AcDbEntity
  8
M1
  6
CONTINUOUS
370
25
 62
     7
100
AcDbLine
 10
355.840472
 20
350.452301
 11
355.840472
 21
346.452301
  0
LINE
  5
60
100
AcDbEntity
  8
M1
  6
CONTINUOUS
370
25
 62
     7
100
AcDbLine
 10
335.840472
 20
343.452301
 11
358.840472
 21
343.452301
  0
LINE
  5
61
100
AcDbEntity
  8
M1
  6
CONTINUOUS
370
25
 62
     7
100
AcDbLine
 10
335.840472
 20
353.452301
 11
358.840472
 21
353.452301
  0
LINE
  5
62
100
AcDbEntity
  8
M1
  6
CONTINUOUS
370
25
 62
     7
100
AcDbLine
 10
335.840472
 20
346.452301
 11
355.840472
 21
346.452301
  0
LINE
  5
63
100
AcDbEntity
  8
M1
  6
CONTINUOUS
370
25
 62
     7
100
AcDbLine
 10
335.840472
 20
350.452301
 11
355.840472
 21
350.452301
  0
LINE
  5
64
100
AcDbEntity
  8
M1
  6
CONTINUOUS
370
25
 62
     7
100
AcDbLine
 10
395.340472
 20
288.452301
 11
423.340472
 21
288.452301
  0
LINE
  5
65
100
AcDbEntity
  8
M1
  6
CONTINUOUS
370
25
 62
     7
100
AcDbLine
 10
394.340472
 20
289.452301
 11
394.340472
 21
348.452301
  0
LINE
  5
66
100
AcDbEntity
  8
M1
  6
CONTINUOUS
370
25
 62
     7
100
AcDbLine
 10
424.340472
 20
289.452401
 11
424.340472
 21
348.452301
  0
LINE
  5
67
100
AcDbEntity
  8
M1
  6
CONTINUOUS
370
25
 62
     7
100
AcDbLine
 10
386.340472
 20
294.452301
 11
394.340472
 21
294.452301
  0
LINE
  5
68
100
AcDbEntity
  8
M1
  6
CONTINUOUS
370
25
 62
     7
100
AcDbLine
 10
365.840472
 20
327.952301
 11
365.840472
 21
348.452301
  0
LINE
  5
69
100
AcDbEntity
  8
M1
  6
CONTINUOUS
370
25
 62
     7
100
AcDbLine
 10
366.340472
 20
327.452301
 11
376.840472
 21
327.452301
  0
LINE
  5
6A
100
AcDbEntity
  8
M1
  6
CONTINUOUS
370
25
 62
     7
100
AcDbLine
 10
376.840472
 20
310.452301
 11
376.840472
 21
348.452301
  0
LINE
  5
6B
100
AcDbEntity
  8
M1
  6
CONTINUOUS
370
25
 62
     7
100
AcDbLine
 10
376.840472
 20
310.452301
 11
381.788272
 21
310.452301
  0
LINE
  5
6C
100
AcDbEntity
  8
M1
  6
CONTINUOUS
370
25
 62
     7
100
AcDbLine
 10
385.340472
 20
295.452301
 11
385.340472
 21
348.452301
  0
LINE
  5
6D
100
AcDbEntity
  8
M1
  6
CONTINUOUS
370
25
 62
     7
100
AcDbLine
 10
385.340472
 20
304.452401
 11
383.671772
 21
309.125001
  0
LINE
  5
6E
100
AcDbEntity
  8
M1
  6
CONTINUOUS
370
25
 62
     7
100
AcDbLine
 10
394.340772
 20
289.452101
 11
395.340672
 21
288.452201
  0
LINE
  5
6F
100
AcDbEntity
  8
M1
  6
CONTINUOUS
370
25
 62
     7
100
AcDbLine
 10
423.340472
 20
288.452601
 11
424.340472
 21
289.452701
  0
LINE
  5
70
100
AcDbEntity
  8
M1
  6
CONTINUOUS
370
25
 62
     7
100
AcDbLine
 10
366.340672
 20
327.452301
 11
365.840572
 21
327.952401
  0
LINE
  5
71
100
AcDbEntity
  8
M1
  6
CONTINUOUS
370
25
 62
     7
100
AcDbLine
 10
432.340472
 20
294.452301
 11
424.340472
 21
294.452301
  0
LINE
  5
72
100
AcDbEntity
  8
M1
  6
CONTINUOUS
370
25
 62
     7
100
AcDbLine
 10
433.340472
 20
295.452301
 11
433.340472
 21
348.452301
  0
LINE
  5
73
100
AcDbEntity
  8
M1
  6
CONTINUOUS
370
25
 62
     7
100
AcDbLine
 10
433.340072
 20
304.452601
 11
435.008772
 21
309.125201
  0
LINE
  5
74
100
AcDbEntity
  8
M1
  6
CONTINUOUS
370
25
 62
     7
100
AcDbLine
 10
441.840472
 20
310.452301
 11
436.892772
 21
310.452301
  0
LINE
  5
75
100
AcDbEntity
  8
M1
  6
CONTINUOUS
370
25
 62
     7
100
AcDbLine
 10
441.840472
 20
310.452301
 11
441.840472
 21
348.452301
  0
LINE
  5
76
100
AcDbEntity
  8
M1
  6
CONTINUOUS
370
25
 62
     7
100
AcDbLine
 10
452.340472
 20
327.452301
 11
441.840472
 21
327.452301
  0
LINE
  5
77
100
AcDbEntity
  8
M1
  6
CONTINUOUS
370
25
 62
     7
100
AcDbLine
 10
452.340672
 20
327.452101
 11
452.840672
 21
327.952001
  0
LINE
  5
78
100
AcDbEntity
  8
M1
  6
CONTINUOUS
370
25
 62
     7
100
AcDbLine
 10
452.840472
 20
327.952301
 11
452.840472
 21
348.452301
  0
LINE
  5
79
100
AcDbEntity
  8
M1
  6
CONTINUOUS
370
25
 62
     7
100
AcDbLine
 10
482.840472
 20
353.452301
 11
482.840472
 21
343.452301
  0
LINE
  5
7A
100
AcDbEntity
  8
M1
  6
CONTINUOUS
370
25
 62
     7
100
AcDbLine
 10
462.840472
 20
350.452301
 11
462.840472
 21
346.452301
  0
LINE
  5
7B
100
AcDbEntity
  8
M1
  6
CONTINUOUS
370
25
 62
     7
100
AcDbLine
 10
482.840472
 20
343.452301
 11
459.840472
 21
343.452301
  0
LINE
  5
7C
100
AcDbEntity
  8
M1
  6
CONTINUOUS
370
25
 62
     7
100
AcDbLine
 10
482.840472
 20
353.452301
 11
459.840472
 21
353.452301
  0
LINE
  5
7D
100
AcDbEntity
  8
M1
  6
CONTINUOUS
370
25
 62
     7
100
AcDbLine
 10
482.840472
 20
346.452301
 11
462.840472
 21
346.452301
  0
LINE
  5
7E
100
AcDbEntity
  8
M1
  6
CONTINUOUS
370
25
 62
     7
100
AcDbLine
 10
482.840472
 20
350.452301
 11
462.840472
 21
350.452301
  0
LINE
  5
7F
100
AcDbEntity
  8
M1
  6
CONTINUOUS
370
25
 62
     7
100
AcDbLine
 10
384.640572
 20
375.652401
 11
384.640572
 21
369.252301
  0
LINE
  5
80
100
AcDbEntity
  8
M1
  6
CONTINUOUS
370
25
 62
     7
100
AcDbLine
 10
384.640572
 20
369.502301
 11
385.340472
 21
369.502301
  0
LINE
  5
81
100
AcDbEntity
  8
M1
  6
CONTINUOUS
370
25
 62
     7
100
AcDbLine
 10
384.640572
 20
375.402401
 11
385.340472
 21
375.402401
  0
LINE
  5
82
100
AcDbEntity
  8
M1
  6
CONTINUOUS
370
25
 62
     7
100
AcDbLine
 10
384.640172
 20
372.668601
 11
385.340072
 21
373.368501
  0
LINE
  5
83
100
AcDbEntity
  8
M1
  6
CONTINUOUS
370
25
 62
     7
100
AcDbLine
 10
384.640472
 20
371.678801
 11
385.340372
 21
372.378801
  0
LINE
  5
84
100
AcDbEntity
  8
M1
  6
CONTINUOUS
370
25
 62
     7
100
AcDbLine
 10
382.640572
 20
375.102501
 11
382.640572
 21
369.802501
  0
LINE
  5
85
100
AcDbEntity
  8
M1
  6
CONTINUOUS
370
25
 62
     7
100
AcDbLine
 10
382.957972
 20
370.952401
 11
384.640572
 21
370.952401
  0
LINE
  5
86
100
AcDbEntity
  8
M1
  6
CONTINUOUS
370
25
 62
     7
100
AcDbLine
 10
382.957972
 20
373.952401
 11
384.640572
 21
373.952401
  0
LINE
  5
87
100
AcDbEntity
  8
M1
  6
CONTINUOUS
370
25
 62
     7
100
AcDbLine
 10
382.958172
 20
369.252301
 11
384.640572
 21
369.252301
  0
LINE
  5
88
100
AcDbEntity
  8
M1
  6
CONTINUOUS
370
25
 62
     7
100
AcDbLine
 10
382.957972
 20
375.652401
 11
384.640572
 21
375.652401
  0
LINE
  5
89
100
AcDbEntity
  8
M1
  6
CONTINUOUS
370
25
 62
     7
100
AcDbLine
 10
382.640272
 20
375.102701
 11
382.957772
 21
375.652501
  0
LINE
  5
8A
100
AcDbEntity
  8
M1
  6
CONTINUOUS
370
25
 62
     7
100
AcDbLine
 10
382.641472
 20
369.802701
 11
382.958872
 21
369.252801
  0
LINE
  5
8B
100
AcDbEntity
  8
M1
  6
CONTINUOUS
370
13
 62
     7
100
AcDbLine
 10
187.103472
 20
384.848001
 11
187.103472
 21
375.477401
  0
LINE
  5
8C
100
AcDbEntity
  8
M1
  6
CONTINUOUS
370
25
 62
     7
100
AcDbLine
 10
228.693372
 20
375.640901
 11
225.900772
 21
374.028601
  0
LINE
  5
8D
100
AcDbEntity
  8
M1
  6
CONTINUOUS
370
25
 62
     7
100
AcDbLine
 10
231.443872
 20
370.877801
 11
228.651372
 21
369.265501
  0
LINE
  5
8E
100
AcDbEntity
  8
M1
  6
CONTINUOUS
370
25
 62
     7
100
AcDbLine
 10
228.693872
 20
375.639501
 11
231.443972
 21
374.051801
  0
LINE
  5
8F
100
AcDbEntity
  8
M1
  6
CONTINUOUS
370
25
 62
     7
100
AcDbLine
 10
225.899672
 20
374.027501
 11
225.899672
 21
370.852201
  0
LINE
  5
90
100
AcDbEntity
  8
M1
  6
CONTINUOUS
370
25
 62
     7
100
AcDbLine
 10
231.442172
 20
370.877301
 11
231.442172
 21
374.052801
  0
LINE
  5
91
100
AcDbEntity
  8
M1
  6
CONTINUOUS
370
25
 62
     7
100
AcDbLine
 10
228.651172
 20
369.264601
 11
225.901072
 21
370.852201
  0
LINE
  5
92
100
AcDbEntity
  8
M1
  6
CONTINUOUS
370
25
 62
     7
100
AcDbLine
 10
184.353472
 20
398.064501
 11
184.353472
 21
394.840101
  0
LINE
  5
93
100
AcDbEntity
  8
M1
  6
CONTINUOUS
370
25
 62
     7
100
AcDbLine
 10
189.853472
 20
398.064501
 11
189.853472
 21
394.840101
  0
LINE
  5
94
100
AcDbEntity
  8
M1
  6
CONTINUOUS
370
25
 62
     7
100
AcDbLine
 10
184.353372
 20
398.064901
 11
187.103372
 21
399.652701
  0
LINE
  5
95
100
AcDbEntity
  8
M1
  6
CONTINUOUS
370
25
 62
     7
100
AcDbLine
 10
184.353372
 20
394.839901
 11
187.103372
 21
393.252101
  0
LINE
  5
96
100
AcDbEntity
  8
M1
  6
CONTINUOUS
370
25
 62
     7
100
AcDbLine
 10
189.853472
 20
398.064601
 11
187.103372
 21
399.652401
  0
LINE
  5
97
100
AcDbEntity
  8
M1
  6
CONTINUOUS
370
25
 62
     7
100
AcDbLine
 10
189.853572
 20
394.840101
 11
187.103572
 21
393.252201
  0
LINE
  5
98
100
AcDbEntity
  8
M1
  6
CONTINUOUS
370
25
 62
     7
100
AcDbLine
 10
142.762472
 20
370.876801
 11
145.555072
 21
369.264501
  0
LINE
  5
99
100
AcDbEntity
  8
M1
  6
CONTINUOUS
370
25
 62
     7
100
AcDbLine
 10
145.512872
 20
375.640001
 11
148.305472
 21
374.027701
  0
LINE
  5
9A
100
AcDbEntity
  8
M1
  6
CONTINUOUS
370
25
 62
     7
100
AcDbLine
 10
142.763172
 20
370.876901
 11
142.763172
 21
374.052401
  0
LINE
  5
9B
100
AcDbEntity
  8
M1
  6
CONTINUOUS
370
25
 62
     7
100
AcDbLine
 10
145.554872
 20
369.265301
 11
148.305172
 21
370.853201
  0
LINE
  5
9C
100
AcDbEntity
  8
M1
  6
CONTINUOUS
370
25
 62
     7
100
AcDbLine
 10
145.512372
 20
375.640701
 11
142.762272
 21
374.053001
  0
LINE
  5
9D
100
AcDbEntity
  8
M1
  6
CONTINUOUS
370
25
 62
     7
100
AcDbLine
 10
148.305772
 20
374.027601
 11
148.305872
 21
370.852101
  0
LINE
  5
9E
100
AcDbEntity
  8
M1
  6
CONTINUOUS
370
25
 62
     7
100
AcDbLine
 10
145.512672
 20
321.265201
 11
148.305272
 21
322.877501
  0
LINE
  5
9F
100
AcDbEntity
  8
M1
  6
CONTINUOUS
370
25
 62
     7
100
AcDbLine
 10
142.762772
 20
326.028201
 11
145.555372
 21
327.640501
  0
LINE
  5
A0
100
AcDbEntity
  8
M1
  6
CONTINUOUS
370
25
 62
     7
100
AcDbLine
 10
145.512972
 20
321.264801
 11
142.762772
 21
322.852601
  0
LINE
  5
A1
100
AcDbEntity
  8
M1
  6
CONTINUOUS
370
25
 62
     7
100
AcDbLine
 10
148.302672
 20
322.877201
 11
148.302772
 21
326.052801
  0
LINE
  5
A2
100
AcDbEntity
  8
M1
  6
CONTINUOUS
370
25
 62
     7
100
AcDbLine
 10
142.760272
 20
326.028201
 11
142.760172
 21
322.852701
  0
LINE
  5
A3
100
AcDbEntity
  8
M1
  6
CONTINUOUS
370
25
 62
     7
100
AcDbLine
 10
145.554972
 20
327.639701
 11
148.305372
 21
326.051901
  0
LINE
  5
A4
100
AcDbEntity
  8
M1
  6
CONTINUOUS
370
25
 62
     7
100
AcDbLine
 10
189.853972
 20
298.840001
 11
189.853972
 21
302.064601
  0
LINE
  5
A5
100
AcDbEntity
  8
M1
  6
CONTINUOUS
370
25
 62
     7
100
AcDbLine
 10
184.353672
 20
298.840001
 11
184.353672
 21
302.064601
  0
LINE
  5
A6
100
AcDbEntity
  8
M1
  6
CONTINUOUS
370
25
 62
     7
100
AcDbLine
 10
189.852772
 20
298.840601
 11
187.102672
 21
297.252801
  0
LINE
  5
A7
100
AcDbEntity
  8
M1
  6
CONTINUOUS
370
25
 62
     7
100
AcDbLine
 10
189.852072
 20
302.063001
 11
187.101972
 21
303.650801
  0
LINE
  5
A8
100
AcDbEntity
  8
M1
  6
CONTINUOUS
370
25
 62
     7
100
AcDbLine
 10
184.352272
 20
298.838501
 11
187.102372
 21
297.250701
  0
LINE
  5
A9
100
AcDbEntity
  8
M1
  6
CONTINUOUS
370
25
 62
     7
100
AcDbLine
 10
184.353072
 20
302.064901
 11
187.103072
 21
303.652701
  0
LINE
  5
AA
100
AcDbEntity
  8
M1
  6
CONTINUOUS
370
25
 62
     7
100
AcDbLine
 10
231.443772
 20
326.028101
 11
228.651172
 21
327.640401
  0
LINE
  5
AB
100
AcDbEntity
  8
M1
  6
CONTINUOUS
370
25
 62
     7
100
AcDbLine
 10
228.693972
 20
321.264701
 11
225.901372
 21
322.877001
  0
LINE
  5
AC
100
AcDbEntity
  8
M1
  6
CONTINUOUS
370
25
 62
     7
100
AcDbLine
 10
231.443772
 20
326.027301
 11
231.443772
 21
322.851701
  0
LINE
  5
AD
100
AcDbEntity
  8
M1
  6
CONTINUOUS
370
25
 62
     7
100
AcDbLine
 10
228.650772
 20
327.640701
 11
225.900872
 21
326.053101
  0
LINE
  5
AE
100
AcDbEntity
  8
M1
  6
CONTINUOUS
370
25
 62
     7
100
AcDbLine
 10
228.693672
 20
321.265501
 11
231.443772
 21
322.853301
  0
LINE
  5
AF
100
AcDbEntity
  8
M1
  6
CONTINUOUS
370
25
 62
     7
100
AcDbLine
 10
225.901672
 20
322.876801
 11
225.901472
 21
326.052301
  0
LINE
  5
B0
100
AcDbEntity
  8
M1
  6
CONTINUOUS
370
25
 62
     7
100
AcDbLine
 10
384.640572
 20
399.652301
 11
384.640572
 21
393.252301
  0
LINE
  5
B1
100
AcDbEntity
  8
M1
  6
CONTINUOUS
370
25
 62
     7
100
AcDbLine
 10
384.640572
 20
393.502301
 11
385.340472
 21
393.502301
  0
LINE
  5
B2
100
AcDbEntity
  8
M1
  6
CONTINUOUS
370
25
 62
     7
100
AcDbLine
 10
384.640572
 20
399.402301
 11
385.340472
 21
399.402301
  0
LINE
  5
B3
100
AcDbEntity
  8
M1
  6
CONTINUOUS
370
25
 62
     7
100
AcDbLine
 10
384.640472
 20
396.668501
 11
385.340372
 21
397.368501
  0
LINE
  5
B4
100
AcDbEntity
  8
M1
  6
CONTINUOUS
370
25
 62
     7
100
AcDbLine
 10
384.640372
 20
395.678701
 11
385.340272
 21
396.378701
  0
LINE
  5
B5
100
AcDbEntity
  8
M1
  6
CONTINUOUS
370
25
 62
     7
100
AcDbLine
 10
382.640572
 20
399.102401
 11
382.640572
 21
393.802401
  0
LINE
  5
B6
100
AcDbEntity
  8
M1
  6
CONTINUOUS
370
25
 62
     7
100
AcDbLine
 10
382.957972
 20
394.952301
 11
384.640572
 21
394.952301
  0
LINE
  5
B7
100
AcDbEntity
  8
M1
  6
CONTINUOUS
370
25
 62
     7
100
AcDbLine
 10
382.957972
 20
397.952301
 11
384.640572
 21
397.952301
  0
LINE
  5
B8
100
AcDbEntity
  8
M1
  6
CONTINUOUS
370
25
 62
     7
100
AcDbLine
 10
382.958172
 20
393.252301
 11
384.640572
 21
393.252301
  0
LINE
  5
B9
100
AcDbEntity
  8
M1
  6
CONTINUOUS
370
25
 62
     7
100
AcDbLine
 10
382.957972
 20
399.652301
 11
384.640572
 21
399.652301
  0
LINE
  5
BA
100
AcDbEntity
  8
M1
  6
CONTINUOUS
370
25
 62
     7
100
AcDbLine
 10
382.640472
 20
399.102401
 11
382.957872
 21
399.652201
  0
LINE
  5
BB
100
AcDbEntity
  8
M1
  6
CONTINUOUS
370
25
 62
     7
100
AcDbLine
 10
382.641572
 20
393.802601
 11
382.958972
 21
393.252801
  0
LINE
  5
BC
100
AcDbEntity
  8
M1
  6
CONTINUOUS
370
25
 62
     7
100
AcDbLine
 10
384.640572
 20
321.252201
 11
384.640572
 21
327.652301
  0
LINE
  5
BD
100
AcDbEntity
  8
M1
  6
CONTINUOUS
370
25
 62
     7
100
AcDbLine
 10
384.640572
 20
327.402301
 11
385.340472
 21
327.402301
  0
LINE
  5
BE
100
AcDbEntity
  8
M1
  6
CONTINUOUS
370
25
 62
     7
100
AcDbLine
 10
384.640572
 20
321.502201
 11
385.340472
 21
321.502201
  0
LINE
  5
BF
100
AcDbEntity
  8
M1
  6
CONTINUOUS
370
25
 62
     7
100
AcDbLine
 10
382.640572
 20
321.802101
 11
382.640572
 21
327.102101
  0
LINE
  5
C0
100
AcDbEntity
  8
M1
  6
CONTINUOUS
370
25
 62
     7
100
AcDbLine
 10
382.957972
 20
325.952201
 11
384.640572
 21
325.952201
  0
LINE
  5
C1
100
AcDbEntity
  8
M1
  6
CONTINUOUS
370
25
 62
     7
100
AcDbLine
 10
382.957972
 20
322.952201
 11
384.640572
 21
322.952201
  0
LINE
  5
C2
100
AcDbEntity
  8
M1
  6
CONTINUOUS
370
25
 62
     7
100
AcDbLine
 10
382.958172
 20
327.652301
 11
384.640572
 21
327.652301
  0
LINE
  5
C3
100
AcDbEntity
  8
M1
  6
CONTINUOUS
370
25
 62
     7
100
AcDbLine
 10
382.957972
 20
321.252201
 11
384.640572
 21
321.252201
  0
LINE
  5
C4
100
AcDbEntity
  8
M1
  6
CONTINUOUS
370
25
 62
     7
100
AcDbLine
 10
382.641372
 20
321.802501
 11
382.958872
 21
321.252701
  0
LINE
  5
C5
100
AcDbEntity
  8
M1
  6
CONTINUOUS
370
25
 62
     7
100
AcDbLine
 10
382.639572
 20
327.103001
 11
382.956972
 21
327.652901
  0
LINE
  5
C6
100
AcDbEntity
  8
M1
  6
CONTINUOUS
370
25
 62
     7
100
AcDbLine
 10
384.640572
 20
297.252301
 11
384.640572
 21
303.652301
  0
LINE
  5
C7
100
AcDbEntity
  8
M1
  6
CONTINUOUS
370
25
 62
     7
100
AcDbLine
 10
384.640572
 20
303.402301
 11
385.340472
 21
303.402301
  0
LINE
  5
C8
100
AcDbEntity
  8
M1
  6
CONTINUOUS
370
25
 62
     7
100
AcDbLine
 10
384.640572
 20
297.502301
 11
385.340472
 21
297.502301
  0
LINE
  5
C9
100
AcDbEntity
  8
M1
  6
CONTINUOUS
370
25
 62
     7
100
AcDbLine
 10
382.640572
 20
297.802201
 11
382.640572
 21
303.102201
  0
LINE
  5
CA
100
AcDbEntity
  8
M1
  6
CONTINUOUS
370
25
 62
     7
100
AcDbLine
 10
382.957972
 20
301.952301
 11
384.640572
 21
301.952301
  0
LINE
  5
CB
100
AcDbEntity
  8
M1
  6
CONTINUOUS
370
25
 62
     7
100
AcDbLine
 10
382.957972
 20
298.952301
 11
384.640572
 21
298.952301
  0
LINE
  5
CC
100
AcDbEntity
  8
M1
  6
CONTINUOUS
370
25
 62
     7
100
AcDbLine
 10
382.958172
 20
303.652301
 11
384.640572
 21
303.652301
  0
LINE
  5
CD
100
AcDbEntity
  8
M1
  6
CONTINUOUS
370
25
 62
     7
100
AcDbLine
 10
382.957972
 20
297.252301
 11
384.640572
 21
297.252301
  0
LINE
  5
CE
100
AcDbEntity
  8
M1
  6
CONTINUOUS
370
25
 62
     7
100
AcDbLine
 10
382.641372
 20
297.802501
 11
382.958672
 21
297.252701
  0
LINE
  5
CF
100
AcDbEntity
  8
M1
  6
CONTINUOUS
370
25
 62
     7
100
AcDbLine
 10
382.639772
 20
303.103101
 11
382.957172
 21
303.653001
  0
LINE
  5
D0
100
AcDbEntity
  8
M1
  6
CONTINUOUS
370
25
 62
     7
100
AcDbLine
 10
434.040472
 20
375.652401
 11
434.040472
 21
369.252301
  0
LINE
  5
D1
100
AcDbEntity
  8
M1
  6
CONTINUOUS
370
25
 62
     7
100
AcDbLine
 10
434.040472
 20
369.502301
 11
433.340472
 21
369.502301
  0
LINE
  5
D2
100
AcDbEntity
  8
M1
  6
CONTINUOUS
370
25
 62
     7
100
AcDbLine
 10
434.040472
 20
375.402401
 11
433.340472
 21
375.402401
  0
LINE
  5
D3
100
AcDbEntity
  8
M1
  6
CONTINUOUS
370
25
 62
     7
100
AcDbLine
 10
436.040472
 20
375.102501
 11
436.040472
 21
369.802501
  0
LINE
  5
D4
100
AcDbEntity
  8
M1
  6
CONTINUOUS
370
25
 62
     7
100
AcDbLine
 10
435.723072
 20
370.952401
 11
434.040472
 21
370.952401
  0
LINE
  5
D5
100
AcDbEntity
  8
M1
  6
CONTINUOUS
370
25
 62
     7
100
AcDbLine
 10
435.723072
 20
373.952401
 11
434.040472
 21
373.952401
  0
LINE
  5
D6
100
AcDbEntity
  8
M1
  6
CONTINUOUS
370
25
 62
     7
100
AcDbLine
 10
435.722872
 20
369.252301
 11
434.040472
 21
369.252301
  0
LINE
  5
D7
100
AcDbEntity
  8
M1
  6
CONTINUOUS
370
25
 62
     7
100
AcDbLine
 10
435.723072
 20
375.652401
 11
434.040472
 21
375.652401
  0
LINE
  5
D8
100
AcDbEntity
  8
M1
  6
CONTINUOUS
370
25
 62
     7
100
AcDbLine
 10
436.041172
 20
375.102801
 11
435.723772
 21
375.652601
  0
LINE
  5
D9
100
AcDbEntity
  8
M1
  6
CONTINUOUS
370
25
 62
     7
100
AcDbLine
 10
436.039172
 20
369.802601
 11
435.721772
 21
369.252701
  0
LINE
  5
DA
100
AcDbEntity
  8
M1
  6
CONTINUOUS
370
25
 62
     7
100
AcDbLine
 10
434.040472
 20
399.652301
 11
434.040472
 21
393.252301
  0
LINE
  5
DB
100
AcDbEntity
  8
M1
  6
CONTINUOUS
370
25
 62
     7
100
AcDbLine
 10
434.040472
 20
393.502301
 11
433.340472
 21
393.502301
  0
LINE
  5
DC
100
AcDbEntity
  8
M1
  6
CONTINUOUS
370
25
 62
     7
100
AcDbLine
 10
434.040472
 20
399.402301
 11
433.340472
 21
399.402301
  0
LINE
  5
DD
100
AcDbEntity
  8
M1
  6
CONTINUOUS
370
25
 62
     7
100
AcDbLine
 10
436.040472
 20
399.102401
 11
436.040472
 21
393.802401
  0
LINE
  5
DE
100
AcDbEntity
  8
M1
  6
CONTINUOUS
370
25
 62
     7
100
AcDbLine
 10
435.723072
 20
394.952301
 11
434.040472
 21
394.952301
  0
LINE
  5
DF
100
AcDbEntity
  8
M1
  6
CONTINUOUS
370
25
 62
     7
100
AcDbLine
 10
435.723072
 20
397.952301
 11
434.040472
 21
397.952301
  0
LINE
  5
E0
100
AcDbEntity
  8
M1
  6
CONTINUOUS
370
25
 62
     7
100
AcDbLine
 10
435.722872
 20
393.252301
 11
434.040472
 21
393.252301
  0
LINE
  5
E1
100
AcDbEntity
  8
M1
  6
CONTINUOUS
370
25
 62
     7
100
AcDbLine
 10
435.723072
 20
399.652301
 11
434.040472
 21
399.652301
  0
LINE
  5
E2
100
AcDbEntity
  8
M1
  6
CONTINUOUS
370
25
 62
     7
100
AcDbLine
 10
436.041272
 20
399.102901
 11
435.723872
 21
399.652701
  0
LINE
  5
E3
100
AcDbEntity
  8
M1
  6
CONTINUOUS
370
25
 62
     7
100
AcDbLine
 10
436.039072
 20
393.802701
 11
435.721672
 21
393.252801
  0
LINE
  5
E4
100
AcDbEntity
  8
M1
  6
CONTINUOUS
370
25
 62
     7
100
AcDbLine
 10
434.040472
 20
321.252201
 11
434.040472
 21
327.652301
  0
LINE
  5
E5
100
AcDbEntity
  8
M1
  6
CONTINUOUS
370
25
 62
     7
100
AcDbLine
 10
434.040472
 20
327.402301
 11
433.340472
 21
327.402301
  0
LINE
  5
E6
100
AcDbEntity
  8
M1
  6
CONTINUOUS
370
25
 62
     7
100
AcDbLine
 10
434.040472
 20
321.502201
 11
433.340472
 21
321.502201
  0
LINE
  5
E7
100
AcDbEntity
  8
M1
  6
CONTINUOUS
370
25
 62
     7
100
AcDbLine
 10
436.040472
 20
321.802101
 11
436.040472
 21
327.102101
  0
LINE
  5
E8
100
AcDbEntity
  8
M1
  6
CONTINUOUS
370
25
 62
     7
100
AcDbLine
 10
435.723072
 20
325.952201
 11
434.040472
 21
325.952201
  0
LINE
  5
E9
100
AcDbEntity
  8
M1
  6
CONTINUOUS
370
25
 62
     7
100
AcDbLine
 10
435.723072
 20
322.952201
 11
434.040472
 21
322.952201
  0
LINE
  5
EA
100
AcDbEntity
  8
M1
  6
CONTINUOUS
370
25
 62
     7
100
AcDbLine
 10
435.722872
 20
327.652301
 11
434.040472
 21
327.652301
  0
LINE
  5
EB
100
AcDbEntity
  8
M1
  6
CONTINUOUS
370
25
 62
     7
100
AcDbLine
 10
435.723072
 20
321.252201
 11
434.040472
 21
321.252201
  0
LINE
  5
EC
100
AcDbEntity
  8
M1
  6
CONTINUOUS
370
25
 62
     7
100
AcDbLine
 10
436.041372
 20
321.801301
 11
435.724072
 21
321.251601
  0
LINE
  5
ED
100
AcDbEntity
  8
M1
  6
CONTINUOUS
370
25
 62
     7
100
AcDbLine
 10
436.039572
 20
327.102301
 11
435.722272
 21
327.652001
  0
LINE
  5
EE
100
AcDbEntity
  8
M1
  6
CONTINUOUS
370
25
 62
     7
100
AcDbLine
 10
434.040472
 20
297.252301
 11
434.040472
 21
303.652301
  0
LINE
  5
EF
100
AcDbEntity
  8
M1
  6
CONTINUOUS
370
25
 62
     7
100
AcDbLine
 10
434.040472
 20
303.402301
 11
433.340472
 21
303.402301
  0
LINE
  5
F0
100
AcDbEntity
  8
M1
  6
CONTINUOUS
370
25
 62
     7
100
AcDbLine
 10
434.040472
 20
297.502301
 11
433.340472
 21
297.502301
  0
LINE
  5
F1
100
AcDbEntity
  8
M1
  6
CONTINUOUS
370
25
 62
     7
100
AcDbLine
 10
436.040472
 20
297.802201
 11
436.040472
 21
303.102201
  0
LINE
  5
F2
100
AcDbEntity
  8
M1
  6
CONTINUOUS
370
25
 62
     7
100
AcDbLine
 10
435.723072
 20
301.952301
 11
434.040472
 21
301.952301
  0
LINE
  5
F3
100
AcDbEntity
  8
M1
  6
CONTINUOUS
370
25
 62
     7
100
AcDbLine
 10
435.723072
 20
298.952301
 11
434.040472
 21
298.952301
  0
LINE
  5
F4
100
AcDbEntity
  8
M1
  6
CONTINUOUS
370
25
 62
     7
100
AcDbLine
 10
435.722872
 20
303.652301
 11
434.040472
 21
303.652301
  0
LINE
  5
F5
100
AcDbEntity
  8
M1
  6
CONTINUOUS
370
25
 62
     7
100
AcDbLine
 10
435.723072
 20
297.252301
 11
434.040472
 21
297.252301
  0
LINE
  5
F6
100
AcDbEntity
  8
M1
  6
CONTINUOUS
370
25
 62
     7
100
AcDbLine
 10
436.040972
 20
297.801601
 11
435.723672
 21
297.251801
  0
LINE
  5
F7
100
AcDbEntity
  8
M1
  6
CONTINUOUS
370
25
 62
     7
100
AcDbLine
 10
436.041172
 20
303.103001
 11
435.723772
 21
303.652801
  0
LINE
  5
F8
100
AcDbEntity
  8
M1
  6
CONTINUOUS
370
13
 62
     7
100
AcDbLine
 10
329.268772
 20
348.452301
 11
337.465072
 21
348.452301
  0
LINE
  5
F9
100
AcDbEntity
  8
M1
  6
CONTINUOUS
370
25
 62
     7
100
AcDbLine
 10
189.603672
 20
350.452301
 11
189.603672
 21
346.452301
  0
LINE
  5
FA
100
AcDbEntity
  8
M1
  6
CONTINUOUS
370
25
 62
     7
100
AcDbLine
 10
193.603672
 20
350.452301
 11
193.603672
 21
346.452301
  0
LINE
  5
FB
100
AcDbEntity
  8
M1
  6
CONTINUOUS
370
25
 62
     7
100
AcDbLine
 10
189.603472
 20
346.452201
 11
193.603472
 21
346.452201
  0
LINE
  5
FC
100
AcDbEntity
  8
M1
  6
CONTINUOUS
370
25
 62
     7
100
AcDbLine
 10
189.603472
 20
350.452201
 11
193.603472
 21
350.452201
  0
LINE
  5
FD
100
AcDbEntity
  8
M1
  6
CONTINUOUS
370
25
 62
     7
100
AcDbLine
 10
217.815772
 20
359.257101
 11
208.777672
 21
354.039001
  0
LINE
  5
FE
100
AcDbEntity
  8
M1
  6
CONTINUOUS
370
25
 62
     7
100
AcDbLine
 10
208.777972
 20
342.866701
 11
217.816372
 21
337.648401
  0
LINE
  5
FF
100
AcDbEntity
  8
M1
  6
CONTINUOUS
370
25
 62
     7
100
AcDbLine
 10
213.564872
 20
355.648301
 11
210.801972
 21
354.053101
  0
LINE
  5
100
100
AcDbEntity
  8
M1
  6
CONTINUOUS
370
25
 62
     7
100
AcDbLine
 10
210.801672
 20
342.852701
 11
213.564672
 21
341.257501
  0
LINE
  5
101
100
AcDbEntity
  8
M1
  6
CONTINUOUS
370
25
 62
     7
100
AcDbLine
 10
193.103472
 20
380.452301
 11
193.103472
 21
370.016101
  0
LINE
  5
102
100
AcDbEntity
  8
M1
  6
CONTINUOUS
370
25
 62
     7
100
AcDbLine
 10
202.778272
 20
364.430401
 11
211.816372
 21
369.648501
  0
LINE
  5
103
100
AcDbEntity
  8
M1
  6
CONTINUOUS
370
25
 62
     7
100
AcDbLine
 10
194.103472
 20
374.966501
 11
194.103472
 21
371.776101
  0
LINE
  5
104
100
AcDbEntity
  8
M1
  6
CONTINUOUS
370
25
 62
     7
100
AcDbLine
 10
203.802272
 20
366.176801
 11
206.565172
 21
367.772001
  0
LINE
  5
105
100
AcDbEntity
  8
M1
  6
CONTINUOUS
370
25
 62
     7
100
AcDbLine
 10
162.390572
 20
369.648501
 11
171.428472
 21
364.430401
  0
LINE
  5
106
100
AcDbEntity
  8
M1
  6
CONTINUOUS
370
25
 62
     7
100
AcDbLine
 10
181.103672
 20
370.016001
 11
181.103672
 21
380.452301
  0
LINE
  5
107
100
AcDbEntity
  8
M1
  6
CONTINUOUS
370
25
 62
     7
100
AcDbLine
 10
167.641072
 20
367.771501
 11
170.403972
 21
366.176301
  0
LINE
  5
108
100
AcDbEntity
  8
M1
  6
CONTINUOUS
370
25
 62
     7
100
AcDbLine
 10
180.103672
 20
371.776001
 11
180.103672
 21
374.966501
  0
LINE
  5
109
100
AcDbEntity
  8
M1
  6
CONTINUOUS
370
25
 62
     7
100
AcDbLine
 10
156.390172
 20
337.648901
 11
165.428272
 21
342.867001
  0
LINE
  5
10A
100
AcDbEntity
  8
M1
  6
CONTINUOUS
370
25
 62
     7
100
AcDbLine
 10
165.428772
 20
354.038101
 11
156.390672
 21
359.256301
  0
LINE
  5
10B
100
AcDbEntity
  8
M1
  6
CONTINUOUS
370
25
 62
     7
100
AcDbLine
 10
160.641172
 20
341.257901
 11
163.404172
 21
342.853101
  0
LINE
  5
10C
100
AcDbEntity
  8
M1
  6
CONTINUOUS
370
25
 62
     7
100
AcDbLine
 10
163.404472
 20
354.052201
 11
160.641472
 21
355.647401
  0
LINE
  5
10D
100
AcDbEntity
  8
M1
  6
CONTINUOUS
370
25
 62
     7
100
AcDbLine
 10
181.103972
 20
316.452201
 11
181.103972
 21
326.888301
  0
LINE
  5
10E
100
AcDbEntity
  8
M1
  6
CONTINUOUS
370
25
 62
     7
100
AcDbLine
 10
171.428672
 20
332.475201
 11
162.390172
 21
327.256801
  0
LINE
  5
10F
100
AcDbEntity
  8
M1
  6
CONTINUOUS
370
25
 62
     7
100
AcDbLine
 10
180.103972
 20
321.938101
 11
180.103972
 21
325.128601
  0
LINE
  5
110
100
AcDbEntity
  8
M1
  6
CONTINUOUS
370
25
 62
     7
100
AcDbLine
 10
170.404272
 20
330.729501
 11
167.641272
 21
329.134201
  0
LINE
  5
111
100
AcDbEntity
  8
M1
  6
CONTINUOUS
370
25
 62
     7
100
AcDbLine
 10
211.816572
 20
327.256501
 11
202.778572
 21
332.474601
  0
LINE
  5
112
100
AcDbEntity
  8
M1
  6
CONTINUOUS
370
25
 62
     7
100
AcDbLine
 10
193.103472
 20
326.888801
 11
193.103472
 21
316.452201
  0
LINE
  5
113
100
AcDbEntity
  8
M1
  6
CONTINUOUS
370
25
 62
     7
100
AcDbLine
 10
206.565172
 20
329.133401
 11
203.802172
 21
330.728601
  0
LINE
  5
114
100
AcDbEntity
  8
M1
  6
CONTINUOUS
370
25
 62
     7
100
AcDbLine
 10
194.103472
 20
325.128801
 11
194.103472
 21
321.938401
  0
LINE
  5
115
100
AcDbEntity
  8
M1
  6
CONTINUOUS
370
13
 62
     7
100
AcDbLine
 10
633.283842
 20
348.452301
 11
629.678532
 21
348.452301
  0
LINE
  5
116
100
AcDbEntity
  8
M1
  6
CONTINUOUS
370
13
 62
     7
100
AcDbLine
 10
631.577572
 20
384.905201
 11
631.577572
 21
375.829801
  0
LINE
  5
117
100
AcDbEntity
  8
M1
  6
CONTINUOUS
370
25
 62
     7
100
AcDbLine
 10
589.987472
 20
375.640301
 11
592.779772
 21
374.028101
  0
LINE
  5
118
100
AcDbEntity
  8
M1
  6
CONTINUOUS
370
25
 62
     7
100
AcDbLine
 10
587.237372
 20
370.877401
 11
590.030172
 21
369.265001
  0
LINE
  5
119
100
AcDbEntity
  8
M1
  6
CONTINUOUS
370
25
 62
     7
100
AcDbLine
 10
589.987072
 20
375.639301
 11
587.236972
 21
374.051601
  0
LINE
  5
11A
100
AcDbEntity
  8
M1
  6
CONTINUOUS
370
25
 62
     7
100
AcDbLine
 10
592.779472
 20
374.027601
 11
592.779472
 21
370.852301
  0
LINE
  5
11B
100
AcDbEntity
  8
M1
  6
CONTINUOUS
370
25
 62
     7
100
AcDbLine
 10
587.236972
 20
370.877301
 11
587.236972
 21
374.052901
  0
LINE
  5
11C
100
AcDbEntity
  8
M1
  6
CONTINUOUS
370
25
 62
     7
100
AcDbLine
 10
590.029772
 20
369.264301
 11
592.779972
 21
370.851901
  0
LINE
  5
11D
100
AcDbEntity
  8
M1
  6
CONTINUOUS
370
25
 62
     7
100
AcDbLine
 10
634.327572
 20
398.064501
 11
634.327572
 21
394.840101
  0
LINE
  5
11E
100
AcDbEntity
  8
M1
  6
CONTINUOUS
370
25
 62
     7
100
AcDbLine
 10
628.827572
 20
398.064501
 11
628.827572
 21
394.840101
  0
LINE
  5
11F
100
AcDbEntity
  8
M1
  6
CONTINUOUS
370
25
 62
     7
100
AcDbLine
 10
634.327712
 20
398.064501
 11
631.577632
 21
399.652301
  0
LINE
  5
120
100
AcDbEntity
  8
M1
  6
CONTINUOUS
370
25
 62
     7
100
AcDbLine
 10
634.327492
 20
394.839901
 11
631.577442
 21
393.252101
  0
LINE
  5
121
100
AcDbEntity
  8
M1
  6
CONTINUOUS
370
25
 62
     7
100
AcDbLine
 10
628.827612
 20
398.064501
 11
631.577922
 21
399.652401
  0
LINE
  5
122
100
AcDbEntity
  8
M1
  6
CONTINUOUS
370
25
 62
     7
100
AcDbLine
 10
628.827542
 20
394.840101
 11
631.577382
 21
393.252301
  0
LINE
  5
123
100
AcDbEntity
  8
M1
  6
CONTINUOUS
370
25
 62
     7
100
AcDbLine
 10
675.918742
 20
370.876801
 11
673.126002
 21
369.264501
  0
LINE
  5
124
100
AcDbEntity
  8
M1
  6
CONTINUOUS
370
25
 62
     7
100
AcDbLine
 10
673.168622
 20
375.640001
 11
670.375992
 21
374.027701
  0
LINE
  5
125
100
AcDbEntity
  8
M1
  6
CONTINUOUS
370
25
 62
     7
100
AcDbLine
 10
675.917912
 20
370.876901
 11
675.917912
 21
374.052401
  0
LINE
  5
126
100
AcDbEntity
  8
M1
  6
CONTINUOUS
370
25
 62
     7
100
AcDbLine
 10
673.125702
 20
369.264601
 11
670.375842
 21
370.852301
  0
LINE
  5
127
100
AcDbEntity
  8
M1
  6
CONTINUOUS
370
25
 62
     7
100
AcDbLine
 10
673.167882
 20
375.640201
 11
675.918232
 21
374.052301
  0
LINE
  5
128
100
AcDbEntity
  8
M1
  6
CONTINUOUS
370
25
 62
     7
100
AcDbLine
 10
670.375432
 20
374.027601
 11
670.375432
 21
370.852101
  0
LINE
  5
129
100
AcDbEntity
  8
M1
  6
CONTINUOUS
370
25
 62
     7
100
AcDbLine
 10
673.168562
 20
321.264501
 11
670.375722
 21
322.876901
  0
LINE
  5
12A
100
AcDbEntity
  8
M1
  6
CONTINUOUS
370
25
 62
     7
100
AcDbLine
 10
675.918662
 20
326.027801
 11
673.125822
 21
327.640201
  0
LINE
  5
12B
100
AcDbEntity
  8
M1
  6
CONTINUOUS
370
25
 62
     7
100
AcDbLine
 10
673.167972
 20
321.264701
 11
675.918212
 21
322.852501
  0
LINE
  5
12C
100
AcDbEntity
  8
M1
  6
CONTINUOUS
370
25
 62
     7
100
AcDbLine
 10
670.376652
 20
322.877301
 11
670.376652
 21
326.052801
  0
LINE
  5
12D
100
AcDbEntity
  8
M1
  6
CONTINUOUS
370
25
 62
     7
100
AcDbLine
 10
675.919132
 20
326.028301
 11
675.919132
 21
322.852801
  0
LINE
  5
12E
100
AcDbEntity
  8
M1
  6
CONTINUOUS
370
25
 62
     7
100
AcDbLine
 10
673.125892
 20
327.640101
 11
670.375802
 21
326.052401
  0
LINE
  5
12F
100
AcDbEntity
  8
M1
  6
CONTINUOUS
370
25
 62
     7
100
AcDbLine
 10
628.827092
 20
298.840001
 11
628.827092
 21
302.064601
  0
LINE
  5
130
100
AcDbEntity
  8
M1
  6
CONTINUOUS
370
25
 62
     7
100
AcDbLine
 10
634.327332
 20
298.840001
 11
634.327332
 21
302.064601
  0
LINE
  5
131
100
AcDbEntity
  8
M1
  6
CONTINUOUS
370
25
 62
     7
100
AcDbLine
 10
628.828402
 20
298.840201
 11
631.578742
 21
297.252401
  0
LINE
  5
132
100
AcDbEntity
  8
M1
  6
CONTINUOUS
370
25
 62
     7
100
AcDbLine
 10
628.829442
 20
302.063901
 11
631.579382
 21
303.651701
  0
LINE
  5
133
100
AcDbEntity
  8
M1
  6
CONTINUOUS
370
25
 62
     7
100
AcDbLine
 10
634.328752
 20
298.839301
 11
631.578902
 21
297.251601
  0
LINE
  5
134
100
AcDbEntity
  8
M1
  6
CONTINUOUS
370
25
 62
     7
100
AcDbLine
 10
634.328052
 20
302.064301
 11
631.577802
 21
303.652301
  0
LINE
  5
135
100
AcDbEntity
  8
M1
  6
CONTINUOUS
370
25
 62
     7
100
AcDbLine
 10
587.237172
 20
326.027901
 11
590.029772
 21
327.640101
  0
LINE
  5
136
100
AcDbEntity
  8
M1
  6
CONTINUOUS
370
25
 62
     7
100
AcDbLine
 10
589.986772
 20
321.264801
 11
592.779172
 21
322.877001
  0
LINE
  5
137
100
AcDbEntity
  8
M1
  6
CONTINUOUS
370
25
 62
     7
100
AcDbLine
 10
587.237272
 20
326.027301
 11
587.237272
 21
322.851701
  0
LINE
  5
138
100
AcDbEntity
  8
M1
  6
CONTINUOUS
370
25
 62
     7
100
AcDbLine
 10
590.030072
 20
327.638801
 11
592.779972
 21
326.051201
  0
LINE
  5
139
100
AcDbEntity
  8
M1
  6
CONTINUOUS
370
25
 62
     7
100
AcDbLine
 10
589.987372
 20
321.263701
 11
587.237272
 21
322.851501
  0
LINE
  5
13A
100
AcDbEntity
  8
M1
  6
CONTINUOUS
370
25
 62
     7
100
AcDbLine
 10
592.779772
 20
322.876801
 11
592.779772
 21
326.052301
  0
LINE
  5
13B
100
AcDbEntity
  8
M1
  6
CONTINUOUS
370
25
 62
     7
100
AcDbLine
 10
629.077332
 20
350.452301
 11
629.077332
 21
346.452301
  0
LINE
  5
13C
100
AcDbEntity
  8
M1
  6
CONTINUOUS
370
25
 62
     7
100
AcDbLine
 10
625.077332
 20
350.452301
 11
625.077332
 21
346.452301
  0
LINE
  5
13D
100
AcDbEntity
  8
M1
  6
CONTINUOUS
370
25
 62
     7
100
AcDbLine
 10
629.077572
 20
346.452201
 11
625.077572
 21
346.452201
  0
LINE
  5
13E
100
AcDbEntity
  8
M1
  6
CONTINUOUS
370
25
 62
     7
100
AcDbLine
 10
629.077572
 20
350.452201
 11
625.077572
 21
350.452201
  0
LINE
  5
13F
100
AcDbEntity
  8
M1
  6
CONTINUOUS
370
25
 62
     7
100
AcDbLine
 10
600.865072
 20
359.256701
 11
609.903372
 21
354.038501
  0
LINE
  5
140
100
AcDbEntity
  8
M1
  6
CONTINUOUS
370
25
 62
     7
100
AcDbLine
 10
609.902972
 20
342.867301
 11
600.864372
 21
337.648901
  0
LINE
  5
141
100
AcDbEntity
  8
M1
  6
CONTINUOUS
370
25
 62
     7
100
AcDbLine
 10
605.116172
 20
355.647501
 11
607.879172
 21
354.052301
  0
LINE
  5
142
100
AcDbEntity
  8
M1
  6
CONTINUOUS
370
25
 62
     7
100
AcDbLine
 10
607.879172
 20
342.852901
 11
605.116272
 21
341.257701
  0
LINE
  5
143
100
AcDbEntity
  8
M1
  6
CONTINUOUS
370
25
 62
     7
100
AcDbLine
 10
625.577572
 20
380.452301
 11
625.577572
 21
370.016101
  0
LINE
  5
144
100
AcDbEntity
  8
M1
  6
CONTINUOUS
370
25
 62
     7
100
AcDbLine
 10
615.902672
 20
364.430101
 11
606.864472
 21
369.648301
  0
LINE
  5
145
100
AcDbEntity
  8
M1
  6
CONTINUOUS
370
25
 62
     7
100
AcDbLine
 10
624.577572
 20
374.966501
 11
624.577572
 21
371.776101
  0
LINE
  5
146
100
AcDbEntity
  8
M1
  6
CONTINUOUS
370
25
 62
     7
100
AcDbLine
 10
614.878472
 20
366.176201
 11
612.115472
 21
367.771501
  0
LINE
  5
147
100
AcDbEntity
  8
M1
  6
CONTINUOUS
370
25
 62
     7
100
AcDbLine
 10
656.290442
 20
369.648501
 11
647.252522
 21
364.430401
  0
LINE
  5
148
100
AcDbEntity
  8
M1
  6
CONTINUOUS
370
25
 62
     7
100
AcDbLine
 10
637.577332
 20
370.016001
 11
637.577332
 21
380.452301
  0
LINE
  5
149
100
AcDbEntity
  8
M1
  6
CONTINUOUS
370
25
 62
     7
100
AcDbLine
 10
651.039532
 20
367.771801
 11
648.276552
 21
366.176601
  0
LINE
  5
14A
100
AcDbEntity
  8
M1
  6
CONTINUOUS
370
25
 62
     7
100
AcDbLine
 10
638.577332
 20
371.776001
 11
638.577332
 21
374.966501
  0
LINE
  5
14B
100
AcDbEntity
  8
M1
  6
CONTINUOUS
370
25
 62
     7
100
AcDbLine
 10
662.290522
 20
337.648501
 11
653.252782
 21
342.866401
  0
LINE
  5
14C
100
AcDbEntity
  8
M1
  6
CONTINUOUS
370
25
 62
     7
100
AcDbLine
 10
653.251952
 20
354.038801
 11
662.290012
 21
359.257001
  0
LINE
  5
14D
100
AcDbEntity
  8
M1
  6
CONTINUOUS
370
25
 62
     7
100
AcDbLine
 10
658.039412
 20
341.257301
 11
655.276432
 21
342.852601
  0
LINE
  5
14E
100
AcDbEntity
  8
M1
  6
CONTINUOUS
370
25
 62
     7
100
AcDbLine
 10
655.276592
 20
354.051801
 11
658.039852
 21
355.647001
  0
LINE
  5
14F
100
AcDbEntity
  8
M1
  6
CONTINUOUS
370
25
 62
     7
100
AcDbLine
 10
637.577092
 20
316.452201
 11
637.577092
 21
326.888301
  0
LINE
  5
150
100
AcDbEntity
  8
M1
  6
CONTINUOUS
370
25
 62
     7
100
AcDbLine
 10
647.252832
 20
332.474801
 11
656.290822
 21
327.256701
  0
LINE
  5
151
100
AcDbEntity
  8
M1
  6
CONTINUOUS
370
25
 62
     7
100
AcDbLine
 10
638.577092
 20
321.938101
 11
638.577092
 21
325.128601
  0
LINE
  5
152
100
AcDbEntity
  8
M1
  6
CONTINUOUS
370
25
 62
     7
100
AcDbLine
 10
648.276842
 20
330.728701
 11
651.039602
 21
329.133601
  0
LINE
  5
153
100
AcDbEntity
  8
M1
  6
CONTINUOUS
370
25
 62
     7
100
AcDbLine
 10
606.864372
 20
327.256601
 11
615.902472
 21
332.474701
  0
LINE
  5
154
100
AcDbEntity
  8
M1
  6
CONTINUOUS
370
25
 62
     7
100
AcDbLine
 10
625.577572
 20
326.888801
 11
625.577572
 21
316.452201
  0
LINE
  5
155
100
AcDbEntity
  8
M1
  6
CONTINUOUS
370
25
 62
     7
100
AcDbLine
 10
612.115672
 20
329.133701
 11
614.878672
 21
330.728901
  0
LINE
  5
156
100
AcDbEntity
  8
M1
  6
CONTINUOUS
370
25
 62
     7
100
AcDbLine
 10
624.577572
 20
325.128801
 11
624.577572
 21
321.938401
  0
LINE
  5
157
100
AcDbEntity
  8
M1
  6
CONTINUOUS
370
25
 62
     7
100
AcDbLine
 10
433.340472
 20
396.462101
 11
434.040372
 21
397.162001
  0
LINE
  5
158
100
AcDbEntity
  8
M1
  6
CONTINUOUS
370
25
 62
     7
100
AcDbLine
 10
433.340372
 20
395.472101
 11
434.040372
 21
396.172101
  0
LINE
  5
159
100
AcDbEntity
  8
M1
  6
CONTINUOUS
370
25
 62
     7
100
AcDbLine
 10
433.340472
 20
372.476301
 11
434.040472
 21
373.176301
  0
LINE
  5
15A
100
AcDbEntity
  8
M1
  6
CONTINUOUS
370
25
 62
     7
100
AcDbLine
 10
433.340472
 20
371.486301
 11
434.040372
 21
372.186301
  0
LINE
  5
15B
100
AcDbEntity
  8
M1
  6
CONTINUOUS
370
25
 62
     7
100
AcDbLine
 10
433.340472
 20
324.786101
 11
434.040372
 21
325.486101
  0
LINE
  5
15C
100
AcDbEntity
  8
M1
  6
CONTINUOUS
370
25
 62
     7
100
AcDbLine
 10
433.340472
 20
323.796201
 11
434.040372
 21
324.496101
  0
LINE
  5
15D
100
AcDbEntity
  8
M1
  6
CONTINUOUS
370
25
 62
     7
100
AcDbLine
 10
433.340472
 20
300.730101
 11
434.040372
 21
301.430001
  0
LINE
  5
15E
100
AcDbEntity
  8
M1
  6
CONTINUOUS
370
25
 62
     7
100
AcDbLine
 10
433.340472
 20
299.740101
 11
434.040372
 21
300.440101
  0
LINE
  5
15F
100
AcDbEntity
  8
M1
  6
CONTINUOUS
370
25
 62
     7
100
AcDbLine
 10
384.640472
 20
324.297701
 11
385.340472
 21
324.997701
  0
LINE
  5
160
100
AcDbEntity
  8
M1
  6
CONTINUOUS
370
25
 62
     7
100
AcDbLine
 10
384.640472
 20
300.364101
 11
385.340472
 21
301.064101
  0
LINE
  5
161
100
AcDbEntity
  8
M1
  6
CONTINUOUS
370
25
 62
     7
100
AcDbLine
 10
384.640472
 20
323.307801
 11
385.340472
 21
324.007701
  0
LINE
  5
162
100
AcDbEntity
  8
M1
  6
CONTINUOUS
370
25
 62
     7
100
AcDbLine
 10
384.640572
 20
299.374201
 11
385.340472
 21
300.074101
  0
LINE
  5
163
100
AcDbEntity
  8
M1
  6
CONTINUOUS
370
13
 62
     7
100
AcDbLine
 10
155.342972
 20
366.789201
 11
163.437272
 21
362.116001
  0
LINE
  5
164
100
AcDbEntity
  8
M1
  6
CONTINUOUS
370
13
 62
     7
100
AcDbLine
 10
155.286772
 20
330.083101
 11
163.459672
 21
334.801701
  0
LINE
  5
165
100
AcDbEntity
  8
M1
  6
CONTINUOUS
370
13
 62
     7
100
AcDbLine
 10
210.279772
 20
361.833301
 11
218.690272
 21
366.689101
  0
LINE
  5
166
100
AcDbEntity
  8
M1
  6
CONTINUOUS
370
13
 62
     7
100
AcDbLine
 10
210.612772
 20
334.879101
 11
218.853772
 21
330.121201
  0
LINE
  5
167
100
AcDbEntity
  8
M1
  6
CONTINUOUS
370
13
 62
     7
100
AcDbLine
 10
600.197272
 20
330.334901
 11
608.370172
 21
335.053601
  0
LINE
  5
168
100
AcDbEntity
  8
M1
  6
CONTINUOUS
370
13
 62
     7
100
AcDbLine
 10
599.920672
 20
366.729401
 11
607.845572
 21
362.154001
  0
LINE
  5
169
100
AcDbEntity
  8
M1
  6
CONTINUOUS
370
13
 62
     7
100
AcDbLine
 10
654.998382
 20
334.930301
 11
663.239402
 21
330.172401
  0
LINE
  5
16A
100
AcDbEntity
  8
M1
  6
CONTINUOUS
370
13
 62
     7
100
AcDbLine
 10
655.004232
 20
361.977701
 11
663.307272
 21
366.771501
  0
LINE
  5
16B
100
AcDbEntity
  8
M1
  6
CONTINUOUS
370
13
 62
     7
100
AcDbLine
 10
187.103472
 20
321.458601
 11
187.103472
 21
311.536801
  0
LINE
  5
16C
100
AcDbEntity
  8
M1
  6
CONTINUOUS
370
13
 62
     7
100
AcDbLine
 10
187.103472
 20
350.635201
 11
187.103472
 21
346.210001
  0
LINE
  5
16D
100
AcDbEntity
  8
M1
  6
CONTINUOUS
370
13
 62
     7
100
AcDbLine
 10
481.011272
 20
348.452301
 11
490.758272
 21
348.452301
  0
LINE
  5
16E
100
AcDbEntity
  8
M1
  6
CONTINUOUS
370
13
 62
     7
100
AcDbLine
 10
631.577572
 20
350.652801
 11
631.577572
 21
346.343501
  0
LINE
  5
16F
100
AcDbEntity
  8
M1
  6
CONTINUOUS
370
13
 62
     7
100
AcDbLine
 10
631.577572
 20
321.661001
 11
631.577572
 21
311.734801
  0
LINE
  5
170
100
AcDbEntity
  8
M1
  6
CONTINUOUS
370
25
 62
     7
100
AcDbLine
 10
171.649872
 20
406.428001
 11
170.847372
 21
410.979101
  0
LINE
  5
171
100
AcDbEntity
  8
M1
  6
CONTINUOUS
370
25
 62
     7
100
AcDbLine
 10
177.516272
 20
415.201501
 11
173.280872
 21
414.454501
  0
LINE
  5
172
100
AcDbEntity
  8
M1
  6
CONTINUOUS
370
25
 62
     7
100
AcDbLine
 10
181.794272
 20
408.216901
 11
180.991872
 21
412.768001
  0
LINE
  5
173
100
AcDbEntity
  8
M1
  6
CONTINUOUS
370
25
 62
     7
100
AcDbLine
 10
192.412572
 20
408.217001
 11
193.215072
 21
412.768001
  0
LINE
  5
174
100
AcDbEntity
  8
M1
  6
CONTINUOUS
370
25
 62
     7
100
AcDbLine
 10
196.690572
 20
415.201501
 11
200.926072
 21
414.454401
  0
LINE
  5
175
100
AcDbEntity
  8
M1
  6
CONTINUOUS
370
25
 62
     7
100
AcDbLine
 10
202.556872
 20
406.428101
 11
203.359272
 21
410.979101
  0
LINE
  5
176
100
AcDbEntity
  8
M1
  6
CONTINUOUS
370
25
 62
     7
100
AcDbLine
 10
616.124072
 20
406.428101
 11
615.321672
 21
410.979101
  0
LINE
  5
177
100
AcDbEntity
  8
M1
  6
CONTINUOUS
370
25
 62
     7
100
AcDbLine
 10
621.990272
 20
415.201501
 11
617.754972
 21
414.454401
  0
LINE
  5
178
100
AcDbEntity
  8
M1
  6
CONTINUOUS
370
25
 62
     7
100
AcDbLine
 10
626.268352
 20
408.216901
 11
625.465882
 21
412.768001
  0
LINE
  5
179
100
AcDbEntity
  8
M1
  6
CONTINUOUS
370
25
 62
     7
100
AcDbLine
 10
636.886732
 20
408.217001
 11
637.689202
 21
412.768001
  0
LINE
  5
17A
100
AcDbEntity
  8
M1
  6
CONTINUOUS
370
25
 62
     7
100
AcDbLine
 10
641.164782
 20
415.201501
 11
645.400142
 21
414.454401
  0
LINE
  5
17B
100
AcDbEntity
  8
M1
  6
CONTINUOUS
370
25
 62
     7
100
AcDbLine
 10
647.031012
 20
406.428101
 11
647.833432
 21
410.979001
  0
LINE
  5
17C
100
AcDbEntity
  8
M1
  6
CONTINUOUS
370
25
 62
     7
100
AcDbLine
 10
400.963072
 20
411.828301
 11
400.963072
 21
408.452301
  0
LINE
  5
17D
100
AcDbEntity
  8
M1
  6
CONTINUOUS
370
25
 62
     7
100
AcDbLine
 10
414.717872
 20
414.828301
 11
403.963072
 21
414.828301
  0
LINE
  5
17E
100
AcDbEntity
  8
M1
  6
CONTINUOUS
370
25
 62
     7
100
AcDbLine
 10
417.717872
 20
408.452301
 11
417.717872
 21
411.828301
  0
LINE
  5
17F
100
AcDbEntity
  8
M1
  6
CONTINUOUS
370
25
 62
     7
100
AcDbLine
 10
358.840472
 20
355.952301
 11
358.840472
 21
340.952301
  0
LINE
  5
180
100
AcDbEntity
  8
M1
  6
CONTINUOUS
370
25
 62
     7
100
AcDbLine
 10
459.840472
 20
355.952301
 11
459.840472
 21
340.952301
  0
ARC
  5
181
100
AcDbEntity
  8
M1
  6
CONTINUOUS
370
25
 62
     7
100
AcDbCircle
 10
381.788272
 20
388.452301
 40
2.0
100
AcDbArc
 50
270.0
 51
340.345598
  0
ARC
  5
182
100
AcDbEntity
  8
M1
  6
CONTINUOUS
370
25
 62
     7
100
AcDbCircle
 10
386.340472
 20
401.452301
 40
1.0
100
AcDbArc
 50
90.0
 51
180.0
  0
ARC
  5
183
100
AcDbEntity
  8
M1
  6
CONTINUOUS
370
25
 62
     7
100
AcDbCircle
 10
432.340472
 20
401.452301
 40
1.0
100
AcDbArc
 50
0.0
 51
90.0
  0
ARC
  5
184
100
AcDbEntity
  8
M1
  6
CONTINUOUS
370
25
 62
     7
100
AcDbCircle
 10
436.892772
 20
388.452301
 40
2.000024
100
AcDbArc
 50
199.654402
 51
270.0
  0
ARC
  5
185
100
AcDbEntity
  8
M1
  6
CONTINUOUS
370
25
 62
     7
100
AcDbCircle
 10
355.840472
 20
348.452301
 40
2.0
100
AcDbArc
 50
270.0
 51
450.0
  0
ARC
  5
186
100
AcDbEntity
  8
M1
  6
CONTINUOUS
370
25
 62
     7
100
AcDbCircle
 10
381.788272
 20
308.452301
 40
2.000024
100
AcDbArc
 50
19.654402
 51
90.0
  0
ARC
  5
187
100
AcDbEntity
  8
M1
  6
CONTINUOUS
370
25
 62
     7
100
AcDbCircle
 10
386.340472
 20
295.452301
 40
1.0
100
AcDbArc
 50
180.0
 51
270.0
  0
ARC
  5
188
100
AcDbEntity
  8
M1
  6
CONTINUOUS
370
25
 62
     7
100
AcDbCircle
 10
432.340472
 20
295.452301
 40
1.0
100
AcDbArc
 50
270.0
 51
360.0
  0
ARC
  5
189
100
AcDbEntity
  8
M1
  6
CONTINUOUS
370
25
 62
     7
100
AcDbCircle
 10
436.892772
 20
308.452301
 40
2.0
100
AcDbArc
 50
90.0
 51
160.345598
  0
ARC
  5
18A
100
AcDbEntity
  8
M1
  6
CONTINUOUS
370
25
 62
     7
100
AcDbCircle
 10
462.840472
 20
348.452301
 40
2.0
100
AcDbArc
 50
90.0
 51
270.0
  0
ARC
  5
18B
100
AcDbEntity
  8
M1
  6
CONTINUOUS
370
25
 62
     7
100
AcDbCircle
 10
385.633472
 20
375.309501
 40
2.999943
100
AcDbArc
 50
183.954713
 51
206.834104
  0
ARC
  5
18C
100
AcDbEntity
  8
M1
  6
CONTINUOUS
370
25
 62
     7
100
AcDbCircle
 10
385.633472
 20
369.595201
 40
2.999987
100
AcDbArc
 50
153.164192
 51
176.045287
  0
CIRCLE
  5
18D
100
AcDbEntity
  8
M1
  6
CONTINUOUS
370
25
 62
     7
100
AcDbCircle
 10
187.103472
 20
348.452301
 40
54.0
  0
CIRCLE
  5
18E
100
AcDbEntity
  8
M1
  6
CONTINUOUS
370
25
 62
     7
100
AcDbCircle
 10
228.672772
 20
372.452401
 40
2.75
  0
CIRCLE
  5
18F
100
AcDbEntity
  8
M1
  6
CONTINUOUS
370
25
 62
     7
100
AcDbCircle
 10
187.103472
 20
396.452301
 40
2.75
  0
CIRCLE
  5
190
100
AcDbEntity
  8
M1
  6
CONTINUOUS
370
25
 62
     7
100
AcDbCircle
 10
145.534072
 20
372.452301
 40
2.75
  0
CIRCLE
  5
191
100
AcDbEntity
  8
M1
  6
CONTINUOUS
370
25
 62
     7
100
AcDbCircle
 10
145.534072
 20
324.452201
 40
2.75
  0
CIRCLE
  5
192
100
AcDbEntity
  8
M1
  6
CONTINUOUS
370
25
 62
     7
100
AcDbCircle
 10
187.103472
 20
300.452101
 40
2.75
  0
CIRCLE
  5
193
100
AcDbEntity
  8
M1
  6
CONTINUOUS
370
25
 62
     7
100
AcDbCircle
 10
228.672772
 20
324.452201
 40
2.75
  0
ARC
  5
194
100
AcDbEntity
  8
M1
  6
CONTINUOUS
370
25
 62
     7
100
AcDbCircle
 10
385.633472
 20
399.309501
 40
2.999943
100
AcDbArc
 50
183.954713
 51
206.835808
  0
ARC
  5
195
100
AcDbEntity
  8
M1
  6
CONTINUOUS
370
25
 62
     7
100
AcDbCircle
 10
385.633472
 20
393.595101
 40
2.999987
100
AcDbArc
 50
153.164192
 51
176.045287
  0
ARC
  5
196
100
AcDbEntity
  8
M1
  6
CONTINUOUS
370
25
 62
     7
100
AcDbCircle
 10
385.633472
 20
297.595101
 40
2.999987
100
AcDbArc
 50
153.164192
 51
176.045287
  0
ARC
  5
197
100
AcDbEntity
  8
M1
  6
CONTINUOUS
370
25
 62
     7
100
AcDbCircle
 10
385.633472
 20
321.595101
 40
2.999942
100
AcDbArc
 50
153.165896
 51
176.045287
  0
ARC
  5
198
100
AcDbEntity
  8
M1
  6
CONTINUOUS
370
25
 62
     7
100
AcDbCircle
 10
385.633472
 20
303.309501
 40
2.999943
100
AcDbArc
 50
183.954713
 51
206.835808
  0
ARC
  5
199
100
AcDbEntity
  8
M1
  6
CONTINUOUS
370
25
 62
     7
100
AcDbCircle
 10
385.633472
 20
327.309401
 40
2.999943
100
AcDbArc
 50
183.954713
 51
206.835808
  0
ARC
  5
19A
100
AcDbEntity
  8
M1
  6
CONTINUOUS
370
25
 62
     7
100
AcDbCircle
 10
433.047572
 20
399.309501
 40
2.999987
100
AcDbArc
 50
333.164192
 51
356.045287
  0
ARC
  5
19B
100
AcDbEntity
  8
M1
  6
CONTINUOUS
370
25
 62
     7
100
AcDbCircle
 10
433.047572
 20
375.309501
 40
2.999942
100
AcDbArc
 50
333.165896
 51
356.045287
  0
ARC
  5
19C
100
AcDbEntity
  8
M1
  6
CONTINUOUS
370
25
 62
     7
100
AcDbCircle
 10
433.047572
 20
393.595101
 40
2.999943
100
AcDbArc
 50
3.954713
 51
26.835808
  0
ARC
  5
19D
100
AcDbEntity
  8
M1
  6
CONTINUOUS
370
25
 62
     7
100
AcDbCircle
 10
433.047572
 20
369.595201
 40
2.999943
100
AcDbArc
 50
3.954713
 51
26.835808
  0
ARC
  5
19E
100
AcDbEntity
  8
M1
  6
CONTINUOUS
370
25
 62
     7
100
AcDbCircle
 10
433.047572
 20
297.595101
 40
2.999943
100
AcDbArc
 50
3.954713
 51
26.835808
  0
ARC
  5
19F
100
AcDbEntity
  8
M1
  6
CONTINUOUS
370
25
 62
     7
100
AcDbCircle
 10
433.047572
 20
321.595101
 40
2.999943
100
AcDbArc
 50
3.954713
 51
26.834104
  0
ARC
  5
1A0
100
AcDbEntity
  8
M1
  6
CONTINUOUS
370
25
 62
     7
100
AcDbCircle
 10
433.047572
 20
303.309501
 40
2.999987
100
AcDbArc
 50
333.164192
 51
356.045287
  0
ARC
  5
1A1
100
AcDbEntity
  8
M1
  6
CONTINUOUS
370
25
 62
     7
100
AcDbCircle
 10
433.047572
 20
327.309401
 40
2.999942
100
AcDbArc
 50
333.165896
 51
356.045287
  0
ARC
  5
1A2
100
AcDbEntity
  8
M1
  6
CONTINUOUS
370
25
 62
     7
100
AcDbCircle
 10
187.103472
 20
348.452301
 40
5.000022
100
AcDbArc
 50
23.578067
 51
336.421933
  0
ARC
  5
1A3
100
AcDbEntity
  8
M1
  6
CONTINUOUS
370
13
 62
     7
100
AcDbCircle
 10
187.103472
 20
348.452301
 40
31.999992
100
AcDbArc
 50
22.659655
 51
38.613893
  0
CIRCLE
  5
1A4
100
AcDbEntity
  8
M1
  6
CONTINUOUS
370
13
 62
     7
100
AcDbCircle
 10
214.816372
 20
364.452401
 40
2.5
  0
CIRCLE
  5
1A5
100
AcDbEntity
  8
M1
  6
CONTINUOUS
370
25
 62
     7
100
AcDbCircle
 10
214.816372
 20
364.452401
 40
2.065
  0
ARC
  5
1A6
100
AcDbEntity
  8
M1
  6
CONTINUOUS
370
25
 62
     7
100
AcDbCircle
 10
214.816372
 20
364.452401
 40
6.000041
100
AcDbArc
 50
299.999773
 51
480.00025
  0
CIRCLE
  5
1A7
100
AcDbEntity
  8
M1
  6
CONTINUOUS
370
25
 62
     7
100
AcDbCircle
 10
187.103472
 20
348.452301
 40
17.5
  0
ARC
  5
1A8
100
AcDbEntity
  8
M1
  6
CONTINUOUS
370
25
 62
     7
100
AcDbCircle
 10
187.103472
 20
348.452301
 40
23.000017
100
AcDbArc
 50
351.100105
 51
368.899649
  0
ARC
  5
1A9
100
AcDbEntity
  8
M1
  6
CONTINUOUS
370
25
 62
     7
100
AcDbCircle
 10
187.103472
 20
348.452301
 40
29.99994
100
AcDbArc
 50
348.749022
 51
371.250753
  0
ARC
  5
1AA
100
AcDbEntity
  8
M1
  6
CONTINUOUS
370
25
 62
     7
100
AcDbCircle
 10
214.565372
 20
353.915101
 40
1.999954
100
AcDbArc
 50
11.253748
 51
119.999295
  0
ARC
  5
1AB
100
AcDbEntity
  8
M1
  6
CONTINUOUS
370
25
 62
     7
100
AcDbCircle
 10
214.565372
 20
342.989501
 40
2.000043
100
AcDbArc
 50
240.000705
 51
348.746252
  0
ARC
  5
1AC
100
AcDbEntity
  8
M1
  6
CONTINUOUS
370
25
 62
     7
100
AcDbCircle
 10
211.802472
 20
352.320001
 40
1.999956
100
AcDbArc
 50
120.000728
 51
188.90233
  0
ARC
  5
1AD
100
AcDbEntity
  8
M1
  6
CONTINUOUS
370
25
 62
     7
100
AcDbCircle
 10
211.802472
 20
344.584601
 40
2.000076
100
AcDbArc
 50
171.100944
 51
239.999272
  0
ARC
  5
1AE
100
AcDbEntity
  8
M1
  6
CONTINUOUS
370
25
 62
     7
100
AcDbCircle
 10
209.778272
 20
352.306001
 40
2.000043
100
AcDbArc
 50
119.999295
 51
189.647876
  0
ARC
  5
1AF
100
AcDbEntity
  8
M1
  6
CONTINUOUS
370
25
 62
     7
100
AcDbCircle
 10
209.778272
 20
344.598601
 40
2.000089
100
AcDbArc
 50
170.352124
 51
240.000705
  0
ARC
  5
1B0
100
AcDbEntity
  8
M1
  6
CONTINUOUS
370
25
 62
     7
100
AcDbCircle
 10
201.778272
 20
366.162401
 40
2.000008
100
AcDbArc
 50
230.353619
 51
299.999295
  0
ARC
  5
1B1
100
AcDbEntity
  8
M1
  6
CONTINUOUS
370
13
 62
     7
100
AcDbCircle
 10
187.103472
 20
348.452301
 40
32.000046
100
AcDbArc
 50
82.659696
 51
98.613696
  0
CIRCLE
  5
1B2
100
AcDbEntity
  8
M1
  6
CONTINUOUS
370
13
 62
     7
100
AcDbCircle
 10
187.103472
 20
380.452301
 40
2.5
  0
CIRCLE
  5
1B3
100
AcDbEntity
  8
M1
  6
CONTINUOUS
370
25
 62
     7
100
AcDbCircle
 10
187.103472
 20
380.452301
 40
2.065
  0
ARC
  5
1B4
100
AcDbEntity
  8
M1
  6
CONTINUOUS
370
25
 62
     7
100
AcDbCircle
 10
187.103472
 20
380.452301
 40
6.0
100
AcDbArc
 50
0.0
 51
180.0
  0
ARC
  5
1B5
100
AcDbEntity
  8
M1
  6
CONTINUOUS
370
25
 62
     7
100
AcDbCircle
 10
187.103472
 20
348.452301
 40
22.999974
100
AcDbArc
 50
51.100109
 51
68.899801
  0
ARC
  5
1B6
100
AcDbEntity
  8
M1
  6
CONTINUOUS
370
25
 62
     7
100
AcDbCircle
 10
187.103472
 20
348.452301
 40
29.999993
100
AcDbArc
 50
48.749162
 51
71.250753
  0
ARC
  5
1B7
100
AcDbEntity
  8
M1
  6
CONTINUOUS
370
25
 62
     7
100
AcDbCircle
 10
196.103472
 20
374.966501
 40
1.999918
100
AcDbArc
 50
71.251586
 51
180.0
  0
ARC
  5
1B8
100
AcDbEntity
  8
M1
  6
CONTINUOUS
370
25
 62
     7
100
AcDbCircle
 10
205.565372
 20
369.503601
 40
2.000043
100
AcDbArc
 50
299.999295
 51
408.746162
  0
ARC
  5
1B9
100
AcDbEntity
  8
M1
  6
CONTINUOUS
370
25
 62
     7
100
AcDbCircle
 10
196.103472
 20
371.776101
 40
2.0
100
AcDbArc
 50
180.0
 51
248.899756
  0
ARC
  5
1BA
100
AcDbEntity
  8
M1
  6
CONTINUOUS
370
25
 62
     7
100
AcDbCircle
 10
202.802472
 20
367.908401
 40
2.000057
100
AcDbArc
 50
231.098599
 51
299.999295
  0
ARC
  5
1BB
100
AcDbEntity
  8
M1
  6
CONTINUOUS
370
25
 62
     7
100
AcDbCircle
 10
195.103472
 20
370.016101
 40
2.0
100
AcDbArc
 50
180.0
 51
249.646814
  0
ARC
  5
1BC
100
AcDbEntity
  8
M1
  6
CONTINUOUS
370
25
 62
     7
100
AcDbCircle
 10
179.103472
 20
370.016101
 40
2.000059
100
AcDbArc
 50
290.352189
 51
360.0
  0
ARC
  5
1BD
100
AcDbEntity
  8
M1
  6
CONTINUOUS
370
13
 62
     7
100
AcDbCircle
 10
187.103472
 20
348.452301
 40
31.999978
100
AcDbArc
 50
142.659734
 51
158.61377
  0
CIRCLE
  5
1BE
100
AcDbEntity
  8
M1
  6
CONTINUOUS
370
13
 62
     7
100
AcDbCircle
 10
159.390572
 20
364.452301
 40
2.5
  0
CIRCLE
  5
1BF
100
AcDbEntity
  8
M1
  6
CONTINUOUS
370
25
 62
     7
100
AcDbCircle
 10
159.390572
 20
364.452301
 40
2.065
  0
ARC
  5
1C0
100
AcDbEntity
  8
M1
  6
CONTINUOUS
370
25
 62
     7
100
AcDbCircle
 10
159.390572
 20
364.452301
 40
6.000041
100
AcDbArc
 50
60.000227
 51
240.000227
  0
ARC
  5
1C1
100
AcDbEntity
  8
M1
  6
CONTINUOUS
370
25
 62
     7
100
AcDbCircle
 10
187.103472
 20
348.452301
 40
22.999997
100
AcDbArc
 50
111.100199
 51
128.899734
  0
ARC
  5
1C2
100
AcDbEntity
  8
M1
  6
CONTINUOUS
370
25
 62
     7
100
AcDbCircle
 10
187.103472
 20
348.452301
 40
30.000062
100
AcDbArc
 50
108.749185
 51
131.250838
  0
ARC
  5
1C3
100
AcDbEntity
  8
M1
  6
CONTINUOUS
370
25
 62
     7
100
AcDbCircle
 10
168.641572
 20
369.503601
 40
2.000087
100
AcDbArc
 50
131.251949
 51
239.999272
  0
ARC
  5
1C4
100
AcDbEntity
  8
M1
  6
CONTINUOUS
370
25
 62
     7
100
AcDbCircle
 10
178.103472
 20
374.966401
 40
2.0
100
AcDbArc
 50
0.0
 51
108.747493
  0
ARC
  5
1C5
100
AcDbEntity
  8
M1
  6
CONTINUOUS
370
25
 62
     7
100
AcDbCircle
 10
171.404472
 20
367.908401
 40
1.999956
100
AcDbArc
 50
239.999272
 51
308.899171
  0
ARC
  5
1C6
100
AcDbEntity
  8
M1
  6
CONTINUOUS
370
25
 62
     7
100
AcDbCircle
 10
178.103472
 20
371.776101
 40
1.999996
100
AcDbArc
 50
291.100244
 51
360.0
  0
ARC
  5
1C7
100
AcDbEntity
  8
M1
  6
CONTINUOUS
370
25
 62
     7
100
AcDbCircle
 10
172.428672
 20
366.162401
 40
1.999956
100
AcDbArc
 50
239.999272
 51
309.648209
  0
ARC
  5
1C8
100
AcDbEntity
  8
M1
  6
CONTINUOUS
370
25
 62
     7
100
AcDbCircle
 10
164.428672
 20
352.306001
 40
1.99999
100
AcDbArc
 50
350.351644
 51
420.000705
  0
ARC
  5
1C9
100
AcDbEntity
  8
M1
  6
CONTINUOUS
370
13
 62
     7
100
AcDbCircle
 10
187.103472
 20
348.452301
 40
31.999992
100
AcDbArc
 50
202.659655
 51
218.613782
  0
CIRCLE
  5
1CA
100
AcDbEntity
  8
M1
  6
CONTINUOUS
370
13
 62
     7
100
AcDbCircle
 10
159.390572
 20
332.452201
 40
2.5
  0
CIRCLE
  5
1CB
100
AcDbEntity
  8
M1
  6
CONTINUOUS
370
25
 62
     7
100
AcDbCircle
 10
159.390572
 20
332.452201
 40
2.065
  0
ARC
  5
1CC
100
AcDbEntity
  8
M1
  6
CONTINUOUS
370
25
 62
     7
100
AcDbCircle
 10
159.390572
 20
332.452201
 40
6.000041
100
AcDbArc
 50
119.999773
 51
300.00025
  0
ARC
  5
1CD
100
AcDbEntity
  8
M1
  6
CONTINUOUS
370
25
 62
     7
100
AcDbCircle
 10
187.103472
 20
348.452301
 40
23.000017
100
AcDbArc
 50
171.100105
 51
188.899649
  0
ARC
  5
1CE
100
AcDbEntity
  8
M1
  6
CONTINUOUS
370
25
 62
     7
100
AcDbCircle
 10
187.103472
 20
348.452301
 40
30.000038
100
AcDbArc
 50
168.74906
 51
191.250753
  0
ARC
  5
1CF
100
AcDbEntity
  8
M1
  6
CONTINUOUS
370
25
 62
     7
100
AcDbCircle
 10
159.641572
 20
342.989501
 40
2.000052
100
AcDbArc
 50
191.253189
 51
299.999295
  0
ARC
  5
1D0
100
AcDbEntity
  8
M1
  6
CONTINUOUS
370
25
 62
     7
100
AcDbCircle
 10
159.641572
 20
353.915101
 40
2.000043
100
AcDbArc
 50
60.000705
 51
168.746811
  0
ARC
  5
1D1
100
AcDbEntity
  8
M1
  6
CONTINUOUS
370
25
 62
     7
100
AcDbCircle
 10
162.404472
 20
344.584601
 40
1.999956
100
AcDbArc
 50
300.000728
 51
368.90233
  0
ARC
  5
1D2
100
AcDbEntity
  8
M1
  6
CONTINUOUS
370
25
 62
     7
100
AcDbCircle
 10
162.404472
 20
352.320001
 40
2.000076
100
AcDbArc
 50
351.100944
 51
419.999272
  0
ARC
  5
1D3
100
AcDbEntity
  8
M1
  6
CONTINUOUS
370
25
 62
     7
100
AcDbCircle
 10
164.428672
 20
344.598601
 40
2.000043
100
AcDbArc
 50
299.999295
 51
369.648356
  0
ARC
  5
1D4
100
AcDbEntity
  8
M1
  6
CONTINUOUS
370
25
 62
     7
100
AcDbCircle
 10
172.428672
 20
330.742201
 40
2.000008
100
AcDbArc
 50
50.353619
 51
119.999295
  0
ARC
  5
1D5
100
AcDbEntity
  8
M1
  6
CONTINUOUS
370
13
 62
     7
100
AcDbCircle
 10
187.103472
 20
348.452301
 40
32.000046
100
AcDbArc
 50
262.659696
 51
278.613696
  0
CIRCLE
  5
1D6
100
AcDbEntity
  8
M1
  6
CONTINUOUS
370
13
 62
     7
100
AcDbCircle
 10
187.103472
 20
316.452201
 40
2.5
  0
CIRCLE
  5
1D7
100
AcDbEntity
  8
M1
  6
CONTINUOUS
370
25
 62
     7
100
AcDbCircle
 10
187.103472
 20
316.452201
 40
2.065
  0
ARC
  5
1D8
100
AcDbEntity
  8
M1
  6
CONTINUOUS
370
25
 62
     7
100
AcDbCircle
 10
187.103472
 20
316.452201
 40
6.0
100
AcDbArc
 50
180.0
 51
360.0
  0
CIRCLE
  5
1D9
100
AcDbEntity
  8
M1
  6
CONTINUOUS
370
25
 62
     7
100
AcDbCircle
 10
187.103472
 20
348.452301
 40
21.0
  0
ARC
  5
1DA
100
AcDbEntity
  8
M1
  6
CONTINUOUS
370
25
 62
     7
100
AcDbCircle
 10
187.103472
 20
348.452301
 40
22.999974
100
AcDbArc
 50
231.100109
 51
248.899801
  0
ARC
  5
1DB
100
AcDbEntity
  8
M1
  6
CONTINUOUS
370
25
 62
     7
100
AcDbCircle
 10
187.103472
 20
348.452301
 40
29.999993
100
AcDbArc
 50
228.749162
 51
251.250753
  0
ARC
  5
1DC
100
AcDbEntity
  8
M1
  6
CONTINUOUS
370
25
 62
     7
100
AcDbCircle
 10
178.103472
 20
321.938101
 40
1.999918
100
AcDbArc
 50
251.251586
 51
360.0
  0
ARC
  5
1DD
100
AcDbEntity
  8
M1
  6
CONTINUOUS
370
25
 62
     7
100
AcDbCircle
 10
168.641572
 20
327.401001
 40
2.000043
100
AcDbArc
 50
119.999295
 51
228.746162
  0
ARC
  5
1DE
100
AcDbEntity
  8
M1
  6
CONTINUOUS
370
25
 62
     7
100
AcDbCircle
 10
178.103472
 20
325.128501
 40
2.0
100
AcDbArc
 50
0.0
 51
68.899756
  0
ARC
  5
1DF
100
AcDbEntity
  8
M1
  6
CONTINUOUS
370
25
 62
     7
100
AcDbCircle
 10
171.404472
 20
328.996201
 40
1.999994
100
AcDbArc
 50
51.100829
 51
119.999295
  0
ARC
  5
1E0
100
AcDbEntity
  8
M1
  6
CONTINUOUS
370
25
 62
     7
100
AcDbCircle
 10
179.103472
 20
326.888501
 40
2.0
100
AcDbArc
 50
0.0
 51
69.650496
  0
ARC
  5
1E1
100
AcDbEntity
  8
M1
  6
CONTINUOUS
370
25
 62
     7
100
AcDbCircle
 10
195.103472
 20
326.888501
 40
2.000059
100
AcDbArc
 50
110.352189
 51
180.0
  0
ARC
  5
1E2
100
AcDbEntity
  8
M1
  6
CONTINUOUS
370
13
 62
     7
100
AcDbCircle
 10
187.103472
 20
348.452301
 40
31.999978
100
AcDbArc
 50
322.659734
 51
338.61377
  0
CIRCLE
  5
1E3
100
AcDbEntity
  8
M1
  6
CONTINUOUS
370
13
 62
     7
100
AcDbCircle
 10
214.816372
 20
332.452201
 40
2.5
  0
CIRCLE
  5
1E4
100
AcDbEntity
  8
M1
  6
CONTINUOUS
370
25
 62
     7
100
AcDbCircle
 10
214.816372
 20
332.452201
 40
2.065
  0
ARC
  5
1E5
100
AcDbEntity
  8
M1
  6
CONTINUOUS
370
25
 62
     7
100
AcDbCircle
 10
214.816372
 20
332.452201
 40
5.999955
100
AcDbArc
 50
239.99975
 51
420.000227
  0
ARC
  5
1E6
100
AcDbEntity
  8
M1
  6
CONTINUOUS
370
25
 62
     7
100
AcDbCircle
 10
187.103472
 20
348.452301
 40
22.999997
100
AcDbArc
 50
291.100199
 51
308.89954
  0
ARC
  5
1E7
100
AcDbEntity
  8
M1
  6
CONTINUOUS
370
25
 62
     7
100
AcDbCircle
 10
187.103472
 20
348.452301
 40
30.00003
100
AcDbArc
 50
288.749004
 51
311.250694
  0
ARC
  5
1E8
100
AcDbEntity
  8
M1
  6
CONTINUOUS
370
25
 62
     7
100
AcDbCircle
 10
205.565372
 20
327.401001
 40
2.000021
100
AcDbArc
 50
311.249795
 51
419.999272
  0
ARC
  5
1E9
100
AcDbEntity
  8
M1
  6
CONTINUOUS
370
25
 62
     7
100
AcDbCircle
 10
196.103472
 20
321.938201
 40
2.0
100
AcDbArc
 50
180.0
 51
288.74478
  0
ARC
  5
1EA
100
AcDbEntity
  8
M1
  6
CONTINUOUS
370
25
 62
     7
100
AcDbCircle
 10
202.802472
 20
328.996201
 40
1.999956
100
AcDbArc
 50
59.999272
 51
128.901401
  0
ARC
  5
1EB
100
AcDbEntity
  8
M1
  6
CONTINUOUS
370
25
 62
     7
100
AcDbCircle
 10
196.103472
 20
325.128501
 40
1.999996
100
AcDbArc
 50
111.100244
 51
180.0
  0
ARC
  5
1EC
100
AcDbEntity
  8
M1
  6
CONTINUOUS
370
25
 62
     7
100
AcDbCircle
 10
201.778272
 20
330.742201
 40
2.000043
100
AcDbArc
 50
60.000705
 51
129.646381
  0
CIRCLE
  5
1ED
100
AcDbEntity
  8
M1
  6
CONTINUOUS
370
25
 62
     7
100
AcDbCircle
 10
206.353472
 20
381.794301
 40
5.0
  0
CIRCLE
  5
1EE
100
AcDbEntity
  8
M1
  6
CONTINUOUS
370
25
 62
     7
100
AcDbCircle
 10
167.853472
 20
315.110401
 40
5.0
  0
CIRCLE
  5
1EF
100
AcDbEntity
  8
M1
  6
CONTINUOUS
370
25
 62
     7
100
AcDbCircle
 10
187.103472
 20
348.452301
 40
60.0
  0
CIRCLE
  5
1F0
100
AcDbEntity
  8
M1
  6
CONTINUOUS
370
25
 62
     7
100
AcDbCircle
 10
631.577572
 20
348.452301
 40
54.0
  0
CIRCLE
  5
1F1
100
AcDbEntity
  8
M1
  6
CONTINUOUS
370
25
 62
     7
100
AcDbCircle
 10
590.008272
 20
372.452401
 40
2.75
  0
CIRCLE
  5
1F2
100
AcDbEntity
  8
M1
  6
CONTINUOUS
370
25
 62
     7
100
AcDbCircle
 10
631.577572
 20
396.452301
 40
2.75
  0
CIRCLE
  5
1F3
100
AcDbEntity
  8
M1
  6
CONTINUOUS
370
25
 62
     7
100
AcDbCircle
 10
673.146912
 20
372.452301
 40
2.75
  0
CIRCLE
  5
1F4
100
AcDbEntity
  8
M1
  6
CONTINUOUS
370
25
 62
     7
100
AcDbCircle
 10
673.146912
 20
324.452201
 40
2.75
  0
CIRCLE
  5
1F5
100
AcDbEntity
  8
M1
  6
CONTINUOUS
370
25
 62
     7
100
AcDbCircle
 10
631.577572
 20
300.452101
 40
2.75
  0
CIRCLE
  5
1F6
100
AcDbEntity
  8
M1
  6
CONTINUOUS
370
25
 62
     7
100
AcDbCircle
 10
590.008272
 20
324.452201
 40
2.75
  0
ARC
  5
1F7
100
AcDbEntity
  8
M1
  6
CONTINUOUS
370
25
 62
     7
100
AcDbCircle
 10
631.577572
 20
348.452301
 40
4.999995
100
AcDbArc
 50
203.578205
 51
516.421795
  0
ARC
  5
1F8
100
AcDbEntity
  8
M1
  6
CONTINUOUS
370
13
 62
     7
100
AcDbCircle
 10
631.577572
 20
348.452301
 40
32.000061
100
AcDbArc
 50
141.386218
 51
157.340345
  0
CIRCLE
  5
1F9
100
AcDbEntity
  8
M1
  6
CONTINUOUS
370
13
 62
     7
100
AcDbCircle
 10
603.864672
 20
364.452401
 40
2.5
  0
CIRCLE
  5
1FA
100
AcDbEntity
  8
M1
  6
CONTINUOUS
370
25
 62
     7
100
AcDbCircle
 10
603.864672
 20
364.452401
 40
2.065
  0
ARC
  5
1FB
100
AcDbEntity
  8
M1
  6
CONTINUOUS
370
25
 62
     7
100
AcDbCircle
 10
603.864672
 20
364.452401
 40
5.999955
100
AcDbArc
 50
59.99975
 51
240.000227
  0
CIRCLE
  5
1FC
100
AcDbEntity
  8
M1
  6
CONTINUOUS
370
25
 62
     7
100
AcDbCircle
 10
631.577572
 20
348.452301
 40
17.5
  0
CIRCLE
  5
1FD
100
AcDbEntity
  8
M1
  6
CONTINUOUS
370
25
 62
     7
100
AcDbCircle
 10
631.577572
 20
348.452301
 40
21.0
  0
ARC
  5
1FE
100
AcDbEntity
  8
M1
  6
CONTINUOUS
370
25
 62
     7
100
AcDbCircle
 10
631.577572
 20
348.452301
 40
23.000001
100
AcDbArc
 50
171.100351
 51
188.899895
  0
ARC
  5
1FF
100
AcDbEntity
  8
M1
  6
CONTINUOUS
370
25
 62
     7
100
AcDbCircle
 10
631.577572
 20
348.452301
 40
30.000019
100
AcDbArc
 50
168.749247
 51
191.25094
  0
ARC
  5
200
100
AcDbEntity
  8
M1
  6
CONTINUOUS
370
25
 62
     7
100
AcDbCircle
 10
604.115672
 20
353.915101
 40
2.000043
100
AcDbArc
 50
60.000705
 51
168.746811
  0
ARC
  5
201
100
AcDbEntity
  8
M1
  6
CONTINUOUS
370
25
 62
     7
100
AcDbCircle
 10
604.115672
 20
342.989501
 40
2.000052
100
AcDbArc
 50
191.253189
 51
299.999295
  0
ARC
  5
202
100
AcDbEntity
  8
M1
  6
CONTINUOUS
370
25
 62
     7
100
AcDbCircle
 10
606.878572
 20
352.320001
 40
1.999993
100
AcDbArc
 50
351.09767
 51
419.999272
  0
ARC
  5
203
100
AcDbEntity
  8
M1
  6
CONTINUOUS
370
25
 62
     7
100
AcDbCircle
 10
606.878572
 20
344.584601
 40
2.000006
100
AcDbArc
 50
300.003209
 51
368.899056
  0
ARC
  5
204
100
AcDbEntity
  8
M1
  6
CONTINUOUS
370
25
 62
     7
100
AcDbCircle
 10
608.902772
 20
352.306001
 40
1.99999
100
AcDbArc
 50
350.351644
 51
420.000705
  0
ARC
  5
205
100
AcDbEntity
  8
M1
  6
CONTINUOUS
370
25
 62
     7
100
AcDbCircle
 10
608.902772
 20
344.598601
 40
2.000043
100
AcDbArc
 50
299.999295
 51
369.648356
  0
ARC
  5
206
100
AcDbEntity
  8
M1
  6
CONTINUOUS
370
25
 62
     7
100
AcDbCircle
 10
616.902772
 20
366.162401
 40
2.000043
100
AcDbArc
 50
240.000705
 51
309.646381
  0
ARC
  5
207
100
AcDbEntity
  8
M1
  6
CONTINUOUS
370
13
 62
     7
100
AcDbCircle
 10
631.577572
 20
348.452301
 40
32.000044
100
AcDbArc
 50
81.386269
 51
97.340286
  0
CIRCLE
  5
208
100
AcDbEntity
  8
M1
  6
CONTINUOUS
370
13
 62
     7
100
AcDbCircle
 10
631.577572
 20
380.452301
 40
2.5
  0
CIRCLE
  5
209
100
AcDbEntity
  8
M1
  6
CONTINUOUS
370
25
 62
     7
100
AcDbCircle
 10
631.577572
 20
380.452301
 40
2.06501
  0
ARC
  5
20A
100
AcDbEntity
  8
M1
  6
CONTINUOUS
370
25
 62
     7
100
AcDbCircle
 10
631.577572
 20
380.452301
 40
6.0
100
AcDbArc
 50
0.0
 51
180.0
  0
ARC
  5
20B
100
AcDbEntity
  8
M1
  6
CONTINUOUS
370
25
 62
     7
100
AcDbCircle
 10
631.577572
 20
348.452301
 40
22.999997
100
AcDbArc
 50
111.100199
 51
128.899891
  0
ARC
  5
20C
100
AcDbEntity
  8
M1
  6
CONTINUOUS
370
25
 62
     7
100
AcDbCircle
 10
631.577572
 20
348.452301
 40
29.999968
100
AcDbArc
 50
108.749247
 51
131.250838
  0
ARC
  5
20D
100
AcDbEntity
  8
M1
  6
CONTINUOUS
370
25
 62
     7
100
AcDbCircle
 10
622.577572
 20
374.966501
 40
2.0
100
AcDbArc
 50
0.0
 51
108.748414
  0
ARC
  5
20E
100
AcDbEntity
  8
M1
  6
CONTINUOUS
370
25
 62
     7
100
AcDbCircle
 10
613.115672
 20
369.503601
 40
2.000012
100
AcDbArc
 50
131.253838
 51
240.000705
  0
ARC
  5
20F
100
AcDbEntity
  8
M1
  6
CONTINUOUS
370
25
 62
     7
100
AcDbCircle
 10
622.577572
 20
371.776101
 40
1.999996
100
AcDbArc
 50
291.100244
 51
360.0
  0
ARC
  5
210
100
AcDbEntity
  8
M1
  6
CONTINUOUS
370
25
 62
     7
100
AcDbCircle
 10
615.878572
 20
367.908401
 40
1.999993
100
AcDbArc
 50
240.003186
 51
308.899171
  0
ARC
  5
211
100
AcDbEntity
  8
M1
  6
CONTINUOUS
370
25
 62
     7
100
AcDbCircle
 10
623.577572
 20
370.016101
 40
1.999958
100
AcDbArc
 50
290.352649
 51
360.0
  0
ARC
  5
212
100
AcDbEntity
  8
M1
  6
CONTINUOUS
370
25
 62
     7
100
AcDbCircle
 10
639.577572
 20
370.016101
 40
2.0
100
AcDbArc
 50
180.0
 51
249.648079
  0
ARC
  5
213
100
AcDbEntity
  8
M1
  6
CONTINUOUS
370
13
 62
     7
100
AcDbCircle
 10
631.577572
 20
348.452301
 40
32.0
100
AcDbArc
 50
21.386237
 51
37.340244
  0
CIRCLE
  5
214
100
AcDbEntity
  8
M1
  6
CONTINUOUS
370
13
 62
     7
100
AcDbCircle
 10
659.290462
 20
364.452301
 40
2.5
  0
CIRCLE
  5
215
100
AcDbEntity
  8
M1
  6
CONTINUOUS
370
25
 62
     7
100
AcDbCircle
 10
659.290462
 20
364.452301
 40
2.065
  0
ARC
  5
216
100
AcDbEntity
  8
M1
  6
CONTINUOUS
370
25
 62
     7
100
AcDbCircle
 10
659.290462
 20
364.452301
 40
6.000046
100
AcDbArc
 50
299.999856
 51
479.999773
  0
ARC
  5
217
100
AcDbEntity
  8
M1
  6
CONTINUOUS
370
25
 62
     7
100
AcDbCircle
 10
631.577572
 20
348.452301
 40
23.000027
100
AcDbArc
 50
51.100343
 51
68.899825
  0
ARC
  5
218
100
AcDbEntity
  8
M1
  6
CONTINUOUS
370
25
 62
     7
100
AcDbCircle
 10
631.577572
 20
348.452301
 40
29.99996
100
AcDbArc
 50
48.749234
 51
71.250941
  0
ARC
  5
219
100
AcDbEntity
  8
M1
  6
CONTINUOUS
370
25
 62
     7
100
AcDbCircle
 10
650.039492
 20
369.503601
 40
1.999956
100
AcDbArc
 50
300.000728
 51
408.749559
  0
ARC
  5
21A
100
AcDbEntity
  8
M1
  6
CONTINUOUS
370
25
 62
     7
100
AcDbCircle
 10
640.577572
 20
374.966401
 40
1.999999
100
AcDbArc
 50
71.253592
 51
180.0
  0
ARC
  5
21B
100
AcDbEntity
  8
M1
  6
CONTINUOUS
370
25
 62
     7
100
AcDbCircle
 10
647.276552
 20
367.908401
 40
2.000026
100
AcDbArc
 50
231.099714
 51
300.000728
  0
ARC
  5
21C
100
AcDbEntity
  8
M1
  6
CONTINUOUS
370
25
 62
     7
100
AcDbCircle
 10
640.577572
 20
371.776101
 40
2.0
100
AcDbArc
 50
180.0
 51
248.899222
  0
ARC
  5
21D
100
AcDbEntity
  8
M1
  6
CONTINUOUS
370
25
 62
     7
100
AcDbCircle
 10
646.252382
 20
366.162401
 40
1.999963
100
AcDbArc
 50
230.350688
 51
300.000728
  0
ARC
  5
21E
100
AcDbEntity
  8
M1
  6
CONTINUOUS
370
25
 62
     7
100
AcDbCircle
 10
654.252382
 20
352.306001
 40
2.000043
100
AcDbArc
 50
119.999295
 51
189.64826
  0
ARC
  5
21F
100
AcDbEntity
  8
M1
  6
CONTINUOUS
370
13
 62
     7
100
AcDbCircle
 10
631.577572
 20
348.452301
 40
31.999975
100
AcDbArc
 50
321.386325
 51
337.340345
  0
CIRCLE
  5
220
100
AcDbEntity
  8
M1
  6
CONTINUOUS
370
13
 62
     7
100
AcDbCircle
 10
659.290462
 20
332.452201
 40
2.5
  0
CIRCLE
  5
221
100
AcDbEntity
  8
M1
  6
CONTINUOUS
370
25
 62
     7
100
AcDbCircle
 10
659.290462
 20
332.452201
 40
2.065
  0
ARC
  5
222
100
AcDbEntity
  8
M1
  6
CONTINUOUS
370
25
 62
     7
100
AcDbCircle
 10
659.290462
 20
332.452201
 40
5.99995
100
AcDbArc
 50
239.999832
 51
420.000227
  0
ARC
  5
223
100
AcDbEntity
  8
M1
  6
CONTINUOUS
370
25
 62
     7
100
AcDbCircle
 10
631.577572
 20
348.452301
 40
23.000001
100
AcDbArc
 50
351.100351
 51
368.899899
  0
ARC
  5
224
100
AcDbEntity
  8
M1
  6
CONTINUOUS
370
25
 62
     7
100
AcDbCircle
 10
631.577572
 20
348.452301
 40
30.000009
100
AcDbArc
 50
348.749243
 51
371.250951
  0
ARC
  5
225
100
AcDbEntity
  8
M1
  6
CONTINUOUS
370
25
 62
     7
100
AcDbCircle
 10
659.039492
 20
342.989501
 40
2.000043
100
AcDbArc
 50
240.000705
 51
348.746587
  0
ARC
  5
226
100
AcDbEntity
  8
M1
  6
CONTINUOUS
370
25
 62
     7
100
AcDbCircle
 10
659.039492
 20
353.915101
 40
1.999993
100
AcDbArc
 50
11.253524
 51
119.999295
  0
ARC
  5
227
100
AcDbEntity
  8
M1
  6
CONTINUOUS
370
25
 62
     7
100
AcDbCircle
 10
656.276552
 20
344.584601
 40
2.000013
100
AcDbArc
 50
171.097759
 51
239.999272
  0
ARC
  5
228
100
AcDbEntity
  8
M1
  6
CONTINUOUS
370
25
 62
     7
100
AcDbCircle
 10
656.276552
 20
352.320001
 40
1.999971
100
AcDbArc
 50
120.001472
 51
188.899411
  0
ARC
  5
229
100
AcDbEntity
  8
M1
  6
CONTINUOUS
370
25
 62
     7
100
AcDbCircle
 10
654.252382
 20
344.598601
 40
2.0
100
AcDbArc
 50
170.351692
 51
240.000705
  0
ARC
  5
22A
100
AcDbEntity
  8
M1
  6
CONTINUOUS
370
25
 62
     7
100
AcDbCircle
 10
646.252382
 20
330.742201
 40
2.000043
100
AcDbArc
 50
60.000705
 51
129.646822
  0
ARC
  5
22B
100
AcDbEntity
  8
M1
  6
CONTINUOUS
370
13
 62
     7
100
AcDbCircle
 10
631.577572
 20
348.452301
 40
32.000042
100
AcDbArc
 50
261.386287
 51
277.340304
  0
CIRCLE
  5
22C
100
AcDbEntity
  8
M1
  6
CONTINUOUS
370
13
 62
     7
100
AcDbCircle
 10
631.577572
 20
316.452201
 40
2.5
  0
CIRCLE
  5
22D
100
AcDbEntity
  8
M1
  6
CONTINUOUS
370
25
 62
     7
100
AcDbCircle
 10
631.577572
 20
316.452201
 40
2.06501
  0
ARC
  5
22E
100
AcDbEntity
  8
M1
  6
CONTINUOUS
370
25
 62
     7
100
AcDbCircle
 10
631.577572
 20
316.452201
 40
6.0
100
AcDbArc
 50
180.0
 51
360.0
  0
ARC
  5
22F
100
AcDbEntity
  8
M1
  6
CONTINUOUS
370
25
 62
     7
100
AcDbCircle
 10
631.577572
 20
348.452301
 40
23.000019
100
AcDbArc
 50
291.100338
 51
308.89991
  0
ARC
  5
230
100
AcDbEntity
  8
M1
  6
CONTINUOUS
370
25
 62
     7
100
AcDbCircle
 10
631.577572
 20
348.452301
 40
29.999987
100
AcDbArc
 50
288.749355
 51
311.250895
  0
ARC
  5
231
100
AcDbEntity
  8
M1
  6
CONTINUOUS
370
25
 62
     7
100
AcDbCircle
 10
640.577572
 20
321.938101
 40
2.0
100
AcDbArc
 50
180.0
 51
288.749228
  0
ARC
  5
232
100
AcDbEntity
  8
M1
  6
CONTINUOUS
370
25
 62
     7
100
AcDbCircle
 10
650.039492
 20
327.401001
 40
1.999998
100
AcDbArc
 50
311.253407
 51
420.000705
  0
ARC
  5
233
100
AcDbEntity
  8
M1
  6
CONTINUOUS
370
25
 62
     7
100
AcDbCircle
 10
640.577572
 20
325.128501
 40
1.999985
100
AcDbArc
 50
111.099442
 51
180.0
  0
ARC
  5
234
100
AcDbEntity
  8
M1
  6
CONTINUOUS
370
25
 62
     7
100
AcDbCircle
 10
647.276552
 20
328.996201
 40
2.000028
100
AcDbArc
 50
60.001449
 51
128.899171
  0
ARC
  5
235
100
AcDbEntity
  8
M1
  6
CONTINUOUS
370
25
 62
     7
100
AcDbCircle
 10
639.577572
 20
326.888501
 40
2.000048
100
AcDbArc
 50
110.351384
 51
180.0
  0
ARC
  5
236
100
AcDbEntity
  8
M1
  6
CONTINUOUS
370
25
 62
     7
100
AcDbCircle
 10
623.577572
 20
326.888501
 40
2.0
100
AcDbArc
 50
0.0
 51
69.647811
  0
ARC
  5
237
100
AcDbEntity
  8
M1
  6
CONTINUOUS
370
13
 62
     7
100
AcDbCircle
 10
631.577572
 20
348.452301
 40
32.000009
100
AcDbArc
 50
201.38623
 51
217.340266
  0
CIRCLE
  5
238
100
AcDbEntity
  8
M1
  6
CONTINUOUS
370
13
 62
     7
100
AcDbCircle
 10
603.864672
 20
332.452201
 40
2.5
  0
CIRCLE
  5
239
100
AcDbEntity
  8
M1
  6
CONTINUOUS
370
25
 62
     7
100
AcDbCircle
 10
603.864672
 20
332.452201
 40
2.065
  0
ARC
  5
23A
100
AcDbEntity
  8
M1
  6
CONTINUOUS
370
25
 62
     7
100
AcDbCircle
 10
603.864672
 20
332.452201
 40
6.000041
100
AcDbArc
 50
119.999773
 51
300.00025
  0
ARC
  5
23B
100
AcDbEntity
  8
M1
  6
CONTINUOUS
370
25
 62
     7
100
AcDbCircle
 10
631.577572
 20
348.452301
 40
22.999989
100
AcDbArc
 50
231.10046
 51
248.899801
  0
ARC
  5
23C
100
AcDbEntity
  8
M1
  6
CONTINUOUS
370
25
 62
     7
100
AcDbCircle
 10
631.577572
 20
348.452301
 40
30.000003
100
AcDbArc
 50
228.749432
 51
251.250996
  0
ARC
  5
23D
100
AcDbEntity
  8
M1
  6
CONTINUOUS
370
25
 62
     7
100
AcDbCircle
 10
613.115672
 20
327.401001
 40
1.999956
100
AcDbArc
 50
120.000728
 51
228.750205
  0
ARC
  5
23E
100
AcDbEntity
  8
M1
  6
CONTINUOUS
370
25
 62
     7
100
AcDbCircle
 10
622.577572
 20
321.938201
 40
2.000012
100
AcDbArc
 50
251.252507
 51
360.0
  0
ARC
  5
23F
100
AcDbEntity
  8
M1
  6
CONTINUOUS
370
25
 62
     7
100
AcDbCircle
 10
615.878572
 20
328.996201
 40
2.000057
100
AcDbArc
 50
51.098599
 51
120.000728
  0
ARC
  5
240
100
AcDbEntity
  8
M1
  6
CONTINUOUS
370
25
 62
     7
100
AcDbCircle
 10
622.577572
 20
325.128501
 40
2.0
100
AcDbArc
 50
0.0
 51
68.899756
  0
ARC
  5
241
100
AcDbEntity
  8
M1
  6
CONTINUOUS
370
25
 62
     7
100
AcDbCircle
 10
616.902772
 20
330.742201
 40
2.000008
100
AcDbArc
 50
50.353619
 51
119.999295
  0
CIRCLE
  5
242
100
AcDbEntity
  8
M1
  6
CONTINUOUS
370
25
 62
     7
100
AcDbCircle
 10
612.327572
 20
381.794301
 40
5.0
  0
CIRCLE
  5
243
100
AcDbEntity
  8
M1
  6
CONTINUOUS
370
25
 62
     7
100
AcDbCircle
 10
650.827572
 20
315.110401
 40
5.0
  0
CIRCLE
  5
244
100
AcDbEntity
  8
M1
  6
CONTINUOUS
370
25
 62
     7
100
AcDbCircle
 10
631.577572
 20
348.452301
 40
60.0
  0
ARC
  5
245
100
AcDbEntity
  8
M1
  6
CONTINUOUS
370
25
 62
     7
100
AcDbCircle
 10
200.404872
 20
411.500001
 40
2.999969
100
AcDbArc
 50
350.00076
 51
439.995118
  0
ARC
  5
246
100
AcDbEntity
  8
M1
  6
CONTINUOUS
370
25
 62
     7
100
AcDbCircle
 10
196.169472
 20
412.247101
 40
3.000004
100
AcDbArc
 50
79.996999
 51
170.00076
  0
ARC
  5
247
100
AcDbEntity
  8
M1
  6
CONTINUOUS
370
25
 62
     7
100
AcDbCircle
 10
173.801972
 20
411.500001
 40
3.000004
100
AcDbArc
 50
100.003001
 51
189.99924
  0
ARC
  5
248
100
AcDbEntity
  8
M1
  6
CONTINUOUS
370
25
 62
     7
100
AcDbCircle
 10
178.037372
 20
412.247101
 40
2.999969
100
AcDbArc
 50
9.99924
 51
100.003001
  0
ARC
  5
249
100
AcDbEntity
  8
M1
  6
CONTINUOUS
370
25
 62
     7
100
AcDbCircle
 10
403.963072
 20
411.828301
 40
3.0
100
AcDbArc
 50
90.0
 51
180.0
  0
ARC
  5
24A
100
AcDbEntity
  8
M1
  6
CONTINUOUS
370
25
 62
     7
100
AcDbCircle
 10
414.717872
 20
411.828301
 40
3.0
100
AcDbArc
 50
0.0
 51
90.0
  0
ARC
  5
24B
100
AcDbEntity
  8
M1
  6
CONTINUOUS
370
25
 62
     7
100
AcDbCircle
 10
644.879032
 20
411.500001
 40
2.999989
100
AcDbArc
 50
350.000827
 51
439.996811
  0
ARC
  5
24C
100
AcDbEntity
  8
M1
  6
CONTINUOUS
370
25
 62
     7
100
AcDbCircle
 10
640.643662
 20
412.247101
 40
3.000008
100
AcDbArc
 50
79.996623
 51
170.000827
  0
ARC
  5
24D
100
AcDbEntity
  8
M1
  6
CONTINUOUS
370
25
 62
     7
100
AcDbCircle
 10
622.511472
 20
412.247101
 40
2.99996
100
AcDbArc
 50
9.999273
 51
100.003001
  0
ARC
  5
24E
100
AcDbEntity
  8
M1
  6
CONTINUOUS
370
25
 62
     7
100
AcDbCircle
 10
618.276072
 20
411.500001
 40
3.000004
100
AcDbArc
 50
100.003001
 51
189.99924
  0
SPLINE
  5
24F
100
AcDbEntity
  8
M1
  6
CONTINUOUS
370
25
 62
     7
100
AcDbSpline
210
0.0
220
0.0
230
-1.0
 70
     8
 71
     3
 72
    11
 73
     7
 43
0.0000001
 40
0.0
 40
0.0
 40
0.0
 40
0.0
 40
1.0
 40
1.0
 40
1.0
 40
2.0
 40
2.0
 40
2.0
 40
2.0
 10
382.957972
 20
373.952401
 10
382.758799
 20
373.481738
 10
382.640589
 20
372.967068
 10
382.640592
 20
372.452401
 10
382.640572
 20
371.937731
 10
382.758782
 20
371.423061
 10
382.957952
 20
370.952401
  0
SPLINE
  5
250
100
AcDbEntity
  8
M1
  6
CONTINUOUS
370
25
 62
     7
100
AcDbSpline
210
0.0
220
0.0
230
-1.0
 70
     8
 71
     3
 72
    11
 73
     7
 43
0.0000001
 40
0.0
 40
0.0
 40
0.0
 40
0.0
 40
1.0
 40
1.0
 40
1.0
 40
2.0
 40
2.0
 40
2.0
 40
2.0
 10
382.957972
 20
397.952301
 10
382.758799
 20
397.481638
 10
382.640589
 20
396.966968
 10
382.640592
 20
396.452301
 10
382.640572
 20
395.937631
 10
382.758782
 20
395.422961
 10
382.957952
 20
394.952301
  0
SPLINE
  5
251
100
AcDbEntity
  8
M1
  6
CONTINUOUS
370
25
 62
     7
100
AcDbSpline
210
0.0
220
0.0
230
-1.0
 70
     8
 71
     3
 72
    11
 73
     7
 43
0.0000001
 40
0.0
 40
0.0
 40
0.0
 40
0.0
 40
1.0
 40
1.0
 40
1.0
 40
2.0
 40
2.0
 40
2.0
 40
2.0
 10
382.957972
 20
322.952201
 10
382.758799
 20
323.422864
 10
382.640589
 20
323.937534
 10
382.640592
 20
324.452201
 10
382.640572
 20
324.966871
 10
382.758782
 20
325.481541
 10
382.957952
 20
325.952201
  0
SPLINE
  5
252
100
AcDbEntity
  8
M1
  6
CONTINUOUS
370
25
 62
     7
100
AcDbSpline
210
0.0
220
0.0
230
-1.0
 70
     8
 71
     3
 72
    11
 73
     7
 43
0.0000001
 40
0.0
 40
0.0
 40
0.0
 40
0.0
 40
1.0
 40
1.0
 40
1.0
 40
2.0
 40
2.0
 40
2.0
 40
2.0
 10
382.957972
 20
298.952301
 10
382.758799
 20
299.422964
 10
382.640589
 20
299.937634
 10
382.640592
 20
300.452301
 10
382.640572
 20
300.966971
 10
382.758782
 20
301.481641
 10
382.957952
 20
301.952301
  0
SPLINE
  5
253
100
AcDbEntity
  8
M1
  6
CONTINUOUS
370
25
 62
     7
100
AcDbSpline
210
0.0
220
0.0
230
-1.0
 70
     8
 71
     3
 72
    11
 73
     7
 43
0.0000001
 40
0.0
 40
0.0
 40
0.0
 40
0.0
 40
1.0
 40
1.0
 40
1.0
 40
2.0
 40
2.0
 40
2.0
 40
2.0
 10
435.723072
 20
373.952401
 10
435.922246
 20
373.481738
 10
436.040456
 20
372.967068
 10
436.040452
 20
372.452401
 10
436.040472
 20
371.937731
 10
435.922262
 20
371.423061
 10
435.723092
 20
370.952401
  0
SPLINE
  5
254
100
AcDbEntity
  8
M1
  6
CONTINUOUS
370
25
 62
     7
100
AcDbSpline
210
0.0
220
0.0
230
-1.0
 70
     8
 71
     3
 72
    11
 73
     7
 43
0.0000001
 40
0.0
 40
0.0
 40
0.0
 40
0.0
 40
1.0
 40
1.0
 40
1.0
 40
2.0
 40
2.0
 40
2.0
 40
2.0
 10
435.723072
 20
397.952301
 10
435.922246
 20
397.481638
 10
436.040456
 20
396.966968
 10
436.040452
 20
396.452301
 10
436.040472
 20
395.937631
 10
435.922262
 20
395.422961
 10
435.723092
 20
394.952301
  0
SPLINE
  5
255
100
AcDbEntity
  8
M1
  6
CONTINUOUS
370
25
 62
     7
100
AcDbSpline
210
0.0
220
0.0
230
-1.0
 70
     8
 71
     3
 72
    11
 73
     7
 43
0.0000001
 40
0.0
 40
0.0
 40
0.0
 40
0.0
 40
1.0
 40
1.0
 40
1.0
 40
2.0
 40
2.0
 40
2.0
 40
2.0
 10
435.723072
 20
322.952201
 10
435.922246
 20
323.422864
 10
436.040456
 20
323.937534
 10
436.040452
 20
324.452201
 10
436.040472
 20
324.966871
 10
435.922262
 20
325.481541
 10
435.723092
 20
325.952201
  0
SPLINE
  5
256
100
AcDbEntity
  8
M1
  6
CONTINUOUS
370
25
 62
     7
100
AcDbSpline
210
0.0
220
0.0
230
-1.0
 70
     8
 71
     3
 72
    11
 73
     7
 43
0.0000001
 40
0.0
 40
0.0
 40
0.0
 40
0.0
 40
1.0
 40
1.0
 40
1.0
 40
2.0
 40
2.0
 40
2.0
 40
2.0
 10
435.723072
 20
298.952301
 10
435.922246
 20
299.422964
 10
436.040456
 20
299.937634
 10
436.040452
 20
300.452301
 10
436.040472
 20
300.966971
 10
435.922262
 20
301.481641
 10
435.723092
 20
301.952301
  0
LINE
  5
257
100
AcDbEntity
  8
M1
  6
CONTINUOUS
370
25
 62
     7
100
AcDbLine
 10
364.840472
 20
359.102301
 11
364.840472
 21
337.802301
  0
LINE
  5
258
100
AcDbEntity
  8
M1
  6
CONTINUOUS
370
25
 62
     7
100
AcDbLine
 10
364.840472
 20
359.102301
 11
365.840472
 21
359.102301
  0
LINE
  5
259
100
AcDbEntity
  8
M1
  6
CONTINUOUS
370
25
 62
     7
100
AcDbLine
 10
364.840472
 20
337.802301
 11
365.840472
 21
337.802301
  0
LINE
  5
25A
100
AcDbEntity
  8
M1
  6
CONTINUOUS
370
25
 62
     7
100
AcDbLine
 10
358.840472
 20
340.952301
 11
364.840472
 21
340.952301
  0
LINE
  5
25B
100
AcDbEntity
  8
M1
  6
CONTINUOUS
370
25
 62
     7
100
AcDbLine
 10
358.840472
 20
355.952301
 11
364.840472
 21
355.952301
  0
ARC
  5
25C
100
AcDbEntity
  8
M1
  6
CONTINUOUS
370
25
 62
     7
100
AcDbCircle
 10
187.868472
 20
348.4489
 40
7.65
100
AcDbArc
 50
220.750103
 51
499.249897
  0
ARC
  5
25D
100
AcDbEntity
  8
M1
  6
CONTINUOUS
370
25
 62
     7
100
AcDbCircle
 10
181.391302
 20
354.030007
 40
0.9
100
AcDbArc
 50
285.0
 51
319.249897
  0
LINE
  5
25E
100
AcDbEntity
  8
M1
  6
CONTINUOUS
370
25
 62
     7
100
AcDbLine
 10
181.624239
 20
353.160674
 11
178.981815
 21
352.452639
  0
ARC
  5
25F
100
AcDbEntity
  8
M1
  6
CONTINUOUS
370
25
 62
     7
100
AcDbCircle
 10
179.214752
 20
351.583305
 40
0.9
100
AcDbArc
 50
105.0
 51
180.0
  0
LINE
  5
260
100
AcDbEntity
  8
M1
  6
CONTINUOUS
370
25
 62
     7
100
AcDbLine
 10
178.314752
 20
349.2139
 11
178.314752
 21
351.583305
  0
LINE
  5
261
100
AcDbEntity
  8
M1
  6
CONTINUOUS
370
25
 62
     7
100
AcDbLine
 10
178.314752
 20
349.2139
 11
182.161755
 21
349.2139
  0
CIRCLE
  5
262
100
AcDbEntity
  8
M1
  6
CONTINUOUS
370
25
 62
     7
100
AcDbCircle
 10
180.4256
 20
350.91333
 40
0.765
  0
LINE
  5
263
100
AcDbEntity
  8
M1
  6
CONTINUOUS
370
25
 62
     7
100
AcDbLine
 10
178.314752
 20
347.6839
 11
182.162808
 21
347.6839
  0
LINE
  5
264
100
AcDbEntity
  8
M1
  6
CONTINUOUS
370
25
 62
     7
100
AcDbLine
 10
178.314752
 20
345.314494
 11
178.314752
 21
347.6839
  0
ARC
  5
265
100
AcDbEntity
  8
M1
  6
CONTINUOUS
370
25
 62
     7
100
AcDbCircle
 10
179.214752
 20
345.314494
 40
0.9
100
AcDbArc
 50
180.0
 51
255.0
  0
LINE
  5
266
100
AcDbEntity
  8
M1
  6
CONTINUOUS
370
25
 62
     7
100
AcDbLine
 10
181.624239
 20
343.737125
 11
178.981815
 21
344.445161
  0
ARC
  5
267
100
AcDbEntity
  8
M1
  6
CONTINUOUS
370
25
 62
     7
100
AcDbCircle
 10
181.391302
 20
342.867792
 40
0.9
100
AcDbArc
 50
40.750103
 51
75.0
  0
CIRCLE
  5
268
100
AcDbEntity
  8
M1
  6
CONTINUOUS
370
25
 62
     7
100
AcDbCircle
 10
180.4256
 20
345.984469
 40
0.765
  0
LINE
  5
269
100
AcDbEntity
  8
M1
  6
CONTINUOUS
370
25
 62
     7
100
AcDbLine
 10
640.366292
 20
349.213845
 11
636.519235
 21
349.213845
  0
LINE
  5
26A
100
AcDbEntity
  8
M1
  6
CONTINUOUS
370
25
 62
     7
100
AcDbLine
 10
640.366292
 20
349.213845
 11
640.366292
 21
351.58325
  0
CIRCLE
  5
26B
100
AcDbEntity
  8
M1
  6
CONTINUOUS
370
25
 62
     7
100
AcDbCircle
 10
638.255445
 20
350.913275
 40
0.765
  0
LINE
  5
26C
100
AcDbEntity
  8
M1
  6
CONTINUOUS
370
25
 62
     7
100
AcDbLine
 10
637.056806
 20
353.160619
 11
639.699229
 21
352.452584
  0
ARC
  5
26D
100
AcDbEntity
  8
M1
  6
CONTINUOUS
370
25
 62
     7
100
AcDbCircle
 10
639.466292
 20
351.58325
 40
0.9
100
AcDbArc
 50
0.0
 51
75.0
  0
ARC
  5
26E
100
AcDbEntity
  8
M1
  6
CONTINUOUS
370
25
 62
     7
100
AcDbCircle
 10
637.289743
 20
354.029952
 40
0.9
100
AcDbArc
 50
220.750103
 51
255.0
  0
ARC
  5
26F
100
AcDbEntity
  8
M1
  6
CONTINUOUS
370
25
 62
     7
100
AcDbCircle
 10
630.812572
 20
348.448845
 40
7.65
100
AcDbArc
 50
40.750103
 51
319.249897
  0
ARC
  5
270
100
AcDbEntity
  8
M1
  6
CONTINUOUS
370
25
 62
     7
100
AcDbCircle
 10
637.289743
 20
342.867737
 40
0.9
100
AcDbArc
 50
105.0
 51
139.249897
  0
LINE
  5
271
100
AcDbEntity
  8
M1
  6
CONTINUOUS
370
25
 62
     7
100
AcDbLine
 10
637.056806
 20
343.73707
 11
639.699229
 21
344.445106
  0
ARC
  5
272
100
AcDbEntity
  8
M1
  6
CONTINUOUS
370
25
 62
     7
100
AcDbCircle
 10
639.466292
 20
345.314439
 40
0.9
100
AcDbArc
 50
285.0
 51
360.0
  0
LINE
  5
273
100
AcDbEntity
  8
M1
  6
CONTINUOUS
370
25
 62
     7
100
AcDbLine
 10
640.366292
 20
345.314439
 11
640.366292
 21
347.683845
  0
LINE
  5
274
100
AcDbEntity
  8
M1
  6
CONTINUOUS
370
25
 62
     7
100
AcDbLine
 10
640.366292
 20
347.683845
 11
636.518164
 21
347.683845
  0
CIRCLE
  5
275
100
AcDbEntity
  8
M1
  6
CONTINUOUS
370
25
 62
     7
100
AcDbCircle
 10
638.255445
 20
345.984414
 40
0.765
  0
LINE
  5
276
100
AcDbEntity
  8
M1
  6
CONTINUOUS
370
25
 62
     7
100
AcDbLine
 10
459.840472
 20
355.952301
 11
453.840472
 21
355.952301
  0
LINE
  5
277
100
AcDbEntity
  8
M1
  6
CONTINUOUS
370
25
 62
     7
100
AcDbLine
 10
459.840472
 20
340.952301
 11
453.840472
 21
340.952301
  0
LINE
  5
278
100
AcDbEntity
  8
M1
  6
CONTINUOUS
370
25
 62
     7
100
AcDbLine
 10
453.840472
 20
359.102301
 11
453.840472
 21
337.802301
  0
LINE
  5
279
100
AcDbEntity
  8
M1
  6
CONTINUOUS
370
25
 62
     7
100
AcDbLine
 10
453.840472
 20
337.802301
 11
452.840472
 21
337.802301
  0
LINE
  5
27A
100
AcDbEntity
  8
M1
  6
CONTINUOUS
370
25
 62
     7
100
AcDbLine
 10
453.840472
 20
359.102301
 11
452.840472
 21
359.102301
  0
TEXT
  5
27B
100
AcDbEntity
  8
M2
100
AcDbText
 10
642.572632
 20
192.945908
 40
9.0
  1
ＰＯＣ－０．３
 41
0.713889
  7
STANDARD
100
AcDbText
  0
TEXT
  5
27C
100
AcDbEntity
  8
M2
100
AcDbText
 10
172.626648
 20
248.550995
 40
9.0
  1
Ｄ１
 41
0.713889
  7
STANDARD
100
AcDbText
  0
TEXT
  5
27D
100
AcDbEntity
  8
M2
100
AcDbText
 10
398.739655
 20
250.33139
 40
9.0
  1
Ｄ２
 41
0.713889
  7
STANDARD
100
AcDbText
  0
TEXT
  5
27E
100
AcDbEntity
  8
M2
100
AcDbText
 10
622.181641
 20
253.892303
 40
9.0
  1
Ｄ３
 41
0.713889
  7
STANDARD
100
AcDbText
  0
TEXT
  5
27F
100
AcDbEntity
  8
M2
100
AcDbText
 10
633.110657
 20
178.752884
 40
9.0
  1
（ＳＤＫ６００１）
 41
0.713889
  7
STANDARD
100
AcDbText
  0
ENDSEC
  0
SECTION
  2
OBJECTS
  0
DICTIONARY
  5
C
100
AcDbDictionary
  3
ACAD_GROUP
350
D
  3
ACAD_MLINESTYLE
350
E
  0
DICTIONARY
  5
D
102
{ACAD_REACTORS
330
C
102
}
100
AcDbDictionary
  0
DICTIONARY
  5
E
102
{ACAD_REACTORS
330
C
102
}
100
AcDbDictionary
  3
STANDARD
350
13
  0
MLINESTYLE
  5
13
102
{ACAD_REACTORS
330
E
102
}
100
AcDbMlineStyle
  2
STANDARD
 70
     0
  3

 62
     0
 51
90.0
 52
90.0
 71
     2
 49
0.5
 62
   256
  6
BYLAYER
 49
-0.5
 62
   256
  6
BYLAYER
  0
ENDSEC
  0
EOF
