  0
SECTION
  2
HEADER
  9
$ACADVER
  1
AC1015
  9
$INSBASE
 10
0.0
 20
0.0
  9
$VIEWCTR
 10
7.531722
 20
4.5
  9
$VIEWSIZE
 40
9.0
  9
$SNAPMODE
 70
     0
  9
$SNAPUNIT
 10
1.0
 20
1.0
  9
$SNAPBASE
 10
0.0
 20
0.0
  9
$SNAPANG
 50
0.0
  9
$SNAPSTYLE
 70
     0
  9
$SNAPISOPAIR
 70
     0
  9
$GRIDMODE
 70
     0
  9
$GRIDUNIT
 10
0.0
 20
0.0
  9
$ORTHOMODE
 70
     0
  9
$REGENMODE
 70
     1
  9
$FILLMODE
 70
     1
  9
$QTEXTMODE
 70
     0
  9
$DRAGMODE
 70
     2
  9
$LTSCALE
 40
1.0
  9
$OSMODE
 70
     0
  9
$ATTMODE
 70
     1
  9
$TEXTSIZE
 40
0.2
  9
$TRACEWID
 40
0.05
  9
$TEXTSTYLE
  7
STANDARD
  9
$CELTYPE
  6
BYLAYER
  9
$CECOLOR
 62
   256
  9
$DIMSCALE
 40
1.0
  9
$DIMASZ
 40
0.18
  9
$DIMEXO
 40
0.0625
  9
$DIMDLI
 40
0.38
  9
$DIMRND
 40
0.0
  9
$DIMDLE
 40
0.0
  9
$DIMEXE
 40
0.18
  9
$DIMTP
 40
0.0
  9
$DIMTM
 40
0.0
  9
$DIMTXT
 40
0.18
  9
$DIMCEN
 40
0.09
  9
$DIMTSZ
 40
0.0
  9
$DIMADEC
 70
     0
  9
$DIMALTRND
 40
0.000000
  9
$DIMAZIN
 70
     0
  9
$DIMDSEP
 70
    46
  9
$DIMATFIT
 70
     3
  9
$DIMFRAC
 70
     0
  9
$DIMLDRBLK
  1

  9
$DIMLUNIT
 70
     2
  9
$DIMLWD
 70
   13
  9
$DIMLWE
 70
   13
  9
$DIMTMOVE
 70
     0
  9
$CELWEIGHT
370
    25
  9
$LWDISPLAY
290
    1
  9
$EXTNAMES
290
    1
  9
$DIMTOL
 70
     0
  9
$DIMLIM
 70
     0
  9
$DIMTIH
 70
     1
  9
$DIMTOH
 70
     1
  9
$DIMSE1
 70
     0
  9
$DIMSE2
 70
     0
  9
$DIMTAD
 70
     0
  9
$DIMZIN
 70
     0
  9
$DIMBLK
  1

  9
$LUNITS
 70
     2
  9
$LUPREC
 70
     4
  9
$AXISMODE
 70
     0
  9
$AXISUNIT
 10
0.0
 20
0.0
  9
$SKETCHINC
 40
0.1
  9
$FILLETRAD
 40
0.0
  9
$AUNITS
 70
     0
  9
$AUPREC
 70
     0
  9
$MENU
  1
ACAD
  9
$ELEVATION
 40
0.0
  9
$THICKNESS
 40
0.0
  9
$VIEWDIR
 10
0.0
 20
0.0
 30
1.0
  9
$LIMCHECK
 70
     0
  9
$BLIPMODE
 70
     1
  9
$CHAMFERA
 40
0.0
  9
$CHAMFERB
 40
0.0
  9
$FASTZOOM
 70
     1
  9
$SKPOLY
 70
     0
  9
$TDCREATE
 40
0000000.0000000000
  9
$TDUPDATE
 40
0000000.0000000000
  9
$TDINDWG
 40
0.0000000000
  9
$TDUSRTIMER
 40
0.0000000000
  9
$USRTIMER
 70
     1
  9
$ANGBASE
 50
0.0
  9
$ANGDIR
 70
     0
  9
$PDMODE
 70
     0
  9
$PDSIZE
 40
0.0
  9
$PLINEWID
 40
0.0
  9
$COORDS
 70
     0
  9
$USERI1
 70
     0
  9
$USERI2
 70
     0
  9
$USERI3
 70
     0
  9
$USERI4
 70
     0
  9
$USERI5
 70
     0
  9
$USERR1
 40
0.0
  9
$USERR2
 40
0.0
  9
$USERR3
 40
0.0
  9
$USERR4
 40
0.0
  9
$USERR5
 40
0.0
  9
$CLAYER
  8
M1
  9
$EXTMIN
 10
139.335138
 20
272.535694
  9
$EXTMAX
 10
1632.854119
 20
977.50449
  9
$LIMMIN
 10
0.0
 20
0.0
  9
$LIMMAX
 10
841.0
 20
594.0
  9
$HANDSEED
  5
3BB
  0
ENDSEC
  0
SECTION
  2
CLASSES
  0
ENDSEC
  0
SECTION
  2
TABLES
  0
TABLE
  2
VPORT
  5
8
100
AcDbSymbolTable
 70
     2
  0
VPORT
  5
14
100
AcDbSymbolTableRecord
100
AcDbViewportTableRecord
  2
*ACTIVE
 70
     0
 10
0.0
 20
0.0
 11
1.0
 21
1.0
 12
484.0
 22
297.0
 13
0.0
 23
0.0
 14
1.0
 24
1.0
 15
0.0
 25
0.0
 16
0.0
 26
0.0
 36
1.0
 17
0.0
 27
0.0
 37
0.0
 40
594.0
 41
2.0
 42
50.0
 43
0.0
 44
0.0
 50
0.0
 51
0.0
 71
     0
 72
   100
 73
     1
 74
     1
 75
     0
 76
     0
 77
     0
 78
     0
  0
ENDTAB
  0
TABLE
  2
LTYPE
  5
5
100
AcDbSymbolTable
 70
     5
  0
LTYPE
  5
15
100
AcDbSymbolTableRecord
100
AcDbLinetypeTableRecord
  2
BYBLOCK
 70
     0
  3

 72
    65
 73
     0
 40
0.0
  0
LTYPE
  5
16
100
AcDbSymbolTableRecord
100
AcDbLinetypeTableRecord
  2
BYLAYER
 70
     0
  3

 72
    65
 73
     0
 40
0.0
  0
LTYPE
  5
17
100
AcDbSymbolTableRecord
100
AcDbLinetypeTableRecord
  2
CONTINUOUS
 70
    64
  3
Solid line
 72
    65
 73
     0
 40
0.0
  0
LTYPE
  5
18
100
AcDbSymbolTableRecord
100
AcDbLinetypeTableRecord
  2
DASHED
 70
    64
  3
__ __ __ __ __ __ __ __ __ __ __ __ __ __ __ __
 72
    65
 73
     2
 40
0.75
 49
0.5
 74
     0
 49
-0.25
 74
     0
  0
LTYPE
  5
19
100
AcDbSymbolTableRecord
100
AcDbLinetypeTableRecord
  2
DASHDOT
 70
    64
  3
__ . __ . __ . __ . __ . __ . __ . __ . __ . __
 72
    65
 73
     4
 40
1.0
 49
0.5
 74
     0
 49
-0.25
 74
     0
 49
0.0
 74
     0
 49
-0.25
 74
     0
  0
LTYPE
  5
1A
100
AcDbSymbolTableRecord
100
AcDbLinetypeTableRecord
  2
DIVIDE
 70
    64
  3
____ . . ____ . . ____ . . ____ . . ____ . . __
 72
    65
 73
     6
 40
1.25
 49
0.5
 74
     0
 49
-0.25
 74
     0
 49
0.0
 74
     0
 49
-0.25
 74
     0
 49
0.0
 74
     0
 49
-0.25
 74
     0
  0
LTYPE
  5
1B
100
AcDbSymbolTableRecord
100
AcDbLinetypeTableRecord
  2
DOT
 70
    64
  3
. . . . . . . . . . . . . . . . . . . . . . . .
 72
    65
 73
     2
 40
0.25
 49
0.0
 74
     0
 49
-0.25
 74
     0
  0
ENDTAB
  0
TABLE
  2
LAYER
  5
2
100
AcDbSymbolTable
 70
   102
  0
LAYER
  5
F
100
AcDbSymbolTableRecord
100
AcDbLayerTableRecord
  2
0
 70
     0
 62
     7
  6
CONTINUOUS
370
     -3
390
F
  0
LAYER
  5
1C
100
AcDbSymbolTableRecord
100
AcDbLayerTableRecord
  2
M1
 70
     0
 62
     3
  6
CONTINUOUS
370
     -3
390
F
  0
ENDTAB
  0
TABLE
  2
STYLE
  5
3
100
AcDbSymbolTable
 70
     2
  0
STYLE
  5
10
100
AcDbSymbolTableRecord
100
AcDbTextStyleTableRecord
  2
STANDARD
 70
     0
 40
0.0
 41
1.0
 50
0.0
 71
     0
 42
0.2
  3
txt
  4
BIGFONT
  0
ENDTAB
  0
TABLE
  2
VIEW
  5
6
100
AcDbSymbolTable
 70
     0
  0
ENDTAB
  0
TABLE
  2
UCS
  5
7
100
AcDbSymbolTable
 70
     0
  0
ENDTAB
  0
TABLE
  2
APPID
  5
9
100
AcDbSymbolTable
 70
     1
  0
APPID
  5
11
100
AcDbSymbolTableRecord
100
AcDbRegAppTableRecord
  2
ACAD
 70
     0
  0
ENDTAB
  0
TABLE
  2
DIMSTYLE
  5
A
100
AcDbSymbolTable
 70
     2
100
AcDbDimStyleTable
 71
     1
  0
DIMSTYLE
105
23
100
AcDbSymbolTableRecord
100
AcDbDimStyleTableRecord
  2
STANDARD
 70
     0
  3

  4

  5

  6
_OPEN
  7
_OPEN
 40
1.0
 41
6.0
 42
0.5
 43
8.0
 44
1.5
 45
0.0
 46
0.0
 47
0.0
 48
0.0
140
6.3
141
0.09
142
0.0
143
0.03937
144
1.0
145
0.0
146
1.0
147
1.0
148
0.000000
 71
     0
 72
     0
 73
     0
 74
     0
 75
     0
 76
     0
 77
     3
 78
     8
170
     0
171
     2
172
     0
173
     1
174
     0
175
     0
176
     0
177
     0
178
     0
270
     2
271
     2
272
     4
273
     2
274
     2
340
10
275
     0
278
    46
280
     0
281
     0
282
     0
283
     1
284
     0
285
     0
286
     0
287
     3
288
     0
371
   13
372
   13
  0
DIMSTYLE
105
24
100
AcDbSymbolTableRecord
100
AcDbDimStyleTableRecord
  2
LEADSTYL
 70
     0
  3

  4

  5

  6
_OPEN
  7
_OPEN
 40
1.0
 41
6.0
 42
0.0625
 43
0.38
 44
0.18
 45
0.0
 46
0.0
 47
0.0
 48
0.0
140
6.3
141
0.09
142
0.0
143
25.4
144
1.0
145
0.0
146
1.0
147
1.0
 71
     0
 72
     0
 73
     1
 74
     1
 75
     0
 76
     0
 77
     0
 78
     0
170
     0
171
     2
172
     0
173
     1
174
     0
175
     0
176
     0
177
     0
178
     0
270
     2
271
     4
272
     4
273
     2
274
     2
340
10
275
     0
280
     0
281
     0
282
     0
283
     1
284
     0
285
     0
286
     0
287
     3
288
     0
  0
ENDTAB
  0
TABLE
  2
BLOCK_RECORD
  5
1
100
AcDbSymbolTable
 70
     6
  0
BLOCK_RECORD
  5
1D
100
AcDbSymbolTableRecord
100
AcDbBlockTableRecord
  2
*MODEL_SPACE
  0
BLOCK_RECORD
  5
20
100
AcDbSymbolTableRecord
100
AcDbBlockTableRecord
  2
*PAPER_SPACE
  0
BLOCK_RECORD
  5
25
100
AcDbSymbolTableRecord
100
AcDbBlockTableRecord
  2
_NONE
  0
BLOCK_RECORD
  5
29
100
AcDbSymbolTableRecord
100
AcDbBlockTableRecord
  2
_OPEN
  0
BLOCK_RECORD
  5
2F
100
AcDbSymbolTableRecord
100
AcDbBlockTableRecord
  2
_CLOSED
  0
BLOCK_RECORD
  5
36
100
AcDbSymbolTableRecord
100
AcDbBlockTableRecord
  2
_ORIGIN
  0
BLOCK_RECORD
  5
3B
100
AcDbSymbolTableRecord
100
AcDbBlockTableRecord
  2
_DOT
  0
BLOCK_RECORD
  5
43
100
AcDbSymbolTableRecord
100
AcDbBlockTableRecord
  2
_OBLIQUE
  0
ENDTAB
  0
ENDSEC
  0
SECTION
  2
BLOCKS
  0
BLOCK
  5
1E
100
AcDbEntity
  8
0
100
AcDbBlockBegin
  2
*MODEL_SPACE
 70
     0
 10
0.0
 20
0.0
 30
0.0
  3
*MODEL_SPACE
  1

  0
ENDBLK
  5
1F
100
AcDbEntity
  8
0
100
AcDbBlockEnd
  0
BLOCK
  5
21
100
AcDbEntity
 67
     1
  8
0
100
AcDbBlockBegin
  2
*PAPER_SPACE
 70
     0
 10
0.0
 20
0.0
 30
0.0
  3
*PAPER_SPACE
  1

  0
ENDBLK
  5
22
100
AcDbEntity
 67
     1
  8
0
100
AcDbBlockEnd
  0
BLOCK
  5
26
100
AcDbEntity
  8
0
100
AcDbBlockBegin
  2
_NONE
 70
     0
 10
0.0
 20
0.0
  0
CIRCLE
  5
27
100
AcDbEntity
  8
0
 62
     0
370
13
100
AcDbCircle
 10
0.0
 20
0.0
 40
0.25
  0
ENDBLK
  5
28
100
AcDbEntity
  8
0
100
AcDbBlockEnd
  0
BLOCK
  5
2A
100
AcDbEntity
  8
0
100
AcDbBlockBegin
  2
_OPEN
 70
     0
 10
0.0
 20
0.0
  0
LINE
  5
2B
100
AcDbEntity
  8
0
 62
     0
370
13
100
AcDbLine
 10
-0.965926
 20
0.25882
 11
0.0
 21
0.0
  0
LINE
  5
2C
100
AcDbEntity
  8
0
 62
     0
370
13
100
AcDbLine
 10
0.0
 20
0.0
 11
-0.965926
 21
-0.25882
  0
LINE
  5
2D
100
AcDbEntity
  8
0
 62
     0
370
13
100
AcDbLine
 10
0.0
 20
0.0
 11
-1.0
 21
0.0
  0
ENDBLK
  5
2E
100
AcDbEntity
  8
0
100
AcDbBlockEnd
  0
BLOCK
  5
30
100
AcDbEntity
  8
0
100
AcDbBlockBegin
  2
_CLOSED
 70
     0
 10
0.0
 20
0.0
  0
LINE
  5
31
100
AcDbEntity
  8
0
 62
     0
370
13
100
AcDbLine
 10
-0.965926
 20
0.25882
 11
0.0
 21
0.0
  0
LINE
  5
32
100
AcDbEntity
  8
0
 62
     0
370
13
100
AcDbLine
 10
0.0
 20
0.0
 11
-0.965926
 21
-0.25882
  0
LINE
  5
33
100
AcDbEntity
  8
0
 62
     0
370
13
100
AcDbLine
 10
-0.965926
 20
0.25882
 11
-0.965926
 21
-0.25882
  0
LINE
  5
34
100
AcDbEntity
  8
0
 62
     0
370
13
100
AcDbLine
 10
0.0
 20
0.0
 11
-1.0
 21
0.0
  0
ENDBLK
  5
35
100
AcDbEntity
  8
0
100
AcDbBlockEnd
  0
BLOCK
  5
37
100
AcDbEntity
  8
0
100
AcDbBlockBegin
  2
_ORIGIN
 70
     0
 10
0.0
 20
0.0
  0
CIRCLE
  5
38
100
AcDbEntity
  8
0
 62
     0
370
13
100
AcDbCircle
 10
0.0
 20
0.0
 40
0.5
  0
LINE
  5
39
100
AcDbEntity
  8
0
 62
     0
370
13
100
AcDbLine
 10
0.0
 20
0.0
 11
-1.0
 21
0.0
  0
ENDBLK
  5
3A
100
AcDbEntity
  8
0
100
AcDbBlockEnd
  0
BLOCK
  5
3C
100
AcDbEntity
  8
0
100
AcDbBlockBegin
  2
_DOT
 70
     0
 10
0.0
 20
0.0
  0
POLYLINE
  5
3D
100
AcDbEntity
  8
0
 62
     0
100
AcDb2dPolyline
 66
     1
 70
     1
 40
0.5
 41
0.5
  0
VERTEX
  5
3E
100
AcDbEntity
  8
0
 62
     0
100
AcDbVertex
100
AcDb2dVertex
 10
-0.25
 20
0.0
 42
1.0
  0
VERTEX
  5
3F
100
AcDbEntity
  8
0
 62
     0
100
AcDbVertex
100
AcDb2dVertex
 10
0.25
 20
0.0
 42
1.0
  0
SEQEND
  5
40
100
AcDbEntity
  8
0
 62
     0
  0
LINE
  5
41
100
AcDbEntity
  8
0
 62
     0
370
13
100
AcDbLine
 10
-0.5
 20
0.0
 11
-1.0
 21
0.0
  0
ENDBLK
  5
42
100
AcDbEntity
  8
0
100
AcDbBlockEnd
  0
BLOCK
  5
44
100
AcDbEntity
  8
0
100
AcDbBlockBegin
  2
_OBLIQUE
 70
     0
 10
0.0
 20
0.0
  0
LINE
  5
45
100
AcDbEntity
  8
0
 62
     0
370
13
100
AcDbLine
 10
-0.353553
 20
-0.353553
 11
0.353553
 21
0.353553
  0
ENDBLK
  5
46
100
AcDbEntity
  8
0
100
AcDbBlockEnd
  0
ENDSEC
  0
SECTION
  2
ENTITIES
  0
LINE
  5
47
100
AcDbEntity
  8
M1
  6
CONTINUOUS
370
13
 62
     7
100
AcDbLine
 10
225.484186
 20
721.00446
 11
248.527155
 21
721.00446
  0
LINE
  5
48
100
AcDbEntity
  8
M1
  6
CONTINUOUS
370
25
 62
     7
100
AcDbLine
 10
822.862421
 20
918.50449
 11
919.862421
 21
918.50449
  0
LINE
  5
49
100
AcDbEntity
  8
M1
  6
CONTINUOUS
370
25
 62
     7
100
AcDbLine
 10
921.862421
 20
916.50449
 11
921.862421
 21
525.50446
  0
LINE
  5
4A
100
AcDbEntity
  8
M1
  6
CONTINUOUS
370
25
 62
     7
100
AcDbLine
 10
921.862421
 20
897.00449
 11
939.862421
 21
897.00449
  0
LINE
  5
4B
100
AcDbEntity
  8
M1
  6
CONTINUOUS
370
25
 62
     7
100
AcDbLine
 10
1010.362421
 20
786.00449
 11
1010.362421
 21
656.00446
  0
LINE
  5
4C
100
AcDbEntity
  8
M1
  6
CONTINUOUS
370
25
 62
     7
100
AcDbLine
 10
943.862421
 20
893.00449
 11
943.862421
 21
549.00446
  0
LINE
  5
4D
100
AcDbEntity
  8
M1
  6
CONTINUOUS
370
25
 62
     7
100
AcDbLine
 10
977.362421
 20
786.00449
 11
1010.362421
 21
786.00449
  0
LINE
  5
4E
100
AcDbEntity
  8
M1
  6
CONTINUOUS
370
25
 62
     7
100
AcDbLine
 10
977.362421
 20
836.00449
 11
977.362421
 21
606.00446
  0
LINE
  5
4F
100
AcDbEntity
  8
M1
  6
CONTINUOUS
370
25
 62
     7
100
AcDbLine
 10
976.400324
 20
836.00449
 11
977.362421
 21
836.00449
  0
LINE
  5
50
100
AcDbEntity
  8
M1
  6
CONTINUOUS
370
25
 62
     7
100
AcDbLine
 10
943.862604
 20
863.50449
 11
969.456904
 21
838.808262
  0
LINE
  5
51
100
AcDbEntity
  8
M1
  6
CONTINUOUS
370
25
 62
     7
100
AcDbLine
 10
820.862421
 20
918.204502
 11
820.862421
 21
525.50446
  0
LINE
  5
52
100
AcDbEntity
  8
M1
  6
CONTINUOUS
370
25
 62
     7
100
AcDbLine
 10
820.862421
 20
897.00449
 11
802.862421
 21
897.00449
  0
LINE
  5
53
100
AcDbEntity
  8
M1
  6
CONTINUOUS
370
25
 62
     7
100
AcDbLine
 10
798.862543
 20
893.00449
 11
798.862543
 21
549.00446
  0
LINE
  5
54
100
AcDbEntity
  8
M1
  6
CONTINUOUS
370
25
 62
     7
100
AcDbLine
 10
798.86352
 20
863.503147
 11
773.269343
 21
838.807103
  0
LINE
  5
55
100
AcDbEntity
  8
M1
  6
CONTINUOUS
370
25
 62
     7
100
AcDbLine
 10
766.324457
 20
836.00449
 11
765.362543
 21
836.00449
  0
LINE
  5
56
100
AcDbEntity
  8
M1
  6
CONTINUOUS
370
25
 62
     7
100
AcDbLine
 10
765.362543
 20
836.00449
 11
765.362543
 21
606.00446
  0
LINE
  5
57
100
AcDbEntity
  8
M1
  6
CONTINUOUS
370
25
 62
     7
100
AcDbLine
 10
765.362543
 20
786.00449
 11
732.362116
 21
786.00449
  0
LINE
  5
58
100
AcDbEntity
  8
M1
  6
CONTINUOUS
370
25
 62
     7
100
AcDbLine
 10
732.362116
 20
786.00449
 11
732.362116
 21
656.00446
  0
LINE
  5
59
100
AcDbEntity
  8
M1
  6
CONTINUOUS
370
25
 62
     7
100
AcDbLine
 10
822.862421
 20
523.50446
 11
919.862421
 21
523.50446
  0
LINE
  5
5A
100
AcDbEntity
  8
M1
  6
CONTINUOUS
370
25
 62
     7
100
AcDbLine
 10
766.32464
 20
606.00446
 11
765.362543
 21
606.00446
  0
LINE
  5
5B
100
AcDbEntity
  8
M1
  6
CONTINUOUS
370
25
 62
     7
100
AcDbLine
 10
765.362543
 20
656.00446
 11
732.362116
 21
656.00446
  0
LINE
  5
5C
100
AcDbEntity
  8
M1
  6
CONTINUOUS
370
25
 62
     7
100
AcDbLine
 10
921.862421
 20
545.00446
 11
939.862421
 21
545.00446
  0
LINE
  5
5D
100
AcDbEntity
  8
M1
  6
CONTINUOUS
370
25
 62
     7
100
AcDbLine
 10
798.862543
 20
578.504673
 11
773.268305
 21
603.200779
  0
LINE
  5
5E
100
AcDbEntity
  8
M1
  6
CONTINUOUS
370
25
 62
     7
100
AcDbLine
 10
820.862421
 20
545.00446
 11
802.862421
 21
545.00446
  0
LINE
  5
5F
100
AcDbEntity
  8
M1
  6
CONTINUOUS
370
25
 62
     7
100
AcDbLine
 10
977.362421
 20
656.00446
 11
1010.362421
 21
656.00446
  0
LINE
  5
60
100
AcDbEntity
  8
M1
  6
CONTINUOUS
370
25
 62
     7
100
AcDbLine
 10
943.863154
 20
578.503788
 11
969.457453
 21
603.199864
  0
LINE
  5
61
100
AcDbEntity
  8
M1
  6
CONTINUOUS
370
25
 62
     7
100
AcDbLine
 10
976.400324
 20
606.00446
 11
977.362421
 21
606.00446
  0
LINE
  5
62
100
AcDbEntity
  8
M1
  6
CONTINUOUS
370
25
 62
     7
100
AcDbLine
 10
626.362116
 20
743.50446
 11
626.362116
 21
698.50446
  0
LINE
  5
63
100
AcDbEntity
  8
M1
  6
CONTINUOUS
370
25
 62
     7
100
AcDbLine
 10
718.362116
 20
745.00446
 11
718.362116
 21
697.00446
  0
LINE
  5
64
100
AcDbEntity
  8
M1
  6
CONTINUOUS
370
25
 62
     7
100
AcDbLine
 10
706.362116
 20
727.00446
 11
706.362116
 21
715.00446
  0
LINE
  5
65
100
AcDbEntity
  8
M1
  6
CONTINUOUS
370
25
 62
     7
100
AcDbLine
 10
626.362116
 20
743.50446
 11
718.362116
 21
743.50446
  0
LINE
  5
66
100
AcDbEntity
  8
M1
  6
CONTINUOUS
370
25
 62
     7
100
AcDbLine
 10
626.362116
 20
698.50446
 11
718.362116
 21
698.50446
  0
LINE
  5
67
100
AcDbEntity
  8
M1
  6
CONTINUOUS
370
25
 62
     7
100
AcDbLine
 10
626.362116
 20
715.00446
 11
706.362116
 21
715.00446
  0
LINE
  5
68
100
AcDbEntity
  8
M1
  6
CONTINUOUS
370
25
 62
     7
100
AcDbLine
 10
626.362116
 20
727.00446
 11
706.362116
 21
727.00446
  0
LINE
  5
69
100
AcDbEntity
  8
M1
  6
CONTINUOUS
370
25
 62
     7
100
AcDbLine
 10
725.906122
 20
769.087162
 11
725.906122
 21
672.921666
  0
LINE
  5
6A
100
AcDbEntity
  8
M1
  6
CONTINUOUS
370
25
 62
     7
100
AcDbLine
 10
725.906122
 20
769.087162
 11
727.906122
 21
769.087162
  0
LINE
  5
6B
100
AcDbEntity
  8
M1
  6
CONTINUOUS
370
25
 62
     7
100
AcDbLine
 10
720.362116
 20
761.100163
 11
725.906122
 21
761.100163
  0
LINE
  5
6C
100
AcDbEntity
  8
M1
  6
CONTINUOUS
370
25
 62
     7
100
AcDbLine
 10
727.906122
 20
769.087162
 11
732.362116
 21
759.531071
  0
LINE
  5
6D
100
AcDbEntity
  8
M1
  6
CONTINUOUS
370
25
 62
     7
100
AcDbLine
 10
725.906122
 20
672.921666
 11
727.906122
 21
672.921666
  0
LINE
  5
6E
100
AcDbEntity
  8
M1
  6
CONTINUOUS
370
25
 62
     7
100
AcDbLine
 10
720.362116
 20
680.908787
 11
725.906122
 21
680.908787
  0
LINE
  5
6F
100
AcDbEntity
  8
M1
  6
CONTINUOUS
370
25
 62
     7
100
AcDbLine
 10
727.90716
 20
672.92136
 11
732.363154
 21
682.477482
  0
LINE
  5
70
100
AcDbEntity
  8
M1
  6
CONTINUOUS
370
25
 62
     7
100
AcDbLine
 10
1022.362421
 20
680.908787
 11
1016.818537
 21
680.908787
  0
LINE
  5
71
100
AcDbEntity
  8
M1
  6
CONTINUOUS
370
25
 62
     7
100
AcDbLine
 10
1014.818842
 20
672.921666
 11
1010.362604
 21
682.477879
  0
LINE
  5
72
100
AcDbEntity
  8
M1
  6
CONTINUOUS
370
25
 62
     7
100
AcDbLine
 10
1116.362421
 20
743.50446
 11
1116.362421
 21
698.50446
  0
LINE
  5
73
100
AcDbEntity
  8
M1
  6
CONTINUOUS
370
25
 62
     7
100
AcDbLine
 10
1024.362421
 20
745.00446
 11
1024.362421
 21
697.00446
  0
LINE
  5
74
100
AcDbEntity
  8
M1
  6
CONTINUOUS
370
25
 62
     7
100
AcDbLine
 10
1036.362421
 20
727.00446
 11
1036.362421
 21
715.00446
  0
LINE
  5
75
100
AcDbEntity
  8
M1
  6
CONTINUOUS
370
25
 62
     7
100
AcDbLine
 10
1116.362421
 20
743.50446
 11
1024.362421
 21
743.50446
  0
LINE
  5
76
100
AcDbEntity
  8
M1
  6
CONTINUOUS
370
25
 62
     7
100
AcDbLine
 10
1116.362421
 20
698.50446
 11
1024.362421
 21
698.50446
  0
LINE
  5
77
100
AcDbEntity
  8
M1
  6
CONTINUOUS
370
25
 62
     7
100
AcDbLine
 10
1116.362421
 20
715.00446
 11
1036.362421
 21
715.00446
  0
LINE
  5
78
100
AcDbEntity
  8
M1
  6
CONTINUOUS
370
25
 62
     7
100
AcDbLine
 10
1116.362421
 20
727.00446
 11
1036.362421
 21
727.00446
  0
LINE
  5
79
100
AcDbEntity
  8
M1
  6
CONTINUOUS
370
25
 62
     7
100
AcDbLine
 10
1016.818537
 20
769.087162
 11
1016.818537
 21
672.921666
  0
LINE
  5
7A
100
AcDbEntity
  8
M1
  6
CONTINUOUS
370
25
 62
     7
100
AcDbLine
 10
1016.818537
 20
769.087162
 11
1014.818537
 21
769.087162
  0
LINE
  5
7B
100
AcDbEntity
  8
M1
  6
CONTINUOUS
370
25
 62
     7
100
AcDbLine
 10
1022.362421
 20
761.100163
 11
1016.818537
 21
761.100163
  0
LINE
  5
7C
100
AcDbEntity
  8
M1
  6
CONTINUOUS
370
25
 62
     7
100
AcDbLine
 10
1014.818842
 20
769.086979
 11
1010.362604
 21
759.530766
  0
LINE
  5
7D
100
AcDbEntity
  8
M1
  6
CONTINUOUS
370
25
 62
     7
100
AcDbLine
 10
1016.818537
 20
672.921666
 11
1014.818537
 21
672.921666
  0
LINE
  5
7E
100
AcDbEntity
  8
M1
  6
CONTINUOUS
370
13
 62
     7
100
AcDbLine
 10
336.835138
 20
832.877476
 11
336.835138
 21
807.264256
  0
LINE
  5
7F
100
AcDbEntity
  8
M1
  6
CONTINUOUS
370
13
 62
     7
100
AcDbLine
 10
601.729181
 20
721.00446
 11
634.324152
 21
721.00446
  0
LINE
  5
80
100
AcDbEntity
  8
M1
  6
CONTINUOUS
370
25
 62
     7
100
AcDbLine
 10
471.918146
 20
809.965245
 11
462.452082
 21
804.500096
  0
LINE
  5
81
100
AcDbEntity
  8
M1
  6
CONTINUOUS
370
25
 62
     7
100
AcDbLine
 10
481.418146
 20
793.510899
 11
471.952082
 21
788.045689
  0
LINE
  5
82
100
AcDbEntity
  8
M1
  6
CONTINUOUS
370
25
 62
     7
100
AcDbLine
 10
471.918146
 20
809.964451
 11
481.418146
 21
804.479588
  0
LINE
  5
83
100
AcDbEntity
  8
M1
  6
CONTINUOUS
370
25
 62
     7
100
AcDbLine
 10
462.452082
 20
804.499058
 11
462.452082
 21
793.529393
  0
LINE
  5
84
100
AcDbEntity
  8
M1
  6
CONTINUOUS
370
25
 62
     7
100
AcDbLine
 10
481.418146
 20
793.5098
 11
481.418146
 21
804.479344
  0
LINE
  5
85
100
AcDbEntity
  8
M1
  6
CONTINUOUS
370
25
 62
     7
100
AcDbLine
 10
471.951105
 20
788.042149
 11
462.451105
 21
793.527073
  0
LINE
  5
86
100
AcDbEntity
  8
M1
  6
CONTINUOUS
370
25
 62
     7
100
AcDbLine
 10
327.335138
 20
882.469578
 11
327.335138
 21
871.539158
  0
LINE
  5
87
100
AcDbEntity
  8
M1
  6
CONTINUOUS
370
25
 62
     7
100
AcDbLine
 10
346.335138
 20
882.4697
 11
346.335138
 21
871.539158
  0
LINE
  5
88
100
AcDbEntity
  8
M1
  6
CONTINUOUS
370
25
 62
     7
100
AcDbLine
 10
327.335138
 20
882.47025
 11
336.835138
 21
887.955052
  0
LINE
  5
89
100
AcDbEntity
  8
M1
  6
CONTINUOUS
370
25
 62
     7
100
AcDbLine
 10
327.335138
 20
871.539158
 11
336.835138
 21
866.054356
  0
LINE
  5
8A
100
AcDbEntity
  8
M1
  6
CONTINUOUS
370
25
 62
     7
100
AcDbLine
 10
346.335138
 20
882.469761
 11
336.835138
 21
887.954564
  0
LINE
  5
8B
100
AcDbEntity
  8
M1
  6
CONTINUOUS
370
25
 62
     7
100
AcDbLine
 10
346.336115
 20
871.539097
 11
336.836115
 21
866.054173
  0
LINE
  5
8C
100
AcDbEntity
  8
M1
  6
CONTINUOUS
370
25
 62
     7
100
AcDbLine
 10
192.252131
 20
793.509861
 11
201.718073
 21
788.044651
  0
LINE
  5
8D
100
AcDbEntity
  8
M1
  6
CONTINUOUS
370
25
 62
     7
100
AcDbLine
 10
201.752131
 20
809.964268
 11
211.218073
 21
804.499058
  0
LINE
  5
8E
100
AcDbEntity
  8
M1
  6
CONTINUOUS
370
25
 62
     7
100
AcDbLine
 10
192.252131
 20
793.509861
 11
192.252131
 21
804.479588
  0
LINE
  5
8F
100
AcDbEntity
  8
M1
  6
CONTINUOUS
370
25
 62
     7
100
AcDbLine
 10
201.718073
 20
788.045872
 11
211.218073
 21
793.530674
  0
LINE
  5
90
100
AcDbEntity
  8
M1
  6
CONTINUOUS
370
25
 62
     7
100
AcDbLine
 10
201.752131
 20
809.965245
 11
192.252131
 21
804.480503
  0
LINE
  5
91
100
AcDbEntity
  8
M1
  6
CONTINUOUS
370
25
 62
     7
100
AcDbLine
 10
211.221125
 20
804.499302
 11
211.221125
 21
793.529454
  0
LINE
  5
92
100
AcDbEntity
  8
M1
  6
CONTINUOUS
370
25
 62
     7
100
AcDbLine
 10
201.752131
 20
632.045475
 11
211.218073
 21
637.510685
  0
LINE
  5
93
100
AcDbEntity
  8
M1
  6
CONTINUOUS
370
25
 62
     7
100
AcDbLine
 10
192.252131
 20
648.500065
 11
201.718073
 21
653.965275
  0
LINE
  5
94
100
AcDbEntity
  8
M1
  6
CONTINUOUS
370
25
 62
     7
100
AcDbLine
 10
201.752131
 20
632.04456
 11
192.252131
 21
637.529362
  0
LINE
  5
95
100
AcDbEntity
  8
M1
  6
CONTINUOUS
370
25
 62
     7
100
AcDbLine
 10
211.219172
 20
637.50977
 11
211.219172
 21
648.479588
  0
LINE
  5
96
100
AcDbEntity
  8
M1
  6
CONTINUOUS
370
25
 62
     7
100
AcDbLine
 10
192.253107
 20
648.498967
 11
192.253107
 21
637.529362
  0
LINE
  5
97
100
AcDbEntity
  8
M1
  6
CONTINUOUS
370
25
 62
     7
100
AcDbLine
 10
201.720148
 20
653.966771
 11
211.220148
 21
648.481877
  0
LINE
  5
98
100
AcDbEntity
  8
M1
  6
CONTINUOUS
370
25
 62
     7
100
AcDbLine
 10
346.335138
 20
559.539158
 11
346.335138
 21
570.46967
  0
LINE
  5
99
100
AcDbEntity
  8
M1
  6
CONTINUOUS
370
25
 62
     7
100
AcDbLine
 10
327.335138
 20
559.539158
 11
327.335138
 21
570.46967
  0
LINE
  5
9A
100
AcDbEntity
  8
M1
  6
CONTINUOUS
370
25
 62
     7
100
AcDbLine
 10
346.335138
 20
559.540074
 11
336.835138
 21
554.05518
  0
LINE
  5
9B
100
AcDbEntity
  8
M1
  6
CONTINUOUS
370
25
 62
     7
100
AcDbLine
 10
346.335138
 20
570.470066
 11
336.835138
 21
575.954869
  0
LINE
  5
9C
100
AcDbEntity
  8
M1
  6
CONTINUOUS
370
25
 62
     7
100
AcDbLine
 10
327.336115
 20
559.539585
 11
336.835138
 21
554.054661
  0
LINE
  5
9D
100
AcDbEntity
  8
M1
  6
CONTINUOUS
370
25
 62
     7
100
AcDbLine
 10
327.334162
 20
570.47266
 11
336.834162
 21
575.957676
  0
LINE
  5
9E
100
AcDbEntity
  8
M1
  6
CONTINUOUS
370
25
 62
     7
100
AcDbLine
 10
481.418146
 20
648.499058
 11
471.952082
 21
653.96436
  0
LINE
  5
9F
100
AcDbEntity
  8
M1
  6
CONTINUOUS
370
25
 62
     7
100
AcDbLine
 10
471.918146
 20
632.044682
 11
462.452082
 21
637.509861
  0
LINE
  5
A0
100
AcDbEntity
  8
M1
  6
CONTINUOUS
370
25
 62
     7
100
AcDbLine
 10
481.419123
 20
648.49918
 11
481.419123
 21
637.529484
  0
LINE
  5
A1
100
AcDbEntity
  8
M1
  6
CONTINUOUS
370
25
 62
     7
100
AcDbLine
 10
471.952082
 20
653.965275
 11
462.452082
 21
648.480473
  0
LINE
  5
A2
100
AcDbEntity
  8
M1
  6
CONTINUOUS
370
25
 62
     7
100
AcDbLine
 10
471.918146
 20
632.045658
 11
481.418146
 21
637.530461
  0
LINE
  5
A3
100
AcDbEntity
  8
M1
  6
CONTINUOUS
370
25
 62
     7
100
AcDbLine
 10
462.450129
 20
637.509587
 11
462.450129
 21
648.479374
  0
LINE
  5
A4
100
AcDbEntity
  8
M1
  6
CONTINUOUS
370
25
 62
     7
100
AcDbLine
 10
795.862543
 20
809.954502
 11
795.862543
 21
788.054356
  0
LINE
  5
A5
100
AcDbEntity
  8
M1
  6
CONTINUOUS
370
25
 62
     7
100
AcDbLine
 10
795.862543
 20
809.75449
 11
798.862543
 21
809.75449
  0
LINE
  5
A6
100
AcDbEntity
  8
M1
  6
CONTINUOUS
370
25
 62
     7
100
AcDbLine
 10
795.862543
 20
788.25449
 11
798.862543
 21
788.25449
  0
LINE
  5
A7
100
AcDbEntity
  8
M1
  6
CONTINUOUS
370
25
 62
     7
100
AcDbLine
 10
795.862055
 20
800.012547
 11
798.862055
 21
803.012547
  0
LINE
  5
A8
100
AcDbEntity
  8
M1
  6
CONTINUOUS
370
25
 62
     7
100
AcDbLine
 10
795.861933
 20
795.770054
 11
798.861933
 21
798.770054
  0
LINE
  5
A9
100
AcDbEntity
  8
M1
  6
CONTINUOUS
370
25
 62
     7
100
AcDbLine
 10
787.862543
 20
808.004795
 11
787.862543
 21
790.004246
  0
LINE
  5
AA
100
AcDbEntity
  8
M1
  6
CONTINUOUS
370
25
 62
     7
100
AcDbLine
 10
788.988215
 20
788.054356
 11
795.862543
 21
788.054356
  0
LINE
  5
AB
100
AcDbEntity
  8
M1
  6
CONTINUOUS
370
25
 62
     7
100
AcDbLine
 10
788.988215
 20
809.954502
 11
795.862543
 21
809.954502
  0
LINE
  5
AC
100
AcDbEntity
  8
M1
  6
CONTINUOUS
370
25
 62
     7
100
AcDbLine
 10
788.988215
 20
805.00449
 11
795.862543
 21
805.00449
  0
LINE
  5
AD
100
AcDbEntity
  8
M1
  6
CONTINUOUS
370
25
 62
     7
100
AcDbLine
 10
788.988215
 20
793.00449
 11
795.862543
 21
793.00449
  0
LINE
  5
AE
100
AcDbEntity
  8
M1
  6
CONTINUOUS
370
25
 62
     7
100
AcDbLine
 10
787.862116
 20
808.004795
 11
788.987909
 21
809.954686
  0
LINE
  5
AF
100
AcDbEntity
  8
M1
  6
CONTINUOUS
370
25
 62
     7
100
AcDbLine
 10
787.863215
 20
790.004856
 11
788.989008
 21
788.055088
  0
LINE
  5
B0
100
AcDbEntity
  8
M1
  6
CONTINUOUS
370
25
 62
     7
100
AcDbLine
 10
795.862543
 20
887.954502
 11
795.862543
 21
866.054356
  0
LINE
  5
B1
100
AcDbEntity
  8
M1
  6
CONTINUOUS
370
25
 62
     7
100
AcDbLine
 10
795.862543
 20
887.75449
 11
798.862543
 21
887.75449
  0
LINE
  5
B2
100
AcDbEntity
  8
M1
  6
CONTINUOUS
370
25
 62
     7
100
AcDbLine
 10
795.862543
 20
866.25449
 11
798.862543
 21
866.25449
  0
LINE
  5
B3
100
AcDbEntity
  8
M1
  6
CONTINUOUS
370
25
 62
     7
100
AcDbLine
 10
795.862055
 20
878.012791
 11
798.861933
 21
881.012791
  0
LINE
  5
B4
100
AcDbEntity
  8
M1
  6
CONTINUOUS
370
25
 62
     7
100
AcDbLine
 10
795.861811
 20
873.770176
 11
798.861811
 21
876.770176
  0
LINE
  5
B5
100
AcDbEntity
  8
M1
  6
CONTINUOUS
370
25
 62
     7
100
AcDbLine
 10
787.862543
 20
886.004795
 11
787.862543
 21
868.004246
  0
LINE
  5
B6
100
AcDbEntity
  8
M1
  6
CONTINUOUS
370
25
 62
     7
100
AcDbLine
 10
788.988215
 20
866.054356
 11
795.862543
 21
866.054356
  0
LINE
  5
B7
100
AcDbEntity
  8
M1
  6
CONTINUOUS
370
25
 62
     7
100
AcDbLine
 10
788.988215
 20
887.954502
 11
795.862543
 21
887.954502
  0
LINE
  5
B8
100
AcDbEntity
  8
M1
  6
CONTINUOUS
370
25
 62
     7
100
AcDbLine
 10
788.988215
 20
883.00449
 11
795.862543
 21
883.00449
  0
LINE
  5
B9
100
AcDbEntity
  8
M1
  6
CONTINUOUS
370
25
 62
     7
100
AcDbLine
 10
788.988215
 20
871.00449
 11
795.862543
 21
871.00449
  0
LINE
  5
BA
100
AcDbEntity
  8
M1
  6
CONTINUOUS
370
25
 62
     7
100
AcDbLine
 10
787.862116
 20
886.004795
 11
788.987909
 21
887.954686
  0
LINE
  5
BB
100
AcDbEntity
  8
M1
  6
CONTINUOUS
370
25
 62
     7
100
AcDbLine
 10
787.863215
 20
868.004856
 11
788.989008
 21
866.054844
  0
LINE
  5
BC
100
AcDbEntity
  8
M1
  6
CONTINUOUS
370
25
 62
     7
100
AcDbLine
 10
795.862543
 20
632.054387
 11
795.862543
 21
653.954472
  0
LINE
  5
BD
100
AcDbEntity
  8
M1
  6
CONTINUOUS
370
25
 62
     7
100
AcDbLine
 10
795.862543
 20
632.25446
 11
798.862543
 21
632.25446
  0
LINE
  5
BE
100
AcDbEntity
  8
M1
  6
CONTINUOUS
370
25
 62
     7
100
AcDbLine
 10
795.862543
 20
653.75446
 11
798.862543
 21
653.75446
  0
LINE
  5
BF
100
AcDbEntity
  8
M1
  6
CONTINUOUS
370
25
 62
     7
100
AcDbLine
 10
787.862543
 20
634.004185
 11
787.862543
 21
652.004582
  0
LINE
  5
C0
100
AcDbEntity
  8
M1
  6
CONTINUOUS
370
25
 62
     7
100
AcDbLine
 10
788.988215
 20
653.954472
 11
795.862543
 21
653.954472
  0
LINE
  5
C1
100
AcDbEntity
  8
M1
  6
CONTINUOUS
370
25
 62
     7
100
AcDbLine
 10
788.988215
 20
632.054387
 11
795.862543
 21
632.054387
  0
LINE
  5
C2
100
AcDbEntity
  8
M1
  6
CONTINUOUS
370
25
 62
     7
100
AcDbLine
 10
788.988215
 20
637.00446
 11
795.862543
 21
637.00446
  0
LINE
  5
C3
100
AcDbEntity
  8
M1
  6
CONTINUOUS
370
25
 62
     7
100
AcDbLine
 10
788.988215
 20
649.00446
 11
795.862543
 21
649.00446
  0
LINE
  5
C4
100
AcDbEntity
  8
M1
  6
CONTINUOUS
370
25
 62
     7
100
AcDbLine
 10
787.863459
 20
634.004979
 11
788.989252
 21
632.055088
  0
LINE
  5
C5
100
AcDbEntity
  8
M1
  6
CONTINUOUS
370
25
 62
     7
100
AcDbLine
 10
787.864008
 20
652.003575
 11
788.989802
 21
653.953587
  0
LINE
  5
C6
100
AcDbEntity
  8
M1
  6
CONTINUOUS
370
25
 62
     7
100
AcDbLine
 10
795.862543
 20
554.054387
 11
795.862543
 21
575.954472
  0
LINE
  5
C7
100
AcDbEntity
  8
M1
  6
CONTINUOUS
370
25
 62
     7
100
AcDbLine
 10
795.862543
 20
554.25446
 11
798.862543
 21
554.25446
  0
LINE
  5
C8
100
AcDbEntity
  8
M1
  6
CONTINUOUS
370
25
 62
     7
100
AcDbLine
 10
795.862543
 20
575.75446
 11
798.862543
 21
575.75446
  0
LINE
  5
C9
100
AcDbEntity
  8
M1
  6
CONTINUOUS
370
25
 62
     7
100
AcDbLine
 10
787.862543
 20
556.004185
 11
787.862543
 21
574.004582
  0
LINE
  5
CA
100
AcDbEntity
  8
M1
  6
CONTINUOUS
370
25
 62
     7
100
AcDbLine
 10
788.988215
 20
575.954472
 11
795.862543
 21
575.954472
  0
LINE
  5
CB
100
AcDbEntity
  8
M1
  6
CONTINUOUS
370
25
 62
     7
100
AcDbLine
 10
788.988215
 20
554.054387
 11
795.862543
 21
554.054387
  0
LINE
  5
CC
100
AcDbEntity
  8
M1
  6
CONTINUOUS
370
25
 62
     7
100
AcDbLine
 10
788.988215
 20
559.00446
 11
795.862543
 21
559.00446
  0
LINE
  5
CD
100
AcDbEntity
  8
M1
  6
CONTINUOUS
370
25
 62
     7
100
AcDbLine
 10
788.988215
 20
571.00446
 11
795.862543
 21
571.00446
  0
LINE
  5
CE
100
AcDbEntity
  8
M1
  6
CONTINUOUS
370
25
 62
     7
100
AcDbLine
 10
787.86352
 20
556.00507
 11
788.989313
 21
554.055088
  0
LINE
  5
CF
100
AcDbEntity
  8
M1
  6
CONTINUOUS
370
25
 62
     7
100
AcDbLine
 10
787.864008
 20
574.003788
 11
788.990046
 21
575.953678
  0
LINE
  5
D0
100
AcDbEntity
  8
M1
  6
CONTINUOUS
370
25
 62
     7
100
AcDbLine
 10
946.862421
 20
809.954502
 11
946.862421
 21
788.054356
  0
LINE
  5
D1
100
AcDbEntity
  8
M1
  6
CONTINUOUS
370
25
 62
     7
100
AcDbLine
 10
946.862421
 20
809.75449
 11
943.862421
 21
809.75449
  0
LINE
  5
D2
100
AcDbEntity
  8
M1
  6
CONTINUOUS
370
25
 62
     7
100
AcDbLine
 10
946.862421
 20
788.25449
 11
943.862421
 21
788.25449
  0
LINE
  5
D3
100
AcDbEntity
  8
M1
  6
CONTINUOUS
370
25
 62
     7
100
AcDbLine
 10
954.862421
 20
808.004795
 11
954.862421
 21
790.004246
  0
LINE
  5
D4
100
AcDbEntity
  8
M1
  6
CONTINUOUS
370
25
 62
     7
100
AcDbLine
 10
953.736628
 20
788.054356
 11
946.862421
 21
788.054356
  0
LINE
  5
D5
100
AcDbEntity
  8
M1
  6
CONTINUOUS
370
25
 62
     7
100
AcDbLine
 10
953.736628
 20
809.954502
 11
946.862421
 21
809.954502
  0
LINE
  5
D6
100
AcDbEntity
  8
M1
  6
CONTINUOUS
370
25
 62
     7
100
AcDbLine
 10
953.736628
 20
805.00449
 11
946.862421
 21
805.00449
  0
LINE
  5
D7
100
AcDbEntity
  8
M1
  6
CONTINUOUS
370
25
 62
     7
100
AcDbLine
 10
953.736628
 20
793.00449
 11
946.862421
 21
793.00449
  0
LINE
  5
D8
100
AcDbEntity
  8
M1
  6
CONTINUOUS
370
25
 62
     7
100
AcDbLine
 10
954.862909
 20
808.004673
 11
953.737116
 21
809.954564
  0
LINE
  5
D9
100
AcDbEntity
  8
M1
  6
CONTINUOUS
370
25
 62
     7
100
AcDbLine
 10
954.863703
 20
790.003697
 11
953.737848
 21
788.053746
  0
LINE
  5
DA
100
AcDbEntity
  8
M1
  6
CONTINUOUS
370
25
 62
     7
100
AcDbLine
 10
946.862421
 20
887.954502
 11
946.862421
 21
866.054356
  0
LINE
  5
DB
100
AcDbEntity
  8
M1
  6
CONTINUOUS
370
25
 62
     7
100
AcDbLine
 10
946.862421
 20
887.75449
 11
943.862421
 21
887.75449
  0
LINE
  5
DC
100
AcDbEntity
  8
M1
  6
CONTINUOUS
370
25
 62
     7
100
AcDbLine
 10
946.862421
 20
866.25449
 11
943.862421
 21
866.25449
  0
LINE
  5
DD
100
AcDbEntity
  8
M1
  6
CONTINUOUS
370
25
 62
     7
100
AcDbLine
 10
954.862421
 20
886.004795
 11
954.862421
 21
868.004246
  0
LINE
  5
DE
100
AcDbEntity
  8
M1
  6
CONTINUOUS
370
25
 62
     7
100
AcDbLine
 10
953.736628
 20
866.054356
 11
946.862421
 21
866.054356
  0
LINE
  5
DF
100
AcDbEntity
  8
M1
  6
CONTINUOUS
370
25
 62
     7
100
AcDbLine
 10
953.736628
 20
887.954502
 11
946.862421
 21
887.954502
  0
LINE
  5
E0
100
AcDbEntity
  8
M1
  6
CONTINUOUS
370
25
 62
     7
100
AcDbLine
 10
953.736628
 20
883.00449
 11
946.862421
 21
883.00449
  0
LINE
  5
E1
100
AcDbEntity
  8
M1
  6
CONTINUOUS
370
25
 62
     7
100
AcDbLine
 10
953.736628
 20
871.00449
 11
946.862421
 21
871.00449
  0
LINE
  5
E2
100
AcDbEntity
  8
M1
  6
CONTINUOUS
370
25
 62
     7
100
AcDbLine
 10
954.863154
 20
886.004795
 11
953.737238
 21
887.954686
  0
LINE
  5
E3
100
AcDbEntity
  8
M1
  6
CONTINUOUS
370
25
 62
     7
100
AcDbLine
 10
954.86413
 20
868.00327
 11
953.738215
 21
866.053257
  0
LINE
  5
E4
100
AcDbEntity
  8
M1
  6
CONTINUOUS
370
25
 62
     7
100
AcDbLine
 10
946.862421
 20
632.054387
 11
946.862421
 21
653.954472
  0
LINE
  5
E5
100
AcDbEntity
  8
M1
  6
CONTINUOUS
370
25
 62
     7
100
AcDbLine
 10
946.862421
 20
632.25446
 11
943.862421
 21
632.25446
  0
LINE
  5
E6
100
AcDbEntity
  8
M1
  6
CONTINUOUS
370
25
 62
     7
100
AcDbLine
 10
946.862421
 20
653.75446
 11
943.862421
 21
653.75446
  0
LINE
  5
E7
100
AcDbEntity
  8
M1
  6
CONTINUOUS
370
25
 62
     7
100
AcDbLine
 10
946.862604
 20
641.996281
 11
943.862604
 21
638.996281
  0
LINE
  5
E8
100
AcDbEntity
  8
M1
  6
CONTINUOUS
370
25
 62
     7
100
AcDbLine
 10
946.862604
 20
646.238987
 11
943.862604
 21
643.239079
  0
LINE
  5
E9
100
AcDbEntity
  8
M1
  6
CONTINUOUS
370
25
 62
     7
100
AcDbLine
 10
954.862421
 20
634.004185
 11
954.862421
 21
652.004582
  0
LINE
  5
EA
100
AcDbEntity
  8
M1
  6
CONTINUOUS
370
25
 62
     7
100
AcDbLine
 10
953.736628
 20
653.954472
 11
946.862421
 21
653.954472
  0
LINE
  5
EB
100
AcDbEntity
  8
M1
  6
CONTINUOUS
370
25
 62
     7
100
AcDbLine
 10
953.736628
 20
632.054387
 11
946.862421
 21
632.054387
  0
LINE
  5
EC
100
AcDbEntity
  8
M1
  6
CONTINUOUS
370
25
 62
     7
100
AcDbLine
 10
953.736628
 20
637.00446
 11
946.862421
 21
637.00446
  0
LINE
  5
ED
100
AcDbEntity
  8
M1
  6
CONTINUOUS
370
25
 62
     7
100
AcDbLine
 10
953.736628
 20
649.00446
 11
946.862421
 21
649.00446
  0
LINE
  5
EE
100
AcDbEntity
  8
M1
  6
CONTINUOUS
370
25
 62
     7
100
AcDbLine
 10
954.861628
 20
634.004765
 11
953.735834
 21
632.054783
  0
LINE
  5
EF
100
AcDbEntity
  8
M1
  6
CONTINUOUS
370
25
 62
     7
100
AcDbLine
 10
954.863154
 20
652.004887
 11
953.737238
 21
653.954869
  0
LINE
  5
F0
100
AcDbEntity
  8
M1
  6
CONTINUOUS
370
25
 62
     7
100
AcDbLine
 10
946.862421
 20
554.054387
 11
946.862421
 21
575.954472
  0
LINE
  5
F1
100
AcDbEntity
  8
M1
  6
CONTINUOUS
370
25
 62
     7
100
AcDbLine
 10
946.862421
 20
554.25446
 11
943.862421
 21
554.25446
  0
LINE
  5
F2
100
AcDbEntity
  8
M1
  6
CONTINUOUS
370
25
 62
     7
100
AcDbLine
 10
946.862421
 20
575.75446
 11
943.862421
 21
575.75446
  0
LINE
  5
F3
100
AcDbEntity
  8
M1
  6
CONTINUOUS
370
25
 62
     7
100
AcDbLine
 10
946.861933
 20
563.996983
 11
943.861933
 21
560.996983
  0
LINE
  5
F4
100
AcDbEntity
  8
M1
  6
CONTINUOUS
370
25
 62
     7
100
AcDbLine
 10
946.862116
 20
568.239567
 11
943.862116
 21
565.239567
  0
LINE
  5
F5
100
AcDbEntity
  8
M1
  6
CONTINUOUS
370
25
 62
     7
100
AcDbLine
 10
954.862421
 20
556.004185
 11
954.862421
 21
574.004582
  0
LINE
  5
F6
100
AcDbEntity
  8
M1
  6
CONTINUOUS
370
25
 62
     7
100
AcDbLine
 10
953.736628
 20
575.954472
 11
946.862421
 21
575.954472
  0
LINE
  5
F7
100
AcDbEntity
  8
M1
  6
CONTINUOUS
370
25
 62
     7
100
AcDbLine
 10
953.736628
 20
554.054387
 11
946.862421
 21
554.054387
  0
LINE
  5
F8
100
AcDbEntity
  8
M1
  6
CONTINUOUS
370
25
 62
     7
100
AcDbLine
 10
953.736628
 20
559.00446
 11
946.862421
 21
559.00446
  0
LINE
  5
F9
100
AcDbEntity
  8
M1
  6
CONTINUOUS
370
25
 62
     7
100
AcDbLine
 10
953.736628
 20
571.00446
 11
946.862421
 21
571.00446
  0
LINE
  5
FA
100
AcDbEntity
  8
M1
  6
CONTINUOUS
370
25
 62
     7
100
AcDbLine
 10
954.861811
 20
556.004765
 11
953.736017
 21
554.054783
  0
LINE
  5
FB
100
AcDbEntity
  8
M1
  6
CONTINUOUS
370
25
 62
     7
100
AcDbLine
 10
954.862055
 20
574.00446
 11
953.736139
 21
575.95438
  0
LINE
  5
FC
100
AcDbEntity
  8
M1
  6
CONTINUOUS
370
25
 62
     7
100
AcDbLine
 10
943.862055
 20
878.748448
 11
946.862055
 21
881.748448
  0
LINE
  5
FD
100
AcDbEntity
  8
M1
  6
CONTINUOUS
370
25
 62
     7
100
AcDbLine
 10
943.862055
 20
874.505894
 11
946.862055
 21
877.505894
  0
LINE
  5
FE
100
AcDbEntity
  8
M1
  6
CONTINUOUS
370
25
 62
     7
100
AcDbLine
 10
943.861811
 20
801.159092
 11
946.861933
 21
804.159092
  0
LINE
  5
FF
100
AcDbEntity
  8
M1
  6
CONTINUOUS
370
25
 62
     7
100
AcDbLine
 10
943.861811
 20
796.916355
 11
946.861811
 21
799.916355
  0
LINE
  5
100
100
AcDbEntity
  8
M1
  6
CONTINUOUS
370
25
 62
     7
100
AcDbLine
 10
795.861933
 20
643.868565
 11
798.861933
 21
646.868565
  0
LINE
  5
101
100
AcDbEntity
  8
M1
  6
CONTINUOUS
370
25
 62
     7
100
AcDbLine
 10
795.861811
 20
565.870671
 11
798.861933
 21
568.870671
  0
LINE
  5
102
100
AcDbEntity
  8
M1
  6
CONTINUOUS
370
25
 62
     7
100
AcDbLine
 10
795.862055
 20
639.625767
 11
798.862055
 21
642.625767
  0
LINE
  5
103
100
AcDbEntity
  8
M1
  6
CONTINUOUS
370
25
 62
     7
100
AcDbLine
 10
795.862055
 20
561.627964
 11
798.862055
 21
564.627964
  0
LINE
  5
104
100
AcDbEntity
  8
M1
  6
CONTINUOUS
370
25
 62
     7
100
AcDbLine
 10
362.835138
 20
727.00446
 11
354.835138
 21
727.00446
  0
LINE
  5
105
100
AcDbEntity
  8
M1
  6
CONTINUOUS
370
25
 62
     7
100
AcDbLine
 10
354.835138
 20
727.00446
 11
354.835138
 21
715.00446
  0
LINE
  5
106
100
AcDbEntity
  8
M1
  6
CONTINUOUS
370
25
 62
     7
100
AcDbLine
 10
362.835138
 20
727.00446
 11
362.835138
 21
715.00446
  0
LINE
  5
107
100
AcDbEntity
  8
M1
  6
CONTINUOUS
370
25
 62
     7
100
AcDbLine
 10
362.835138
 20
715.00446
 11
354.835138
 21
715.00446
  0
LINE
  5
108
100
AcDbEntity
  8
M1
  6
CONTINUOUS
370
25
 62
     7
100
AcDbLine
 10
448.274103
 20
809.816685
 11
399.060114
 21
760.602787
  0
LINE
  5
109
100
AcDbEntity
  8
M1
  6
CONTINUOUS
370
25
 62
     7
100
AcDbLine
 10
402.595148
 20
744.996281
 11
434.832087
 21
758.349064
  0
LINE
  5
10A
100
AcDbEntity
  8
M1
  6
CONTINUOUS
370
25
 62
     7
100
AcDbLine
 10
400.299128
 20
750.539463
 11
432.536188
 21
763.892369
  0
LINE
  5
10B
100
AcDbEntity
  8
M1
  6
CONTINUOUS
370
13
 62
     7
100
AcDbLine
 10
258.800104
 20
642.970677
 11
274.420099
 21
658.590275
  0
LINE
  5
10C
100
AcDbEntity
  8
M1
  6
CONTINUOUS
370
25
 62
     7
100
AcDbLine
 10
388.901179
 20
838.860997
 11
392.54217
 21
847.649876
  0
LINE
  5
10D
100
AcDbEntity
  8
M1
  6
CONTINUOUS
370
25
 62
     7
100
AcDbLine
 10
408.835138
 20
737.004765
 11
478.434137
 21
737.004765
  0
LINE
  5
10E
100
AcDbEntity
  8
M1
  6
CONTINUOUS
370
13
 62
     7
100
AcDbLine
 10
399.809137
 20
783.9791
 11
415.849177
 21
800.018956
  0
LINE
  5
10F
100
AcDbEntity
  8
M1
  6
CONTINUOUS
370
13
 62
     7
100
AcDbLine
 10
258.52508
 20
799.313694
 11
273.126154
 21
784.712803
  0
LINE
  5
110
100
AcDbEntity
  8
M1
  6
CONTINUOUS
370
13
 62
     7
100
AcDbLine
 10
400.03509
 20
657.804173
 11
415.655085
 21
642.184574
  0
LINE
  5
111
100
AcDbEntity
  8
M1
  6
CONTINUOUS
370
25
 62
     7
100
AcDbLine
 10
822.86352
 20
918.503392
 11
820.863642
 21
916.503392
  0
LINE
  5
112
100
AcDbEntity
  8
M1
  6
CONTINUOUS
370
25
 62
     7
100
AcDbLine
 10
919.86236
 20
918.504551
 11
921.86236
 21
916.504551
  0
LINE
  5
113
100
AcDbEntity
  8
M1
  6
CONTINUOUS
370
25
 62
     7
100
AcDbLine
 10
820.862543
 20
525.504582
 11
822.862421
 21
523.504582
  0
LINE
  5
114
100
AcDbEntity
  8
M1
  6
CONTINUOUS
370
25
 62
     7
100
AcDbLine
 10
921.862604
 20
525.504277
 11
919.862604
 21
523.504277
  0
LINE
  5
115
100
AcDbEntity
  8
M1
  6
CONTINUOUS
370
25
 62
     7
100
AcDbLine
 10
352.835138
 20
862.603245
 11
352.835138
 21
793.00449
  0
LINE
  5
116
100
AcDbEntity
  8
M1
  6
CONTINUOUS
370
25
 62
     7
100
AcDbLine
 10
360.82818
 20
786.764256
 11
374.181086
 21
819.00095
  0
LINE
  5
117
100
AcDbEntity
  8
M1
  6
CONTINUOUS
370
25
 62
     7
100
AcDbLine
 10
366.371149
 20
784.468296
 11
379.724177
 21
816.704991
  0
LINE
  5
118
100
AcDbEntity
  8
M1
  6
CONTINUOUS
370
25
 62
     7
100
AcDbLine
 10
376.433161
 20
783.230259
 11
425.64715
 21
832.444188
  0
LINE
  5
119
100
AcDbEntity
  8
M1
  6
CONTINUOUS
370
25
 62
     7
100
AcDbLine
 10
248.023127
 20
832.44376
 11
297.237116
 21
783.229893
  0
LINE
  5
11A
100
AcDbEntity
  8
M1
  6
CONTINUOUS
370
25
 62
     7
100
AcDbLine
 10
307.301081
 20
784.468785
 11
293.948176
 21
816.705601
  0
LINE
  5
11B
100
AcDbEntity
  8
M1
  6
CONTINUOUS
370
25
 62
     7
100
AcDbLine
 10
312.844172
 20
786.765049
 11
299.492121
 21
819.001683
  0
LINE
  5
11C
100
AcDbEntity
  8
M1
  6
CONTINUOUS
370
25
 62
     7
100
AcDbLine
 10
320.835138
 20
793.004551
 11
320.835138
 21
862.603245
  0
LINE
  5
11D
100
AcDbEntity
  8
M1
  6
CONTINUOUS
370
25
 62
     7
100
AcDbLine
 10
195.236139
 20
737.004368
 11
264.835138
 21
737.004368
  0
LINE
  5
11E
100
AcDbEntity
  8
M1
  6
CONTINUOUS
370
25
 62
     7
100
AcDbLine
 10
271.075129
 20
744.996586
 11
238.839167
 21
758.349461
  0
LINE
  5
11F
100
AcDbEntity
  8
M1
  6
CONTINUOUS
370
25
 62
     7
100
AcDbLine
 10
273.371149
 20
750.540074
 11
241.135187
 21
763.892887
  0
LINE
  5
120
100
AcDbEntity
  8
M1
  6
CONTINUOUS
370
25
 62
     7
100
AcDbLine
 10
274.610163
 20
760.602269
 11
225.396174
 21
809.816075
  0
LINE
  5
121
100
AcDbEntity
  8
M1
  6
CONTINUOUS
370
25
 62
     7
100
AcDbLine
 10
225.396174
 20
632.192662
 11
274.610163
 21
681.406681
  0
LINE
  5
122
100
AcDbEntity
  8
M1
  6
CONTINUOUS
370
25
 62
     7
100
AcDbLine
 10
273.371149
 20
691.470585
 11
241.134089
 21
678.11768
  0
LINE
  5
123
100
AcDbEntity
  8
M1
  6
CONTINUOUS
370
25
 62
     7
100
AcDbLine
 10
271.074152
 20
697.013768
 11
238.83819
 21
683.660984
  0
LINE
  5
124
100
AcDbEntity
  8
M1
  6
CONTINUOUS
370
25
 62
     7
100
AcDbLine
 10
264.835138
 20
705.003971
 11
195.236139
 21
705.003971
  0
LINE
  5
125
100
AcDbEntity
  8
M1
  6
CONTINUOUS
370
25
 62
     7
100
AcDbLine
 10
320.835138
 20
579.405461
 11
320.835138
 21
649.004582
  0
LINE
  5
126
100
AcDbEntity
  8
M1
  6
CONTINUOUS
370
25
 62
     7
100
AcDbLine
 10
312.842096
 20
655.245274
 11
299.489191
 21
623.008488
  0
LINE
  5
127
100
AcDbEntity
  8
M1
  6
CONTINUOUS
370
25
 62
     7
100
AcDbLine
 10
307.298151
 20
657.541081
 11
293.9461
 21
625.30457
  0
LINE
  5
128
100
AcDbEntity
  8
M1
  6
CONTINUOUS
370
25
 62
     7
100
AcDbLine
 10
297.237116
 20
658.77866
 11
248.024103
 21
609.564976
  0
LINE
  5
129
100
AcDbEntity
  8
M1
  6
CONTINUOUS
370
25
 62
     7
100
AcDbLine
 10
425.64715
 20
609.565159
 11
376.433161
 21
658.779179
  0
LINE
  5
12A
100
AcDbEntity
  8
M1
  6
CONTINUOUS
370
25
 62
     7
100
AcDbLine
 10
366.368097
 20
657.539982
 11
379.721125
 21
625.303166
  0
LINE
  5
12B
100
AcDbEntity
  8
M1
  6
CONTINUOUS
370
25
 62
     7
100
AcDbLine
 10
360.824152
 20
655.24326
 11
374.177179
 21
623.006688
  0
LINE
  5
12C
100
AcDbEntity
  8
M1
  6
CONTINUOUS
370
25
 62
     7
100
AcDbLine
 10
352.836115
 20
649.00446
 11
352.836115
 21
579.405583
  0
LINE
  5
12D
100
AcDbEntity
  8
M1
  6
CONTINUOUS
370
25
 62
     7
100
AcDbLine
 10
478.434137
 20
705.004368
 11
408.835138
 21
705.004368
  0
LINE
  5
12E
100
AcDbEntity
  8
M1
  6
CONTINUOUS
370
25
 62
     7
100
AcDbLine
 10
402.594172
 20
697.01157
 11
434.83111
 21
683.658665
  0
LINE
  5
12F
100
AcDbEntity
  8
M1
  6
CONTINUOUS
370
25
 62
     7
100
AcDbLine
 10
400.298151
 20
691.467961
 11
432.53509
 21
678.115178
  0
LINE
  5
130
100
AcDbEntity
  8
M1
  6
CONTINUOUS
370
25
 62
     7
100
AcDbLine
 10
399.061091
 20
681.406773
 11
448.27508
 21
632.192967
  0
LINE
  5
131
100
AcDbEntity
  8
M1
  6
CONTINUOUS
370
25
 62
     7
100
AcDbLine
 10
388.901179
 20
603.147862
 11
392.54217
 21
594.358982
  0
LINE
  5
132
100
AcDbEntity
  8
M1
  6
CONTINUOUS
370
25
 62
     7
100
AcDbLine
 10
284.770075
 20
838.861058
 11
281.129084
 21
847.649998
  0
LINE
  5
133
100
AcDbEntity
  8
M1
  6
CONTINUOUS
370
25
 62
     7
100
AcDbLine
 10
284.769098
 20
603.147862
 11
281.129084
 21
594.359074
  0
LINE
  5
134
100
AcDbEntity
  8
M1
  6
CONTINUOUS
370
25
 62
     7
100
AcDbLine
 10
464.738093
 20
729.004765
 11
476.246149
 21
729.004765
  0
LINE
  5
135
100
AcDbEntity
  8
M1
  6
CONTINUOUS
370
25
 62
     7
100
AcDbLine
 10
476.246149
 20
713.004368
 11
464.738093
 21
713.004368
  0
LINE
  5
136
100
AcDbEntity
  8
M1
  6
CONTINUOUS
370
25
 62
     7
100
AcDbLine
 10
197.425104
 20
713.004368
 11
208.933161
 21
713.004368
  0
LINE
  5
137
100
AcDbEntity
  8
M1
  6
CONTINUOUS
370
25
 62
     7
100
AcDbLine
 10
208.933161
 20
729.004765
 11
197.425104
 21
729.004765
  0
LINE
  5
138
100
AcDbEntity
  8
M1
  6
CONTINUOUS
370
13
 62
     7
100
AcDbLine
 10
1521.322733
 20
721.00446
 11
1498.161631
 21
721.00446
  0
LINE
  5
139
100
AcDbEntity
  8
M1
  6
CONTINUOUS
370
13
 62
     7
100
AcDbLine
 10
1410.889338
 20
832.877354
 11
1410.889338
 21
809.322483
  0
LINE
  5
13A
100
AcDbEntity
  8
M1
  6
CONTINUOUS
370
25
 62
     7
100
AcDbLine
 10
1275.806635
 20
809.965001
 11
1285.27273
 21
804.499791
  0
LINE
  5
13B
100
AcDbEntity
  8
M1
  6
CONTINUOUS
370
25
 62
     7
100
AcDbLine
 10
1266.306727
 20
793.510655
 11
1275.77273
 21
788.045445
  0
LINE
  5
13C
100
AcDbEntity
  8
M1
  6
CONTINUOUS
370
25
 62
     7
100
AcDbLine
 10
1275.806421
 20
809.96439
 11
1266.306421
 21
804.479344
  0
LINE
  5
13D
100
AcDbEntity
  8
M1
  6
CONTINUOUS
370
25
 62
     7
100
AcDbLine
 10
1285.27273
 20
804.499058
 11
1285.27273
 21
793.529393
  0
LINE
  5
13E
100
AcDbEntity
  8
M1
  6
CONTINUOUS
370
25
 62
     7
100
AcDbLine
 10
1266.306727
 20
793.5098
 11
1266.306727
 21
804.479344
  0
LINE
  5
13F
100
AcDbEntity
  8
M1
  6
CONTINUOUS
370
25
 62
     7
100
AcDbLine
 10
1275.773737
 20
788.041844
 11
1285.273829
 21
793.52689
  0
LINE
  5
140
100
AcDbEntity
  8
M1
  6
CONTINUOUS
370
25
 62
     7
100
AcDbLine
 10
1420.389338
 20
882.469578
 11
1420.389338
 21
871.539158
  0
LINE
  5
141
100
AcDbEntity
  8
M1
  6
CONTINUOUS
370
25
 62
     7
100
AcDbLine
 10
1401.389338
 20
882.4697
 11
1401.389338
 21
871.539158
  0
LINE
  5
142
100
AcDbEntity
  8
M1
  6
CONTINUOUS
370
25
 62
     7
100
AcDbLine
 10
1420.389338
 20
882.470189
 11
1410.889338
 21
887.954991
  0
LINE
  5
143
100
AcDbEntity
  8
M1
  6
CONTINUOUS
370
25
 62
     7
100
AcDbLine
 10
1420.389338
 20
871.53928
 11
1410.889338
 21
866.054356
  0
LINE
  5
144
100
AcDbEntity
  8
M1
  6
CONTINUOUS
370
25
 62
     7
100
AcDbLine
 10
1401.389338
 20
882.469578
 11
1410.889338
 21
887.95438
  0
LINE
  5
145
100
AcDbEntity
  8
M1
  6
CONTINUOUS
370
25
 62
     7
100
AcDbLine
 10
1401.389033
 20
871.539158
 11
1410.889124
 21
866.054356
  0
LINE
  5
146
100
AcDbEntity
  8
M1
  6
CONTINUOUS
370
25
 62
     7
100
AcDbLine
 10
1555.47233
 20
793.509861
 11
1546.006334
 21
788.044651
  0
LINE
  5
147
100
AcDbEntity
  8
M1
  6
CONTINUOUS
370
25
 62
     7
100
AcDbLine
 10
1545.972429
 20
809.96439
 11
1536.506334
 21
804.499058
  0
LINE
  5
148
100
AcDbEntity
  8
M1
  6
CONTINUOUS
370
25
 62
     7
100
AcDbLine
 10
1555.472231
 20
793.509861
 11
1555.472231
 21
804.479588
  0
LINE
  5
149
100
AcDbEntity
  8
M1
  6
CONTINUOUS
370
25
 62
     7
100
AcDbLine
 10
1546.006632
 20
788.045262
 11
1536.506731
 21
793.530186
  0
LINE
  5
14A
100
AcDbEntity
  8
M1
  6
CONTINUOUS
370
25
 62
     7
100
AcDbLine
 10
1545.972834
 20
809.964756
 11
1555.472727
 21
804.479954
  0
LINE
  5
14B
100
AcDbEntity
  8
M1
  6
CONTINUOUS
370
25
 62
     7
100
AcDbLine
 10
1536.503428
 20
804.499302
 11
1536.503428
 21
793.529454
  0
LINE
  5
14C
100
AcDbEntity
  8
M1
  6
CONTINUOUS
370
25
 62
     7
100
AcDbLine
 10
1545.972727
 20
632.04517
 11
1536.506731
 21
637.51038
  0
LINE
  5
14D
100
AcDbEntity
  8
M1
  6
CONTINUOUS
370
25
 62
     7
100
AcDbLine
 10
1555.472727
 20
648.49976
 11
1546.00683
 21
653.96497
  0
LINE
  5
14E
100
AcDbEntity
  8
M1
  6
CONTINUOUS
370
25
 62
     7
100
AcDbLine
 10
1545.972429
 20
632.044468
 11
1555.472429
 21
637.529271
  0
LINE
  5
14F
100
AcDbEntity
  8
M1
  6
CONTINUOUS
370
25
 62
     7
100
AcDbLine
 10
1536.505831
 20
637.50977
 11
1536.505831
 21
648.479588
  0
LINE
  5
150
100
AcDbEntity
  8
M1
  6
CONTINUOUS
370
25
 62
     7
100
AcDbLine
 10
1555.471834
 20
648.498967
 11
1555.471834
 21
637.529362
  0
LINE
  5
151
100
AcDbEntity
  8
M1
  6
CONTINUOUS
370
25
 62
     7
100
AcDbLine
 10
1546.005129
 20
653.966679
 11
1536.50503
 21
648.481785
  0
LINE
  5
152
100
AcDbEntity
  8
M1
  6
CONTINUOUS
370
25
 62
     7
100
AcDbLine
 10
1401.389216
 20
559.539158
 11
1401.389216
 21
570.46967
  0
LINE
  5
153
100
AcDbEntity
  8
M1
  6
CONTINUOUS
370
25
 62
     7
100
AcDbLine
 10
1420.389231
 20
559.539158
 11
1420.389231
 21
570.46967
  0
LINE
  5
154
100
AcDbEntity
  8
M1
  6
CONTINUOUS
370
25
 62
     7
100
AcDbLine
 10
1401.389643
 20
559.539677
 11
1410.889628
 21
554.054875
  0
LINE
  5
155
100
AcDbEntity
  8
M1
  6
CONTINUOUS
370
25
 62
     7
100
AcDbLine
 10
1401.389216
 20
570.469975
 11
1410.889338
 21
575.954777
  0
LINE
  5
156
100
AcDbEntity
  8
M1
  6
CONTINUOUS
370
25
 62
     7
100
AcDbLine
 10
1420.389033
 20
559.539585
 11
1410.889033
 21
554.054661
  0
LINE
  5
157
100
AcDbEntity
  8
M1
  6
CONTINUOUS
370
25
 62
     7
100
AcDbLine
 10
1420.391138
 20
570.472386
 11
1410.890925
 21
575.95728
  0
LINE
  5
158
100
AcDbEntity
  8
M1
  6
CONTINUOUS
370
25
 62
     7
100
AcDbLine
 10
1266.306116
 20
648.499272
 11
1275.772242
 21
653.964482
  0
LINE
  5
159
100
AcDbEntity
  8
M1
  6
CONTINUOUS
370
25
 62
     7
100
AcDbLine
 10
1275.80633
 20
632.044682
 11
1285.272242
 21
637.509861
  0
LINE
  5
15A
100
AcDbEntity
  8
M1
  6
CONTINUOUS
370
25
 62
     7
100
AcDbLine
 10
1266.306238
 20
648.49918
 11
1266.306238
 21
637.529484
  0
LINE
  5
15B
100
AcDbEntity
  8
M1
  6
CONTINUOUS
370
25
 62
     7
100
AcDbLine
 10
1275.772944
 20
653.965184
 11
1285.273127
 21
648.480259
  0
LINE
  5
15C
100
AcDbEntity
  8
M1
  6
CONTINUOUS
370
25
 62
     7
100
AcDbLine
 10
1275.806635
 20
632.045475
 11
1266.306818
 21
637.530186
  0
LINE
  5
15D
100
AcDbEntity
  8
M1
  6
CONTINUOUS
370
25
 62
     7
100
AcDbLine
 10
1285.275019
 20
637.509587
 11
1285.275019
 21
648.479374
  0
LINE
  5
15E
100
AcDbEntity
  8
M1
  6
CONTINUOUS
370
25
 62
     7
100
AcDbLine
 10
1384.889338
 20
727.00446
 11
1392.889338
 21
727.00446
  0
LINE
  5
15F
100
AcDbEntity
  8
M1
  6
CONTINUOUS
370
25
 62
     7
100
AcDbLine
 10
1392.889216
 20
727.00446
 11
1392.889216
 21
715.00446
  0
LINE
  5
160
100
AcDbEntity
  8
M1
  6
CONTINUOUS
370
25
 62
     7
100
AcDbLine
 10
1384.889216
 20
727.00446
 11
1384.889216
 21
715.00446
  0
LINE
  5
161
100
AcDbEntity
  8
M1
  6
CONTINUOUS
370
25
 62
     7
100
AcDbLine
 10
1384.889338
 20
715.00446
 11
1392.889338
 21
715.00446
  0
LINE
  5
162
100
AcDbEntity
  8
M1
  6
CONTINUOUS
370
25
 62
     7
100
AcDbLine
 10
1299.450129
 20
809.81638
 11
1348.664026
 21
760.602482
  0
LINE
  5
163
100
AcDbEntity
  8
M1
  6
CONTINUOUS
370
25
 62
     7
100
AcDbLine
 10
1345.12884
 20
744.994786
 11
1312.892328
 21
758.34766
  0
LINE
  5
164
100
AcDbEntity
  8
M1
  6
CONTINUOUS
370
25
 62
     7
100
AcDbLine
 10
1347.425532
 20
750.538182
 11
1315.188837
 21
763.891087
  0
LINE
  5
165
100
AcDbEntity
  8
M1
  6
CONTINUOUS
370
13
 62
     7
100
AcDbLine
 10
1488.924036
 20
642.970585
 11
1473.304331
 21
658.590184
  0
LINE
  5
166
100
AcDbEntity
  8
M1
  6
CONTINUOUS
370
25
 62
     7
100
AcDbLine
 10
1358.823542
 20
838.860997
 11
1355.183039
 21
847.649876
  0
LINE
  5
167
100
AcDbEntity
  8
M1
  6
CONTINUOUS
370
25
 62
     7
100
AcDbLine
 10
1338.889216
 20
737.004765
 11
1269.29043
 21
737.004765
  0
LINE
  5
168
100
AcDbEntity
  8
M1
  6
CONTINUOUS
370
13
 62
     7
100
AcDbLine
 10
1347.915522
 20
783.978978
 11
1331.875635
 21
800.018895
  0
LINE
  5
169
100
AcDbEntity
  8
M1
  6
CONTINUOUS
370
13
 62
     7
100
AcDbLine
 10
1489.19903
 20
799.313755
 11
1474.598124
 21
784.712986
  0
LINE
  5
16A
100
AcDbEntity
  8
M1
  6
CONTINUOUS
370
13
 62
     7
100
AcDbLine
 10
1347.689539
 20
657.804173
 11
1332.070032
 21
642.184666
  0
LINE
  5
16B
100
AcDbEntity
  8
M1
  6
CONTINUOUS
370
25
 62
     7
100
AcDbLine
 10
1394.889338
 20
862.603245
 11
1394.889338
 21
793.00449
  0
LINE
  5
16C
100
AcDbEntity
  8
M1
  6
CONTINUOUS
370
25
 62
     7
100
AcDbLine
 10
1386.897028
 20
786.764378
 11
1373.544245
 21
819.001194
  0
LINE
  5
16D
100
AcDbEntity
  8
M1
  6
CONTINUOUS
370
25
 62
     7
100
AcDbLine
 10
1381.353632
 20
784.468357
 11
1368.000727
 21
816.705052
  0
LINE
  5
16E
100
AcDbEntity
  8
M1
  6
CONTINUOUS
370
25
 62
     7
100
AcDbLine
 10
1371.291742
 20
783.230198
 11
1322.077936
 21
832.443943
  0
LINE
  5
16F
100
AcDbEntity
  8
M1
  6
CONTINUOUS
370
25
 62
     7
100
AcDbLine
 10
1499.701334
 20
832.443577
 11
1450.487528
 21
783.229649
  0
LINE
  5
170
100
AcDbEntity
  8
M1
  6
CONTINUOUS
370
25
 62
     7
100
AcDbLine
 10
1440.423624
 20
784.468846
 11
1453.776529
 21
816.705662
  0
LINE
  5
171
100
AcDbEntity
  8
M1
  6
CONTINUOUS
370
25
 62
     7
100
AcDbLine
 10
1434.880137
 20
786.765171
 11
1448.233027
 21
819.001744
  0
LINE
  5
172
100
AcDbEntity
  8
M1
  6
CONTINUOUS
370
25
 62
     7
100
AcDbLine
 10
1426.889734
 20
793.004551
 11
1426.889734
 21
862.603245
  0
LINE
  5
173
100
AcDbEntity
  8
M1
  6
CONTINUOUS
370
25
 62
     7
100
AcDbLine
 10
1552.48823
 20
737.004368
 11
1482.889231
 21
737.004368
  0
LINE
  5
174
100
AcDbEntity
  8
M1
  6
CONTINUOUS
370
25
 62
     7
100
AcDbLine
 10
1476.649424
 20
744.996678
 11
1508.886133
 21
758.349583
  0
LINE
  5
175
100
AcDbEntity
  8
M1
  6
CONTINUOUS
370
25
 62
     7
100
AcDbLine
 10
1474.353632
 20
750.540074
 11
1506.590037
 21
763.892887
  0
LINE
  5
176
100
AcDbEntity
  8
M1
  6
CONTINUOUS
370
25
 62
     7
100
AcDbLine
 10
1473.115137
 20
760.602177
 11
1522.328837
 21
809.815953
  0
LINE
  5
177
100
AcDbEntity
  8
M1
  6
CONTINUOUS
370
25
 62
     7
100
AcDbLine
 10
1522.328638
 20
632.19257
 11
1473.114725
 21
681.406559
  0
LINE
  5
178
100
AcDbEntity
  8
M1
  6
CONTINUOUS
370
25
 62
     7
100
AcDbLine
 10
1474.353724
 20
691.470158
 11
1506.590525
 21
678.117283
  0
LINE
  5
179
100
AcDbEntity
  8
M1
  6
CONTINUOUS
370
25
 62
     7
100
AcDbLine
 10
1476.650034
 20
697.013584
 11
1508.886637
 21
683.660771
  0
LINE
  5
17A
100
AcDbEntity
  8
M1
  6
CONTINUOUS
370
25
 62
     7
100
AcDbLine
 10
1482.889338
 20
705.003971
 11
1552.48823
 21
705.003971
  0
LINE
  5
17B
100
AcDbEntity
  8
M1
  6
CONTINUOUS
370
25
 62
     7
100
AcDbLine
 10
1426.889338
 20
579.405461
 11
1426.889338
 21
649.004582
  0
LINE
  5
17C
100
AcDbEntity
  8
M1
  6
CONTINUOUS
370
25
 62
     7
100
AcDbLine
 10
1434.881937
 20
655.244877
 11
1448.234827
 21
623.008183
  0
LINE
  5
17D
100
AcDbEntity
  8
M1
  6
CONTINUOUS
370
25
 62
     7
100
AcDbLine
 10
1440.425425
 20
657.540684
 11
1453.778223
 21
625.304173
  0
LINE
  5
17E
100
AcDbEntity
  8
M1
  6
CONTINUOUS
370
25
 62
     7
100
AcDbLine
 10
1450.487131
 20
658.778874
 11
1499.700937
 21
609.564976
  0
LINE
  5
17F
100
AcDbEntity
  8
M1
  6
CONTINUOUS
370
25
 62
     7
100
AcDbLine
 10
1322.077631
 20
609.565068
 11
1371.291529
 21
658.779087
  0
LINE
  5
180
100
AcDbEntity
  8
M1
  6
CONTINUOUS
370
25
 62
     7
100
AcDbLine
 10
1381.356135
 20
657.540379
 11
1368.003229
 21
625.303563
  0
LINE
  5
181
100
AcDbEntity
  8
M1
  6
CONTINUOUS
370
25
 62
     7
100
AcDbLine
 10
1386.899317
 20
655.243779
 11
1373.546442
 21
623.007267
  0
LINE
  5
182
100
AcDbEntity
  8
M1
  6
CONTINUOUS
370
25
 62
     7
100
AcDbLine
 10
1394.888941
 20
649.00446
 11
1394.888941
 21
579.405583
  0
LINE
  5
183
100
AcDbEntity
  8
M1
  6
CONTINUOUS
370
25
 62
     7
100
AcDbLine
 10
1269.29043
 20
705.004368
 11
1338.889338
 21
705.004368
  0
LINE
  5
184
100
AcDbEntity
  8
M1
  6
CONTINUOUS
370
25
 62
     7
100
AcDbLine
 10
1345.130518
 20
697.011967
 11
1312.893824
 21
683.659062
  0
LINE
  5
185
100
AcDbEntity
  8
M1
  6
CONTINUOUS
370
25
 62
     7
100
AcDbLine
 10
1347.426325
 20
691.467961
 11
1315.189844
 21
678.115086
  0
LINE
  5
186
100
AcDbEntity
  8
M1
  6
CONTINUOUS
370
25
 62
     7
100
AcDbLine
 10
1348.663843
 20
681.406681
 11
1299.449946
 21
632.192784
  0
LINE
  5
187
100
AcDbEntity
  8
M1
  6
CONTINUOUS
370
25
 62
     7
100
AcDbLine
 10
1358.823542
 20
603.147862
 11
1355.183039
 21
594.358982
  0
LINE
  5
188
100
AcDbEntity
  8
M1
  6
CONTINUOUS
370
25
 62
     7
100
AcDbLine
 10
1462.955027
 20
838.860997
 11
1466.59553
 21
847.649876
  0
LINE
  5
189
100
AcDbEntity
  8
M1
  6
CONTINUOUS
370
25
 62
     7
100
AcDbLine
 10
1462.955134
 20
603.147862
 11
1466.595637
 21
594.358982
  0
LINE
  5
18A
100
AcDbEntity
  8
M1
  6
CONTINUOUS
370
25
 62
     7
100
AcDbLine
 10
1282.987024
 20
729.004765
 11
1271.478937
 21
729.004765
  0
LINE
  5
18B
100
AcDbEntity
  8
M1
  6
CONTINUOUS
370
25
 62
     7
100
AcDbLine
 10
1271.478937
 20
713.004368
 11
1282.987024
 21
713.004368
  0
LINE
  5
18C
100
AcDbEntity
  8
M1
  6
CONTINUOUS
370
25
 62
     7
100
AcDbLine
 10
1550.29973
 20
713.004368
 11
1538.791727
 21
713.004368
  0
LINE
  5
18D
100
AcDbEntity
  8
M1
  6
CONTINUOUS
370
25
 62
     7
100
AcDbLine
 10
1538.791727
 20
729.004765
 11
1550.29973
 21
729.004765
  0
LINE
  5
18E
100
AcDbEntity
  8
M1
  6
CONTINUOUS
370
25
 62
     7
100
AcDbLine
 10
894.362421
 20
936.50449
 11
894.362421
 21
918.50449
  0
LINE
  5
18F
100
AcDbEntity
  8
M1
  6
CONTINUOUS
370
25
 62
     7
100
AcDbLine
 10
848.362421
 20
936.50449
 11
848.362421
 21
918.50449
  0
LINE
  5
190
100
AcDbEntity
  8
M1
  6
CONTINUOUS
370
25
 62
     7
100
AcDbLine
 10
855.362421
 20
943.50449
 11
887.362421
 21
943.50449
  0
LINE
  5
191
100
AcDbEntity
  8
M1
  6
CONTINUOUS
370
25
 62
     7
100
AcDbLine
 10
1430.31373
 20
917.546849
 11
1433.675226
 21
936.610752
  0
LINE
  5
192
100
AcDbEntity
  8
M1
  6
CONTINUOUS
370
25
 62
     7
100
AcDbLine
 10
1459.857935
 20
912.337498
 11
1463.219431
 21
931.401402
  0
LINE
  5
193
100
AcDbEntity
  8
M1
  6
CONTINUOUS
370
25
 62
     7
100
AcDbLine
 10
1457.54133
 20
939.510472
 11
1441.784434
 21
942.288853
  0
LINE
  5
194
100
AcDbEntity
  8
M1
  6
CONTINUOUS
370
25
 62
     7
100
AcDbLine
 10
1391.465021
 20
917.546849
 11
1388.103541
 21
936.610752
  0
LINE
  5
195
100
AcDbEntity
  8
M1
  6
CONTINUOUS
370
25
 62
     7
100
AcDbLine
 10
1364.237421
 20
939.510655
 11
1379.994227
 21
942.289097
  0
LINE
  5
196
100
AcDbEntity
  8
M1
  6
CONTINUOUS
370
25
 62
     7
100
AcDbLine
 10
1361.920618
 20
912.337498
 11
1358.559229
 21
931.401402
  0
LINE
  5
197
100
AcDbEntity
  8
M1
  6
CONTINUOUS
370
25
 62
     7
100
AcDbLine
 10
385.804133
 20
912.337254
 11
389.166071
 21
931.401158
  0
LINE
  5
198
100
AcDbEntity
  8
M1
  6
CONTINUOUS
370
25
 62
     7
100
AcDbLine
 10
383.487116
 20
939.510655
 11
367.730158
 21
942.289097
  0
LINE
  5
199
100
AcDbEntity
  8
M1
  6
CONTINUOUS
370
25
 62
     7
100
AcDbLine
 10
356.259089
 20
917.546849
 11
359.621149
 21
936.610752
  0
LINE
  5
19A
100
AcDbEntity
  8
M1
  6
CONTINUOUS
370
25
 62
     7
100
AcDbLine
 10
317.411188
 20
917.546788
 11
314.050104
 21
936.610752
  0
LINE
  5
19B
100
AcDbEntity
  8
M1
  6
CONTINUOUS
370
25
 62
     7
100
AcDbLine
 10
290.183161
 20
939.510655
 11
305.940119
 21
942.289097
  0
LINE
  5
19C
100
AcDbEntity
  8
M1
  6
CONTINUOUS
370
25
 62
     7
100
AcDbLine
 10
287.866144
 20
912.337498
 11
284.505182
 21
931.401158
  0
LINE
  5
19D
100
AcDbEntity
  8
M1
  6
CONTINUOUS
370
13
 62
     7
100
AcDbLine
 10
336.835138
 20
733.270665
 11
336.835138
 21
709.554783
  0
LINE
  5
19E
100
AcDbEntity
  8
M1
  6
CONTINUOUS
370
13
 62
     7
100
AcDbLine
 10
336.835138
 20
635.561161
 11
336.835138
 21
609.948063
  0
LINE
  5
19F
100
AcDbEntity
  8
M1
  6
CONTINUOUS
370
13
 62
     7
100
AcDbLine
 10
1109.186701
 20
721.00446
 11
1142.420832
 21
721.00446
  0
LINE
  5
1A0
100
AcDbEntity
  8
M1
  6
CONTINUOUS
370
13
 62
     7
100
AcDbLine
 10
1410.889338
 20
731.980778
 11
1410.889338
 21
708.606175
  0
LINE
  5
1A1
100
AcDbEntity
  8
M1
  6
CONTINUOUS
370
13
 62
     7
100
AcDbLine
 10
1410.889338
 20
634.612584
 11
1410.889338
 21
607.903172
  0
LINE
  5
1A2
100
AcDbEntity
  8
M1
  6
CONTINUOUS
370
25
 62
     7
100
AcDbLine
 10
770.363947
 20
834.737156
 11
770.363947
 21
608.387181
  0
LINE
  5
1A3
100
AcDbEntity
  8
M1
  6
CONTINUOUS
370
25
 62
     7
100
AcDbLine
 10
972.361017
 20
834.737156
 11
972.361017
 21
608.387181
  0
LINE
  5
1A4
100
AcDbEntity
  8
M1
  6
CONTINUOUS
370
25
 62
     7
100
AcDbLine
 10
718.362116
 20
697.00446
 11
720.362116
 21
697.00446
  0
LINE
  5
1A5
100
AcDbEntity
  8
M1
  6
CONTINUOUS
370
25
 62
     7
100
AcDbLine
 10
718.362116
 20
745.00446
 11
720.362116
 21
745.00446
  0
LINE
  5
1A6
100
AcDbEntity
  8
M1
  6
CONTINUOUS
370
25
 62
     7
100
AcDbLine
 10
1022.362421
 20
745.00446
 11
1024.362421
 21
745.00446
  0
LINE
  5
1A7
100
AcDbEntity
  8
M1
  6
CONTINUOUS
370
25
 62
     7
100
AcDbLine
 10
1022.362421
 20
697.00446
 11
1024.362421
 21
697.00446
  0
LINE
  5
1A8
100
AcDbEntity
  8
M1
  6
CONTINUOUS
370
25
 62
     7
100
AcDbLine
 10
1022.362421
 20
761.100163
 11
1022.362421
 21
680.908787
  0
LINE
  5
1A9
100
AcDbEntity
  8
M1
  6
CONTINUOUS
370
25
 62
     7
100
AcDbLine
 10
720.362116
 20
761.100163
 11
720.362116
 21
680.908787
  0
LINE
  5
1AA
100
AcDbEntity
  8
M1
  6
CONTINUOUS
370
25
 62
     7
100
AcDbLine
 10
422.349177
 20
878.902256
 11
430.823176
 21
874.009678
  0
LINE
  5
1AB
100
AcDbEntity
  8
M1
  6
CONTINUOUS
370
25
 62
     7
100
AcDbLine
 10
430.848078
 20
893.624668
 11
439.322077
 21
888.73209
  0
LINE
  5
1AC
100
AcDbEntity
  8
M1
  6
CONTINUOUS
370
25
 62
     7
100
AcDbLine
 10
422.348078
 20
878.902195
 11
422.348078
 21
888.717259
  0
LINE
  5
1AD
100
AcDbEntity
  8
M1
  6
CONTINUOUS
370
25
 62
     7
100
AcDbLine
 10
430.822077
 20
874.010044
 11
439.322077
 21
878.917576
  0
LINE
  5
1AE
100
AcDbEntity
  8
M1
  6
CONTINUOUS
370
25
 62
     7
100
AcDbLine
 10
430.848078
 20
893.624852
 11
422.348078
 21
888.717503
  0
LINE
  5
1AF
100
AcDbEntity
  8
M1
  6
CONTINUOUS
370
25
 62
     7
100
AcDbLine
 10
439.3211
 20
888.732396
 11
439.3211
 21
878.917271
  0
LINE
  5
1B0
100
AcDbEntity
  8
M1
  6
CONTINUOUS
370
25
 62
     7
100
AcDbLine
 10
234.348078
 20
888.732396
 11
234.348078
 21
878.917271
  0
LINE
  5
1B1
100
AcDbEntity
  8
M1
  6
CONTINUOUS
370
25
 62
     7
100
AcDbLine
 10
242.848078
 20
874.009556
 11
234.348078
 21
878.917149
  0
LINE
  5
1B2
100
AcDbEntity
  8
M1
  6
CONTINUOUS
370
25
 62
     7
100
AcDbLine
 10
242.848078
 20
874.0098
 11
251.323176
 21
878.902378
  0
LINE
  5
1B3
100
AcDbEntity
  8
M1
  6
CONTINUOUS
370
25
 62
     7
100
AcDbLine
 10
251.322077
 20
878.902256
 11
251.322077
 21
888.717259
  0
LINE
  5
1B4
100
AcDbEntity
  8
M1
  6
CONTINUOUS
370
25
 62
     7
100
AcDbLine
 10
234.348078
 20
888.732151
 11
242.823176
 21
893.624668
  0
LINE
  5
1B5
100
AcDbEntity
  8
M1
  6
CONTINUOUS
370
25
 62
     7
100
AcDbLine
 10
242.822077
 20
893.624791
 11
251.322077
 21
888.717259
  0
LINE
  5
1B6
100
AcDbEntity
  8
M1
  6
CONTINUOUS
370
25
 62
     7
100
AcDbLine
 10
140.335138
 20
716.11176
 11
148.835138
 21
711.204258
  0
LINE
  5
1B7
100
AcDbEntity
  8
M1
  6
CONTINUOUS
370
25
 62
     7
100
AcDbLine
 10
157.335138
 20
716.11176
 11
148.835138
 21
711.204258
  0
LINE
  5
1B8
100
AcDbEntity
  8
M1
  6
CONTINUOUS
370
25
 62
     7
100
AcDbLine
 10
157.335138
 20
716.112065
 11
157.335138
 21
725.897282
  0
LINE
  5
1B9
100
AcDbEntity
  8
M1
  6
CONTINUOUS
370
25
 62
     7
100
AcDbLine
 10
157.335138
 20
725.896885
 11
148.835138
 21
730.804387
  0
LINE
  5
1BA
100
AcDbEntity
  8
M1
  6
CONTINUOUS
370
25
 62
     7
100
AcDbLine
 10
140.335138
 20
716.111973
 11
140.335138
 21
725.89716
  0
LINE
  5
1BB
100
AcDbEntity
  8
M1
  6
CONTINUOUS
370
25
 62
     7
100
AcDbLine
 10
140.335138
 20
725.897068
 11
148.835138
 21
730.80457
  0
LINE
  5
1BC
100
AcDbEntity
  8
M1
  6
CONTINUOUS
370
25
 62
     7
100
AcDbLine
 10
242.822077
 20
548.384068
 11
251.322077
 21
553.291478
  0
LINE
  5
1BD
100
AcDbEntity
  8
M1
  6
CONTINUOUS
370
25
 62
     7
100
AcDbLine
 10
251.323176
 20
563.106572
 11
251.323176
 21
553.291569
  0
LINE
  5
1BE
100
AcDbEntity
  8
M1
  6
CONTINUOUS
370
25
 62
     7
100
AcDbLine
 10
251.322077
 20
563.106663
 11
242.848078
 21
567.999272
  0
LINE
  5
1BF
100
AcDbEntity
  8
M1
  6
CONTINUOUS
370
25
 62
     7
100
AcDbLine
 10
242.848078
 20
567.999058
 11
234.348078
 21
563.091465
  0
LINE
  5
1C0
100
AcDbEntity
  8
M1
  6
CONTINUOUS
370
25
 62
     7
100
AcDbLine
 10
242.822077
 20
548.384282
 11
234.348078
 21
553.27686
  0
LINE
  5
1C1
100
AcDbEntity
  8
M1
  6
CONTINUOUS
370
25
 62
     7
100
AcDbLine
 10
234.350153
 20
553.276677
 11
234.350153
 21
563.091679
  0
LINE
  5
1C2
100
AcDbEntity
  8
M1
  6
CONTINUOUS
370
25
 62
     7
100
AcDbLine
 10
439.323176
 20
553.276677
 11
439.323176
 21
563.091587
  0
LINE
  5
1C3
100
AcDbEntity
  8
M1
  6
CONTINUOUS
370
25
 62
     7
100
AcDbLine
 10
430.823176
 20
567.999485
 11
439.323176
 21
563.091862
  0
LINE
  5
1C4
100
AcDbEntity
  8
M1
  6
CONTINUOUS
370
25
 62
     7
100
AcDbLine
 10
430.822077
 20
567.998967
 11
422.348078
 21
563.106358
  0
LINE
  5
1C5
100
AcDbEntity
  8
M1
  6
CONTINUOUS
370
25
 62
     7
100
AcDbLine
 10
422.349177
 20
563.106572
 11
422.349177
 21
553.291569
  0
LINE
  5
1C6
100
AcDbEntity
  8
M1
  6
CONTINUOUS
370
25
 62
     7
100
AcDbLine
 10
439.322077
 20
553.27686
 11
430.848078
 21
548.384282
  0
LINE
  5
1C7
100
AcDbEntity
  8
M1
  6
CONTINUOUS
370
25
 62
     7
100
AcDbLine
 10
430.849177
 20
548.385685
 11
422.349177
 21
553.293187
  0
LINE
  5
1C8
100
AcDbEntity
  8
M1
  6
CONTINUOUS
370
25
 62
     7
100
AcDbLine
 10
533.336115
 20
725.89716
 11
524.836115
 21
730.804661
  0
LINE
  5
1C9
100
AcDbEntity
  8
M1
  6
CONTINUOUS
370
25
 62
     7
100
AcDbLine
 10
516.335138
 20
725.89716
 11
524.835138
 21
730.804783
  0
LINE
  5
1CA
100
AcDbEntity
  8
M1
  6
CONTINUOUS
370
25
 62
     7
100
AcDbLine
 10
516.335138
 20
725.896672
 11
516.335138
 21
716.111485
  0
LINE
  5
1CB
100
AcDbEntity
  8
M1
  6
CONTINUOUS
370
25
 62
     7
100
AcDbLine
 10
516.335138
 20
716.112065
 11
524.836115
 21
711.204564
  0
LINE
  5
1CC
100
AcDbEntity
  8
M1
  6
CONTINUOUS
370
25
 62
     7
100
AcDbLine
 10
533.335138
 20
725.896977
 11
533.335138
 21
716.111882
  0
LINE
  5
1CD
100
AcDbEntity
  8
M1
  6
CONTINUOUS
370
25
 62
     7
100
AcDbLine
 10
533.335138
 20
716.11356
 11
524.834162
 21
711.205967
  0
LINE
  5
1CE
100
AcDbEntity
  8
M1
  6
CONTINUOUS
370
25
 62
     7
100
AcDbLine
 10
818.362421
 20
730.804387
 11
818.362421
 21
711.204472
  0
LINE
  5
1CF
100
AcDbEntity
  8
M1
  6
CONTINUOUS
370
25
 62
     7
100
AcDbLine
 10
818.362421
 20
711.804387
 11
820.862421
 21
711.804387
  0
LINE
  5
1D0
100
AcDbEntity
  8
M1
  6
CONTINUOUS
370
25
 62
     7
100
AcDbLine
 10
818.362421
 20
730.204472
 11
820.862421
 21
730.204472
  0
LINE
  5
1D1
100
AcDbEntity
  8
M1
  6
CONTINUOUS
370
25
 62
     7
100
AcDbLine
 10
812.257258
 20
716.00446
 11
818.362421
 21
716.00446
  0
LINE
  5
1D2
100
AcDbEntity
  8
M1
  6
CONTINUOUS
370
25
 62
     7
100
AcDbLine
 10
812.257258
 20
726.00446
 11
818.362421
 21
726.00446
  0
LINE
  5
1D3
100
AcDbEntity
  8
M1
  6
CONTINUOUS
370
25
 62
     7
100
AcDbLine
 10
812.257258
 20
711.204472
 11
818.362421
 21
711.204472
  0
LINE
  5
1D4
100
AcDbEntity
  8
M1
  6
CONTINUOUS
370
25
 62
     7
100
AcDbLine
 10
812.257258
 20
730.804387
 11
818.362421
 21
730.804387
  0
LINE
  5
1D5
100
AcDbEntity
  8
M1
  6
CONTINUOUS
370
25
 62
     7
100
AcDbLine
 10
811.362421
 20
729.254582
 11
811.362421
 21
712.754185
  0
LINE
  5
1D6
100
AcDbEntity
  8
M1
  6
CONTINUOUS
370
25
 62
     7
100
AcDbLine
 10
811.36236
 20
729.25446
 11
812.257136
 21
730.804387
  0
LINE
  5
1D7
100
AcDbEntity
  8
M1
  6
CONTINUOUS
370
25
 62
     7
100
AcDbLine
 10
811.382502
 20
712.719365
 11
812.257258
 21
711.204472
  0
LINE
  5
1D8
100
AcDbEntity
  8
M1
  6
CONTINUOUS
370
25
 62
     7
100
AcDbLine
 10
818.36236
 20
721.866887
 11
820.862238
 21
724.366887
  0
LINE
  5
1D9
100
AcDbEntity
  8
M1
  6
CONTINUOUS
370
25
 62
     7
100
AcDbLine
 10
818.362238
 20
718.331364
 11
820.862238
 21
720.831364
  0
LINE
  5
1DA
100
AcDbEntity
  8
M1
  6
CONTINUOUS
370
25
 62
     7
100
AcDbLine
 10
818.362421
 20
548.391667
 11
818.362421
 21
567.991673
  0
LINE
  5
1DB
100
AcDbEntity
  8
M1
  6
CONTINUOUS
370
25
 62
     7
100
AcDbLine
 10
818.362421
 20
567.391667
 11
820.862421
 21
567.391667
  0
LINE
  5
1DC
100
AcDbEntity
  8
M1
  6
CONTINUOUS
370
25
 62
     7
100
AcDbLine
 10
818.362421
 20
548.991673
 11
820.862421
 21
548.991673
  0
LINE
  5
1DD
100
AcDbEntity
  8
M1
  6
CONTINUOUS
370
25
 62
     7
100
AcDbLine
 10
812.257258
 20
563.191685
 11
818.362421
 21
563.191685
  0
LINE
  5
1DE
100
AcDbEntity
  8
M1
  6
CONTINUOUS
370
25
 62
     7
100
AcDbLine
 10
812.257258
 20
553.191685
 11
818.362421
 21
553.191685
  0
LINE
  5
1DF
100
AcDbEntity
  8
M1
  6
CONTINUOUS
370
25
 62
     7
100
AcDbLine
 10
812.257258
 20
567.991673
 11
818.362421
 21
567.991673
  0
LINE
  5
1E0
100
AcDbEntity
  8
M1
  6
CONTINUOUS
370
25
 62
     7
100
AcDbLine
 10
812.257258
 20
548.391667
 11
818.362421
 21
548.391667
  0
LINE
  5
1E1
100
AcDbEntity
  8
M1
  6
CONTINUOUS
370
25
 62
     7
100
AcDbLine
 10
811.362421
 20
549.941563
 11
811.362421
 21
566.44196
  0
LINE
  5
1E2
100
AcDbEntity
  8
M1
  6
CONTINUOUS
370
25
 62
     7
100
AcDbLine
 10
811.36236
 20
549.941685
 11
812.257013
 21
548.391758
  0
LINE
  5
1E3
100
AcDbEntity
  8
M1
  6
CONTINUOUS
370
25
 62
     7
100
AcDbLine
 10
811.382502
 20
566.476658
 11
812.257258
 21
567.991673
  0
LINE
  5
1E4
100
AcDbEntity
  8
M1
  6
CONTINUOUS
370
25
 62
     7
100
AcDbLine
 10
818.362421
 20
918.804356
 11
818.362421
 21
899.204502
  0
LINE
  5
1E5
100
AcDbEntity
  8
M1
  6
CONTINUOUS
370
25
 62
     7
100
AcDbLine
 10
818.362421
 20
899.804356
 11
820.862421
 21
899.804356
  0
LINE
  5
1E6
100
AcDbEntity
  8
M1
  6
CONTINUOUS
370
25
 62
     7
100
AcDbLine
 10
818.362421
 20
918.204502
 11
820.862421
 21
918.204502
  0
LINE
  5
1E7
100
AcDbEntity
  8
M1
  6
CONTINUOUS
370
25
 62
     7
100
AcDbLine
 10
812.257258
 20
904.00449
 11
818.362421
 21
904.00449
  0
LINE
  5
1E8
100
AcDbEntity
  8
M1
  6
CONTINUOUS
370
25
 62
     7
100
AcDbLine
 10
812.257258
 20
914.00449
 11
818.362421
 21
914.00449
  0
LINE
  5
1E9
100
AcDbEntity
  8
M1
  6
CONTINUOUS
370
25
 62
     7
100
AcDbLine
 10
812.257258
 20
899.204502
 11
818.362421
 21
899.204502
  0
LINE
  5
1EA
100
AcDbEntity
  8
M1
  6
CONTINUOUS
370
25
 62
     7
100
AcDbLine
 10
812.257258
 20
918.804356
 11
818.362421
 21
918.804356
  0
LINE
  5
1EB
100
AcDbEntity
  8
M1
  6
CONTINUOUS
370
25
 62
     7
100
AcDbLine
 10
811.362421
 20
917.254551
 11
811.362421
 21
900.754185
  0
LINE
  5
1EC
100
AcDbEntity
  8
M1
  6
CONTINUOUS
370
25
 62
     7
100
AcDbLine
 10
811.36236
 20
917.25449
 11
812.257258
 21
918.804356
  0
LINE
  5
1ED
100
AcDbEntity
  8
M1
  6
CONTINUOUS
370
25
 62
     7
100
AcDbLine
 10
811.382502
 20
900.719395
 11
812.257258
 21
899.204502
  0
LINE
  5
1EE
100
AcDbEntity
  8
M1
  6
CONTINUOUS
370
25
 62
     7
100
AcDbLine
 10
818.36236
 20
909.866856
 11
820.86236
 21
912.366856
  0
LINE
  5
1EF
100
AcDbEntity
  8
M1
  6
CONTINUOUS
370
25
 62
     7
100
AcDbLine
 10
818.362238
 20
906.331395
 11
820.862116
 21
908.831395
  0
LINE
  5
1F0
100
AcDbEntity
  8
M1
  6
CONTINUOUS
370
13
 62
     7
100
AcDbLine
 10
325.337092
 20
721.00446
 11
349.234186
 21
721.00446
  0
LINE
  5
1F1
100
AcDbEntity
  8
M1
  6
CONTINUOUS
370
13
 62
     7
100
AcDbLine
 10
424.337092
 20
721.00446
 11
448.233088
 21
721.00446
  0
LINE
  5
1F2
100
AcDbEntity
  8
M1
  6
CONTINUOUS
370
25
 62
     7
100
AcDbLine
 10
818.36236
 20
559.340886
 11
820.862421
 21
561.840886
  0
LINE
  5
1F3
100
AcDbEntity
  8
M1
  6
CONTINUOUS
370
25
 62
     7
100
AcDbLine
 10
818.36236
 20
555.805363
 11
820.86236
 21
558.305272
  0
LINE
  5
1F4
100
AcDbEntity
  8
M1
  6
CONTINUOUS
370
13
 62
     7
100
AcDbLine
 10
1323.625727
 20
721.00446
 11
1299.223841
 21
721.00446
  0
LINE
  5
1F5
100
AcDbEntity
  8
M1
  6
CONTINUOUS
370
13
 62
     7
100
AcDbLine
 10
1423.301432
 20
721.00446
 11
1398.899531
 21
721.00446
  0
ARC
  5
1F6
100
AcDbEntity
  8
M1
  6
CONTINUOUS
370
25
 62
     7
100
AcDbCircle
 10
706.362116
 20
721.00446
 40
6.0
100
AcDbArc
 50
270.0
 51
450.0
  0
ARC
  5
1F7
100
AcDbEntity
  8
M1
  6
CONTINUOUS
370
25
 62
     7
100
AcDbCircle
 10
1036.362421
 20
721.00446
 40
6.0
100
AcDbArc
 50
90.0
 51
270.0
  0
CIRCLE
  5
1F8
100
AcDbEntity
  8
M1
  6
CONTINUOUS
370
25
 62
     7
100
AcDbCircle
 10
336.835138
 20
721.00446
 40
197.5
  0
CIRCLE
  5
1F9
100
AcDbEntity
  8
M1
  6
CONTINUOUS
370
25
 62
     7
100
AcDbCircle
 10
336.835138
 20
721.00446
 40
176.0
  0
CIRCLE
  5
1FA
100
AcDbEntity
  8
M1
  6
CONTINUOUS
370
25
 62
     7
100
AcDbCircle
 10
471.935114
 20
799.00449
 40
9.5
  0
CIRCLE
  5
1FB
100
AcDbEntity
  8
M1
  6
CONTINUOUS
370
25
 62
     7
100
AcDbCircle
 10
336.835138
 20
877.00449
 40
9.5
  0
CIRCLE
  5
1FC
100
AcDbEntity
  8
M1
  6
CONTINUOUS
370
25
 62
     7
100
AcDbCircle
 10
201.735163
 20
799.00449
 40
9.5
  0
CIRCLE
  5
1FD
100
AcDbEntity
  8
M1
  6
CONTINUOUS
370
25
 62
     7
100
AcDbCircle
 10
201.735163
 20
643.00446
 40
9.5
  0
CIRCLE
  5
1FE
100
AcDbEntity
  8
M1
  6
CONTINUOUS
370
25
 62
     7
100
AcDbCircle
 10
336.835138
 20
565.00446
 40
9.5
  0
CIRCLE
  5
1FF
100
AcDbEntity
  8
M1
  6
CONTINUOUS
370
25
 62
     7
100
AcDbCircle
 10
471.935114
 20
643.00446
 40
9.5
  0
ARC
  5
200
100
AcDbEntity
  8
M1
  6
CONTINUOUS
370
25
 62
     7
100
AcDbCircle
 10
793.838801
 20
808.535984
 40
6.0
100
AcDbArc
 50
185.079132
 51
216.117662
  0
ARC
  5
201
100
AcDbEntity
  8
M1
  6
CONTINUOUS
370
25
 62
     7
100
AcDbCircle
 10
793.838801
 20
789.472996
 40
5.999846
100
AcDbArc
 50
143.882599
 51
174.920876
  0
ARC
  5
202
100
AcDbEntity
  8
M1
  6
CONTINUOUS
370
25
 62
     7
100
AcDbCircle
 10
793.838801
 20
867.472996
 40
5.999846
100
AcDbArc
 50
143.882599
 51
174.920876
  0
ARC
  5
203
100
AcDbEntity
  8
M1
  6
CONTINUOUS
370
25
 62
     7
100
AcDbCircle
 10
793.838801
 20
886.535984
 40
6.0
100
AcDbArc
 50
185.079132
 51
216.117662
  0
ARC
  5
204
100
AcDbEntity
  8
M1
  6
CONTINUOUS
370
25
 62
     7
100
AcDbCircle
 10
793.838801
 20
652.535984
 40
6.000003
100
AcDbArc
 50
185.079422
 51
216.117897
  0
ARC
  5
205
100
AcDbEntity
  8
M1
  6
CONTINUOUS
370
25
 62
     7
100
AcDbCircle
 10
793.838801
 20
555.472966
 40
5.999882
100
AcDbArc
 50
143.882126
 51
174.920582
  0
ARC
  5
206
100
AcDbEntity
  8
M1
  6
CONTINUOUS
370
25
 62
     7
100
AcDbCircle
 10
793.838801
 20
574.535984
 40
6.000003
100
AcDbArc
 50
185.079422
 51
216.117897
  0
ARC
  5
207
100
AcDbEntity
  8
M1
  6
CONTINUOUS
370
25
 62
     7
100
AcDbCircle
 10
793.838801
 20
633.472966
 40
5.999882
100
AcDbArc
 50
143.882126
 51
174.920582
  0
ARC
  5
208
100
AcDbEntity
  8
M1
  6
CONTINUOUS
370
25
 62
     7
100
AcDbCircle
 10
948.886042
 20
789.472996
 40
5.999939
100
AcDbArc
 50
5.079182
 51
36.117064
  0
ARC
  5
209
100
AcDbEntity
  8
M1
  6
CONTINUOUS
370
25
 62
     7
100
AcDbCircle
 10
948.886042
 20
886.535984
 40
5.999967
100
AcDbArc
 50
323.881989
 51
354.920811
  0
ARC
  5
20A
100
AcDbEntity
  8
M1
  6
CONTINUOUS
370
25
 62
     7
100
AcDbCircle
 10
948.886042
 20
867.472996
 40
5.999939
100
AcDbArc
 50
5.079182
 51
36.117064
  0
ARC
  5
20B
100
AcDbEntity
  8
M1
  6
CONTINUOUS
370
25
 62
     7
100
AcDbCircle
 10
948.886042
 20
808.535984
 40
5.999967
100
AcDbArc
 50
323.881989
 51
354.920811
  0
ARC
  5
20C
100
AcDbEntity
  8
M1
  6
CONTINUOUS
370
25
 62
     7
100
AcDbCircle
 10
948.886042
 20
652.535984
 40
5.999985
100
AcDbArc
 50
323.881775
 51
354.920542
  0
ARC
  5
20D
100
AcDbEntity
  8
M1
  6
CONTINUOUS
370
25
 62
     7
100
AcDbCircle
 10
948.886042
 20
555.472966
 40
5.999942
100
AcDbArc
 50
5.079473
 51
36.117534
  0
ARC
  5
20E
100
AcDbEntity
  8
M1
  6
CONTINUOUS
370
25
 62
     7
100
AcDbCircle
 10
948.886042
 20
574.535984
 40
5.999985
100
AcDbArc
 50
323.881775
 51
354.920542
  0
ARC
  5
20F
100
AcDbEntity
  8
M1
  6
CONTINUOUS
370
25
 62
     7
100
AcDbCircle
 10
948.886042
 20
633.472966
 40
5.999942
100
AcDbArc
 50
5.079473
 51
36.117534
  0
ARC
  5
210
100
AcDbEntity
  8
M1
  6
CONTINUOUS
370
13
 62
     7
100
AcDbCircle
 10
336.835138
 20
721.00446
 40
99.999985
100
AcDbArc
 50
352.302948
 51
367.451795
  0
CIRCLE
  5
211
100
AcDbEntity
  8
M1
  6
CONTINUOUS
370
13
 62
     7
100
AcDbCircle
 10
407.546076
 20
791.715062
 40
6.0
  0
CIRCLE
  5
212
100
AcDbEntity
  8
M1
  6
CONTINUOUS
370
25
 62
     7
100
AcDbCircle
 10
407.546076
 20
791.715062
 40
5.0
  0
CIRCLE
  5
213
100
AcDbEntity
  8
M1
  6
CONTINUOUS
370
13
 62
     7
100
AcDbCircle
 10
336.835138
 20
821.00449
 40
6.0
  0
CIRCLE
  5
214
100
AcDbEntity
  8
M1
  6
CONTINUOUS
370
25
 62
     7
100
AcDbCircle
 10
336.835138
 20
821.00449
 40
5.0
  0
CIRCLE
  5
215
100
AcDbEntity
  8
M1
  6
CONTINUOUS
370
13
 62
     7
100
AcDbCircle
 10
266.125178
 20
791.715062
 40
6.0
  0
CIRCLE
  5
216
100
AcDbEntity
  8
M1
  6
CONTINUOUS
370
25
 62
     7
100
AcDbCircle
 10
266.125178
 20
791.715062
 40
5.0
  0
CIRCLE
  5
217
100
AcDbEntity
  8
M1
  6
CONTINUOUS
370
13
 62
     7
100
AcDbCircle
 10
236.835138
 20
721.00446
 40
6.0
  0
CIRCLE
  5
218
100
AcDbEntity
  8
M1
  6
CONTINUOUS
370
25
 62
     7
100
AcDbCircle
 10
236.835138
 20
721.00446
 40
5.0
  0
CIRCLE
  5
219
100
AcDbEntity
  8
M1
  6
CONTINUOUS
370
13
 62
     7
100
AcDbCircle
 10
266.125178
 20
650.293766
 40
6.0
  0
CIRCLE
  5
21A
100
AcDbEntity
  8
M1
  6
CONTINUOUS
370
25
 62
     7
100
AcDbCircle
 10
266.125178
 20
650.293766
 40
5.0
  0
CIRCLE
  5
21B
100
AcDbEntity
  8
M1
  6
CONTINUOUS
370
13
 62
     7
100
AcDbCircle
 10
336.835138
 20
621.00446
 40
6.0
  0
CIRCLE
  5
21C
100
AcDbEntity
  8
M1
  6
CONTINUOUS
370
25
 62
     7
100
AcDbCircle
 10
336.835138
 20
621.00446
 40
5.0
  0
CIRCLE
  5
21D
100
AcDbEntity
  8
M1
  6
CONTINUOUS
370
13
 62
     7
100
AcDbCircle
 10
407.546076
 20
650.293766
 40
6.0
  0
CIRCLE
  5
21E
100
AcDbEntity
  8
M1
  6
CONTINUOUS
370
25
 62
     7
100
AcDbCircle
 10
407.546076
 20
650.293766
 40
5.0
  0
CIRCLE
  5
21F
100
AcDbEntity
  8
M1
  6
CONTINUOUS
370
13
 62
     7
100
AcDbCircle
 10
436.835138
 20
721.00446
 40
6.0
  0
CIRCLE
  5
220
100
AcDbEntity
  8
M1
  6
CONTINUOUS
370
25
 62
     7
100
AcDbCircle
 10
436.835138
 20
721.00446
 40
5.0
  0
ARC
  5
221
100
AcDbEntity
  8
M1
  6
CONTINUOUS
370
25
 62
     7
100
AcDbCircle
 10
336.835138
 20
721.00446
 40
22.500759
100
AcDbArc
 50
15.465476
 51
344.534537
  0
CIRCLE
  5
222
100
AcDbEntity
  8
M1
  6
CONTINUOUS
370
25
 62
     7
100
AcDbCircle
 10
336.835138
 20
721.00446
 40
65.0
  0
CIRCLE
  5
223
100
AcDbEntity
  8
M1
  6
CONTINUOUS
370
25
 62
     7
100
AcDbCircle
 10
336.835138
 20
721.00446
 40
55.0
  0
ARC
  5
224
100
AcDbEntity
  8
M1
  6
CONTINUOUS
370
25
 62
     7
100
AcDbCircle
 10
336.835138
 20
721.00446
 40
114.999855
100
AcDbArc
 50
41.724224
 51
48.275726
  0
ARC
  5
225
100
AcDbEntity
  8
M1
  6
CONTINUOUS
370
25
 62
     7
100
AcDbCircle
 10
406.718073
 20
799.371983
 40
9.999708
100
AcDbArc
 50
48.277592
 51
134.999256
  0
ARC
  5
226
100
AcDbEntity
  8
M1
  6
CONTINUOUS
370
25
 62
     7
100
AcDbCircle
 10
415.20318
 20
790.886692
 40
9.999925
100
AcDbArc
 50
314.999268
 51
401.722359
  0
ARC
  5
227
100
AcDbEntity
  8
M1
  6
CONTINUOUS
370
25
 62
     7
100
AcDbCircle
 10
336.835138
 20
721.00446
 40
124.999908
100
AcDbArc
 50
53.919018
 51
64.389223
  0
ARC
  5
228
100
AcDbEntity
  8
M1
  6
CONTINUOUS
370
25
 62
     7
100
AcDbCircle
 10
396.236139
 20
846.119358
 40
4.000143
100
AcDbArc
 50
64.597771
 51
157.497971
  0
ARC
  5
229
100
AcDbEntity
  8
M1
  6
CONTINUOUS
370
25
 62
     7
100
AcDbCircle
 10
392.596125
 20
837.330357
 40
4.000474
100
AcDbArc
 50
157.503326
 51
244.388634
  0
ARC
  5
22A
100
AcDbEntity
  8
M1
  6
CONTINUOUS
370
25
 62
     7
100
AcDbCircle
 10
419.60113
 20
832.054356
 40
3.999616
100
AcDbArc
 50
314.996918
 51
413.307594
  0
ARC
  5
22B
100
AcDbEntity
  8
M1
  6
CONTINUOUS
370
25
 62
     7
100
AcDbCircle
 10
412.807184
 20
825.26035
 40
4.000155
100
AcDbArc
 50
233.914139
 51
314.996292
  0
ARC
  5
22C
100
AcDbEntity
  8
M1
  6
CONTINUOUS
370
13
 62
     7
100
AcDbCircle
 10
336.835138
 20
721.00446
 40
100.000038
100
AcDbArc
 50
83.368706
 51
96.938889
  0
ARC
  5
22D
100
AcDbEntity
  8
M1
  6
CONTINUOUS
370
13
 62
     7
100
AcDbCircle
 10
336.835138
 20
721.00446
 40
99.999786
100
AcDbArc
 50
128.572968
 51
141.153851
  0
ARC
  5
22E
100
AcDbEntity
  8
M1
  6
CONTINUOUS
370
13
 62
     7
100
AcDbCircle
 10
336.835138
 20
721.00446
 40
100.000633
100
AcDbArc
 50
38.428452
 51
51.046713
  0
ARC
  5
22F
100
AcDbEntity
  8
M1
  6
CONTINUOUS
370
25
 62
     7
100
AcDbCircle
 10
336.835138
 20
721.00446
 40
107.999931
100
AcDbArc
 50
10.425272
 51
19.224053
  0
ARC
  5
230
100
AcDbEntity
  8
M1
  6
CONTINUOUS
370
25
 62
     7
100
AcDbCircle
 10
423.291071
 20
780.590062
 40
2.999917
100
AcDbArc
 50
34.574684
 51
134.995056
  0
ARC
  5
231
100
AcDbEntity
  8
M1
  6
CONTINUOUS
370
25
 62
     7
100
AcDbCircle
 10
336.835138
 20
721.00446
 40
108.000626
100
AcDbArc
 50
25.775593
 51
34.574662
  0
ARC
  5
232
100
AcDbEntity
  8
M1
  6
CONTINUOUS
370
25
 62
     7
100
AcDbCircle
 10
431.388117
 20
766.663762
 40
3.000063
100
AcDbArc
 50
292.499939
 51
385.770668
  0
ARC
  5
233
100
AcDbEntity
  8
M1
  6
CONTINUOUS
370
25
 62
     7
100
AcDbCircle
 10
435.980158
 20
755.577183
 40
3.000278
100
AcDbArc
 50
19.222277
 51
112.500826
  0
ARC
  5
234
100
AcDbEntity
  8
M1
  6
CONTINUOUS
370
25
 62
     7
100
AcDbCircle
 10
440.102106
 20
740.00446
 40
3.0
100
AcDbArc
 50
270.0
 51
370.427582
  0
ARC
  5
235
100
AcDbEntity
  8
M1
  6
CONTINUOUS
370
25
 62
     7
100
AcDbCircle
 10
336.835138
 20
721.00446
 40
69.999954
100
AcDbArc
 50
16.260221
 51
28.739793
  0
ARC
  5
236
100
AcDbEntity
  8
M1
  6
CONTINUOUS
370
25
 62
     7
100
AcDbCircle
 10
402.596125
 20
757.06696
 40
4.999639
100
AcDbArc
 50
134.996048
 51
208.740074
  0
ARC
  5
237
100
AcDbEntity
  8
M1
  6
CONTINUOUS
370
25
 62
     7
100
AcDbCircle
 10
408.835138
 20
742.00446
 40
5.000045
100
AcDbArc
 50
196.259979
 51
270.0
  0
ARC
  5
238
100
AcDbEntity
  8
M1
  6
CONTINUOUS
370
13
 62
     7
100
AcDbCircle
 10
336.835138
 20
721.00446
 40
99.999443
100
AcDbArc
 50
174.242538
 51
186.550964
  0
ARC
  5
239
100
AcDbEntity
  8
M1
  6
CONTINUOUS
370
13
 62
     7
100
AcDbCircle
 10
336.835138
 20
721.00446
 40
100.000107
100
AcDbArc
 50
218.825485
 51
231.214047
  0
ARC
  5
23A
100
AcDbEntity
  8
M1
  6
CONTINUOUS
370
13
 62
     7
100
AcDbCircle
 10
336.835138
 20
721.00446
 40
100.000053
100
AcDbArc
 50
263.953857
 51
276.529213
  0
ARC
  5
23B
100
AcDbEntity
  8
M1
  6
CONTINUOUS
370
13
 62
     7
100
AcDbCircle
 10
336.835138
 20
721.00446
 40
100.000237
100
AcDbArc
 50
308.93869
 51
321.555373
  0
ARC
  5
23C
100
AcDbEntity
  8
M1
  6
CONTINUOUS
370
25
 62
     7
100
AcDbCircle
 10
939.862421
 20
893.00449
 40
4.0
100
AcDbArc
 50
0.0
 51
90.0
  0
ARC
  5
23D
100
AcDbEntity
  8
M1
  6
CONTINUOUS
370
25
 62
     7
100
AcDbCircle
 10
802.862421
 20
893.00449
 40
4.0
100
AcDbArc
 50
90.0
 51
180.0
  0
ARC
  5
23E
100
AcDbEntity
  8
M1
  6
CONTINUOUS
370
25
 62
     7
100
AcDbCircle
 10
802.862421
 20
549.00446
 40
4.0
100
AcDbArc
 50
180.0
 51
270.0
  0
ARC
  5
23F
100
AcDbEntity
  8
M1
  6
CONTINUOUS
370
25
 62
     7
100
AcDbCircle
 10
939.862421
 20
549.00446
 40
4.0
100
AcDbArc
 50
270.0
 51
360.0
  0
ARC
  5
240
100
AcDbEntity
  8
M1
  6
CONTINUOUS
370
25
 62
     7
100
AcDbCircle
 10
976.400324
 20
846.00449
 40
10.000009
100
AcDbArc
 50
226.0233
 51
270.0
  0
ARC
  5
241
100
AcDbEntity
  8
M1
  6
CONTINUOUS
370
25
 62
     7
100
AcDbCircle
 10
976.400324
 20
596.00446
 40
10.0
100
AcDbArc
 50
90.0
 51
133.976704
  0
ARC
  5
242
100
AcDbEntity
  8
M1
  6
CONTINUOUS
370
25
 62
     7
100
AcDbCircle
 10
766.32464
 20
596.00446
 40
10.000009
100
AcDbArc
 50
46.023296
 51
90.0
  0
ARC
  5
243
100
AcDbEntity
  8
M1
  6
CONTINUOUS
370
25
 62
     7
100
AcDbCircle
 10
766.324457
 20
846.00449
 40
10.0
100
AcDbArc
 50
270.0
 51
313.976704
  0
ARC
  5
244
100
AcDbEntity
  8
M1
  6
CONTINUOUS
370
25
 62
     7
100
AcDbCircle
 10
330.835138
 20
825.832859
 40
9.999961
100
AcDbArc
 50
93.273643
 51
180.0
  0
ARC
  5
245
100
AcDbEntity
  8
M1
  6
CONTINUOUS
370
25
 62
     7
100
AcDbCircle
 10
336.835138
 20
721.00446
 40
114.999985
100
AcDbArc
 50
86.723877
 51
93.275642
  0
ARC
  5
246
100
AcDbEntity
  8
M1
  6
CONTINUOUS
370
25
 62
     7
100
AcDbCircle
 10
342.835138
 20
825.832859
 40
10.0
100
AcDbArc
 50
0.0
 51
86.720772
  0
ARC
  5
247
100
AcDbEntity
  8
M1
  6
CONTINUOUS
370
25
 62
     7
100
AcDbCircle
 10
355.835138
 20
824.271092
 40
3.000045
100
AcDbArc
 50
79.572754
 51
180.0
  0
ARC
  5
248
100
AcDbEntity
  8
M1
  6
CONTINUOUS
370
25
 62
     7
100
AcDbCircle
 10
336.835138
 20
721.00446
 40
108.000114
100
AcDbArc
 50
70.77562
 51
79.574707
  0
ARC
  5
249
100
AcDbEntity
  8
M1
  6
CONTINUOUS
370
25
 62
     7
100
AcDbCircle
 10
371.408137
 20
820.149388
 40
3.00034
100
AcDbArc
 50
337.501007
 51
430.771416
  0
ARC
  5
24A
100
AcDbEntity
  8
M1
  6
CONTINUOUS
370
25
 62
     7
100
AcDbCircle
 10
357.835138
 20
793.00449
 40
5.0
100
AcDbArc
 50
180.0
 51
253.739487
  0
ARC
  5
24B
100
AcDbEntity
  8
M1
  6
CONTINUOUS
370
25
 62
     7
100
AcDbCircle
 10
382.495173
 20
815.557164
 40
2.999768
100
AcDbArc
 50
64.234726
 51
157.501884
  0
ARC
  5
24C
100
AcDbEntity
  8
M1
  6
CONTINUOUS
370
25
 62
     7
100
AcDbCircle
 10
336.835138
 20
721.00446
 40
107.999969
100
AcDbArc
 50
55.425224
 51
64.224145
  0
ARC
  5
24D
100
AcDbEntity
  8
M1
  6
CONTINUOUS
370
25
 62
     7
100
AcDbCircle
 10
396.421076
 20
807.459996
 40
2.999852
100
AcDbArc
 50
314.996704
 51
415.43174
  0
ARC
  5
24E
100
AcDbEntity
  8
M1
  6
CONTINUOUS
370
25
 62
     7
100
AcDbCircle
 10
372.898127
 20
786.765355
 40
4.999868
100
AcDbArc
 50
241.260818
 51
314.996536
  0
ARC
  5
24F
100
AcDbEntity
  8
M1
  6
CONTINUOUS
370
25
 62
     7
100
AcDbCircle
 10
258.468073
 20
790.886692
 40
10.000312
100
AcDbArc
 50
138.27739
 51
225.000488
  0
ARC
  5
250
100
AcDbEntity
  8
M1
  6
CONTINUOUS
370
25
 62
     7
100
AcDbCircle
 10
336.835138
 20
721.00446
 40
114.999504
100
AcDbArc
 50
131.723907
 51
138.275836
  0
ARC
  5
251
100
AcDbEntity
  8
M1
  6
CONTINUOUS
370
25
 62
     7
100
AcDbCircle
 10
266.95318
 20
799.371983
 40
9.999925
100
AcDbArc
 50
45.00074
 51
131.722404
  0
ARC
  5
252
100
AcDbEntity
  8
M1
  6
CONTINUOUS
370
25
 62
     7
100
AcDbCircle
 10
277.250178
 20
807.459996
 40
3.000313
100
AcDbArc
 50
124.583618
 51
224.990112
  0
ARC
  5
253
100
AcDbEntity
  8
M1
  6
CONTINUOUS
370
25
 62
     7
100
AcDbCircle
 10
336.835138
 20
721.00446
 40
107.999596
100
AcDbArc
 50
115.775391
 51
124.574778
  0
ARC
  5
254
100
AcDbEntity
  8
M1
  6
CONTINUOUS
370
25
 62
     7
100
AcDbCircle
 10
291.176081
 20
815.557164
 40
3.000453
100
AcDbArc
 50
22.498114
 51
115.765272
  0
ARC
  5
255
100
AcDbEntity
  8
M1
  6
CONTINUOUS
370
25
 62
     7
100
AcDbCircle
 10
300.773127
 20
786.765355
 40
5.000286
100
AcDbArc
 50
224.995544
 51
298.738503
  0
ARC
  5
256
100
AcDbEntity
  8
M1
  6
CONTINUOUS
370
25
 62
     7
100
AcDbCircle
 10
302.263117
 20
820.149388
 40
3.00007
100
AcDbArc
 50
109.2286
 51
202.496849
  0
ARC
  5
257
100
AcDbEntity
  8
M1
  6
CONTINUOUS
370
25
 62
     7
100
AcDbCircle
 10
336.835138
 20
721.00446
 40
108.000031
100
AcDbArc
 50
100.425293
 51
109.223891
  0
ARC
  5
258
100
AcDbEntity
  8
M1
  6
CONTINUOUS
370
25
 62
     7
100
AcDbCircle
 10
317.835138
 20
824.271092
 40
3.0
100
AcDbArc
 50
0.0
 51
100.427673
  0
ARC
  5
259
100
AcDbEntity
  8
M1
  6
CONTINUOUS
370
25
 62
     7
100
AcDbCircle
 10
315.835138
 20
793.00449
 40
4.999995
100
AcDbArc
 50
286.260498
 51
359.999985
  0
ARC
  5
25A
100
AcDbEntity
  8
M1
  6
CONTINUOUS
370
25
 62
     7
100
AcDbCircle
 10
232.007136
 20
715.00446
 40
10.000351
100
AcDbArc
 50
183.27597
 51
270.0
  0
ARC
  5
25B
100
AcDbEntity
  8
M1
  6
CONTINUOUS
370
25
 62
     7
100
AcDbCircle
 10
336.835138
 20
721.00446
 40
114.999916
100
AcDbArc
 50
176.724182
 51
183.275857
  0
ARC
  5
25C
100
AcDbEntity
  8
M1
  6
CONTINUOUS
370
25
 62
     7
100
AcDbCircle
 10
232.007136
 20
727.00446
 40
10.0
100
AcDbArc
 50
90.0
 51
176.724388
  0
ARC
  5
25D
100
AcDbEntity
  8
M1
  6
CONTINUOUS
370
25
 62
     7
100
AcDbCircle
 10
233.569147
 20
740.004368
 40
3.000557
100
AcDbArc
 50
169.577515
 51
270.0
  0
ARC
  5
25E
100
AcDbEntity
  8
M1
  6
CONTINUOUS
370
25
 62
     7
100
AcDbCircle
 10
336.835138
 20
721.00446
 40
107.999428
100
AcDbArc
 50
160.775726
 51
169.574772
  0
ARC
  5
25F
100
AcDbEntity
  8
M1
  6
CONTINUOUS
370
25
 62
     7
100
AcDbCircle
 10
237.690119
 20
755.577275
 40
3.000437
100
AcDbArc
 50
67.482834
 51
160.771576
  0
ARC
  5
260
100
AcDbEntity
  8
M1
  6
CONTINUOUS
370
25
 62
     7
100
AcDbCircle
 10
264.835138
 20
742.004368
 40
5.0
100
AcDbArc
 50
270.0
 51
343.740021
  0
ARC
  5
261
100
AcDbEntity
  8
M1
  6
CONTINUOUS
370
25
 62
     7
100
AcDbCircle
 10
242.283137
 20
766.663884
 40
3.000446
100
AcDbArc
 50
154.22934
 51
247.502228
  0
ARC
  5
262
100
AcDbEntity
  8
M1
  6
CONTINUOUS
370
25
 62
     7
100
AcDbCircle
 10
336.835138
 20
721.00446
 40
107.999352
100
AcDbArc
 50
145.425095
 51
154.224121
  0
ARC
  5
263
100
AcDbEntity
  8
M1
  6
CONTINUOUS
370
25
 62
     7
100
AcDbCircle
 10
250.380182
 20
780.590001
 40
2.999723
100
AcDbArc
 50
45.00412
 51
145.425316
  0
ARC
  5
264
100
AcDbEntity
  8
M1
  6
CONTINUOUS
370
25
 62
     7
100
AcDbCircle
 10
271.074152
 20
757.066777
 40
4.999951
100
AcDbArc
 50
331.260529
 51
404.996529
  0
ARC
  5
265
100
AcDbEntity
  8
M1
  6
CONTINUOUS
370
25
 62
     7
100
AcDbCircle
 10
266.95318
 20
642.636876
 40
9.999731
100
AcDbArc
 50
228.27771
 51
314.99926
  0
ARC
  5
266
100
AcDbEntity
  8
M1
  6
CONTINUOUS
370
25
 62
     7
100
AcDbCircle
 10
336.835138
 20
721.00446
 40
115.000008
100
AcDbArc
 50
221.724213
 51
228.276114
  0
ARC
  5
267
100
AcDbEntity
  8
M1
  6
CONTINUOUS
370
25
 62
     7
100
AcDbCircle
 10
258.468073
 20
651.122288
 40
9.999903
100
AcDbArc
 50
134.999374
 51
221.722862
  0
ARC
  5
268
100
AcDbEntity
  8
M1
  6
CONTINUOUS
370
25
 62
     7
100
AcDbCircle
 10
250.380182
 20
661.418858
 40
2.999969
100
AcDbArc
 50
214.576126
 51
314.994232
  0
ARC
  5
269
100
AcDbEntity
  8
M1
  6
CONTINUOUS
370
25
 62
     7
100
AcDbCircle
 10
336.835138
 20
721.00446
 40
107.999786
100
AcDbArc
 50
205.775864
 51
214.574985
  0
ARC
  5
26A
100
AcDbEntity
  8
M1
  6
CONTINUOUS
370
25
 62
     7
100
AcDbCircle
 10
242.283137
 20
675.345158
 40
2.999932
100
AcDbArc
 50
112.498451
 51
205.77224
  0
ARC
  5
26B
100
AcDbEntity
  8
M1
  6
CONTINUOUS
370
25
 62
     7
100
AcDbCircle
 10
271.075129
 20
684.94196
 40
4.999682
100
AcDbArc
 50
314.995544
 51
388.739456
  0
ARC
  5
26C
100
AcDbEntity
  8
M1
  6
CONTINUOUS
370
25
 62
     7
100
AcDbCircle
 10
237.690119
 20
686.431675
 40
2.999356
100
AcDbArc
 50
199.228424
 51
292.499939
  0
ARC
  5
26D
100
AcDbEntity
  8
M1
  6
CONTINUOUS
370
25
 62
     7
100
AcDbCircle
 10
336.835138
 20
721.00446
 40
107.999947
100
AcDbArc
 50
190.425323
 51
199.224257
  0
ARC
  5
26E
100
AcDbEntity
  8
M1
  6
CONTINUOUS
370
25
 62
     7
100
AcDbCircle
 10
233.569147
 20
702.00446
 40
3.0
100
AcDbArc
 50
90.0
 51
190.425926
  0
ARC
  5
26F
100
AcDbEntity
  8
M1
  6
CONTINUOUS
370
25
 62
     7
100
AcDbCircle
 10
264.835138
 20
700.004368
 40
5.000045
100
AcDbArc
 50
16.259981
 51
90.0
  0
ARC
  5
270
100
AcDbEntity
  8
M1
  6
CONTINUOUS
370
25
 62
     7
100
AcDbCircle
 10
342.835138
 20
616.175877
 40
9.999986
100
AcDbArc
 50
273.279236
 51
360.0
  0
ARC
  5
271
100
AcDbEntity
  8
M1
  6
CONTINUOUS
370
25
 62
     7
100
AcDbCircle
 10
336.835138
 20
721.00446
 40
114.999962
100
AcDbArc
 50
266.724365
 51
273.276128
  0
ARC
  5
272
100
AcDbEntity
  8
M1
  6
CONTINUOUS
370
25
 62
     7
100
AcDbCircle
 10
330.835138
 20
616.17606
 40
10.0
100
AcDbArc
 50
180.0
 51
266.726372
  0
ARC
  5
273
100
AcDbEntity
  8
M1
  6
CONTINUOUS
370
25
 62
     7
100
AcDbCircle
 10
317.835138
 20
617.737767
 40
2.999868
100
AcDbArc
 50
259.591095
 51
360.0
  0
ARC
  5
274
100
AcDbEntity
  8
M1
  6
CONTINUOUS
370
25
 62
     7
100
AcDbCircle
 10
336.835138
 20
721.00446
 40
107.999847
100
AcDbArc
 50
250.776123
 51
259.575226
  0
ARC
  5
275
100
AcDbEntity
  8
M1
  6
CONTINUOUS
370
25
 62
     7
100
AcDbCircle
 10
302.26214
 20
621.859562
 40
2.999391
100
AcDbArc
 50
157.496017
 51
250.789017
  0
ARC
  5
276
100
AcDbEntity
  8
M1
  6
CONTINUOUS
370
25
 62
     7
100
AcDbCircle
 10
315.835138
 20
649.00446
 40
5.0
100
AcDbArc
 50
0.0
 51
73.728546
  0
ARC
  5
277
100
AcDbEntity
  8
M1
  6
CONTINUOUS
370
25
 62
     7
100
AcDbCircle
 10
291.176081
 20
626.451664
 40
3.000138
100
AcDbArc
 50
244.217422
 51
337.502426
  0
ARC
  5
278
100
AcDbEntity
  8
M1
  6
CONTINUOUS
370
25
 62
     7
100
AcDbCircle
 10
336.835138
 20
721.00446
 40
107.999565
100
AcDbArc
 50
235.425705
 51
244.224151
  0
ARC
  5
279
100
AcDbEntity
  8
M1
  6
CONTINUOUS
370
25
 62
     7
100
AcDbCircle
 10
277.250178
 20
634.548863
 40
2.999831
100
AcDbArc
 50
134.997116
 51
235.432068
  0
ARC
  5
27A
100
AcDbEntity
  8
M1
  6
CONTINUOUS
370
25
 62
     7
100
AcDbCircle
 10
300.773127
 20
655.243473
 40
4.999895
100
AcDbArc
 50
61.260986
 51
135.004204
  0
ARC
  5
27B
100
AcDbEntity
  8
M1
  6
CONTINUOUS
370
25
 62
     7
100
AcDbCircle
 10
415.20318
 20
651.122074
 40
10.000271
100
AcDbArc
 50
318.277649
 51
405.00074
  0
ARC
  5
27C
100
AcDbEntity
  8
M1
  6
CONTINUOUS
370
25
 62
     7
100
AcDbCircle
 10
336.835138
 20
721.00446
 40
115.000153
100
AcDbArc
 50
311.724274
 51
318.27614
  0
ARC
  5
27D
100
AcDbEntity
  8
M1
  6
CONTINUOUS
370
25
 62
     7
100
AcDbCircle
 10
406.718073
 20
642.636784
 40
9.99986
100
AcDbArc
 50
225.000366
 51
311.722633
  0
ARC
  5
27E
100
AcDbEntity
  8
M1
  6
CONTINUOUS
370
25
 62
     7
100
AcDbCircle
 10
396.421076
 20
634.548863
 40
2.999709
100
AcDbArc
 50
304.568939
 51
405.002899
  0
ARC
  5
27F
100
AcDbEntity
  8
M1
  6
CONTINUOUS
370
25
 62
     7
100
AcDbCircle
 10
336.835138
 20
721.00446
 40
108.000046
100
AcDbArc
 50
295.775848
 51
304.574748
  0
ARC
  5
280
100
AcDbEntity
  8
M1
  6
CONTINUOUS
370
25
 62
     7
100
AcDbCircle
 10
382.495173
 20
626.451664
 40
3.000394
100
AcDbArc
 50
202.495422
 51
295.765778
  0
ARC
  5
281
100
AcDbEntity
  8
M1
  6
CONTINUOUS
370
25
 62
     7
100
AcDbCircle
 10
372.898127
 20
655.243565
 40
4.999639
100
AcDbArc
 50
45.003956
 51
118.738506
  0
ARC
  5
282
100
AcDbEntity
  8
M1
  6
CONTINUOUS
370
25
 62
     7
100
AcDbCircle
 10
371.408137
 20
621.859471
 40
3.000157
100
AcDbArc
 50
289.228027
 51
382.496857
  0
ARC
  5
283
100
AcDbEntity
  8
M1
  6
CONTINUOUS
370
25
 62
     7
100
AcDbCircle
 10
336.835138
 20
721.00446
 40
107.999969
100
AcDbArc
 50
280.425293
 51
289.224363
  0
ARC
  5
284
100
AcDbEntity
  8
M1
  6
CONTINUOUS
370
25
 62
     7
100
AcDbCircle
 10
355.835138
 20
617.737858
 40
3.0
100
AcDbArc
 50
180.0
 51
280.427353
  0
ARC
  5
285
100
AcDbEntity
  8
M1
  6
CONTINUOUS
370
25
 62
     7
100
AcDbCircle
 10
357.835138
 20
649.00446
 40
5.000024
100
AcDbArc
 50
106.260414
 51
180.0
  0
ARC
  5
286
100
AcDbEntity
  8
M1
  6
CONTINUOUS
370
25
 62
     7
100
AcDbCircle
 10
441.664118
 20
727.004368
 40
10.000347
100
AcDbArc
 50
3.275615
 51
90.0
  0
ARC
  5
287
100
AcDbEntity
  8
M1
  6
CONTINUOUS
370
25
 62
     7
100
AcDbCircle
 10
336.835138
 20
721.00446
 40
115.0009
100
AcDbArc
 50
356.724182
 51
363.275802
  0
ARC
  5
288
100
AcDbEntity
  8
M1
  6
CONTINUOUS
370
25
 62
     7
100
AcDbCircle
 10
441.664118
 20
715.004277
 40
10.0
100
AcDbArc
 50
270.0
 51
356.724388
  0
ARC
  5
289
100
AcDbEntity
  8
M1
  6
CONTINUOUS
370
25
 62
     7
100
AcDbCircle
 10
440.102106
 20
702.004582
 40
3.000574
100
AcDbArc
 50
349.575806
 51
450.0
  0
ARC
  5
28A
100
AcDbEntity
  8
M1
  6
CONTINUOUS
370
25
 62
     7
100
AcDbCircle
 10
336.835138
 20
721.00446
 40
108.000374
100
AcDbArc
 50
340.775848
 51
349.574831
  0
ARC
  5
28B
100
AcDbEntity
  8
M1
  6
CONTINUOUS
370
25
 62
     7
100
AcDbCircle
 10
435.980158
 20
686.431584
 40
3.000063
100
AcDbArc
 50
247.500061
 51
340.777168
  0
ARC
  5
28C
100
AcDbEntity
  8
M1
  6
CONTINUOUS
370
25
 62
     7
100
AcDbCircle
 10
408.835138
 20
700.00446
 40
5.0
100
AcDbArc
 50
90.0
 51
163.739685
  0
ARC
  5
28D
100
AcDbEntity
  8
M1
  6
CONTINUOUS
370
25
 62
     7
100
AcDbCircle
 10
431.388117
 20
675.344975
 40
3.000486
100
AcDbArc
 50
334.227753
 51
427.49939
  0
ARC
  5
28E
100
AcDbEntity
  8
M1
  6
CONTINUOUS
370
25
 62
     7
100
AcDbCircle
 10
336.835138
 20
721.00446
 40
108.000191
100
AcDbArc
 50
325.425354
 51
334.224309
  0
ARC
  5
28F
100
AcDbEntity
  8
M1
  6
CONTINUOUS
370
25
 62
     7
100
AcDbCircle
 10
423.291071
 20
661.41898
 40
2.999744
100
AcDbArc
 50
225.004532
 51
325.425316
  0
ARC
  5
290
100
AcDbEntity
  8
M1
  6
CONTINUOUS
370
25
 62
     7
100
AcDbCircle
 10
402.596125
 20
684.942082
 40
4.999995
100
AcDbArc
 50
151.259628
 51
225.003967
  0
ARC
  5
291
100
AcDbEntity
  8
M1
  6
CONTINUOUS
370
25
 62
     7
100
AcDbCircle
 10
336.835138
 20
721.00446
 40
69.999916
100
AcDbArc
 50
106.260201
 51
118.739587
  0
ARC
  5
292
100
AcDbEntity
  8
M1
  6
CONTINUOUS
370
25
 62
     7
100
AcDbCircle
 10
336.835138
 20
721.00446
 40
70.000252
100
AcDbArc
 50
61.259708
 51
73.739823
  0
ARC
  5
293
100
AcDbEntity
  8
M1
  6
CONTINUOUS
370
25
 62
     7
100
AcDbCircle
 10
336.835138
 20
721.00446
 40
69.999992
100
AcDbArc
 50
151.260361
 51
163.739851
  0
ARC
  5
294
100
AcDbEntity
  8
M1
  6
CONTINUOUS
370
25
 62
     7
100
AcDbCircle
 10
336.835138
 20
721.00446
 40
69.999977
100
AcDbArc
 50
196.2603
 51
208.740162
  0
ARC
  5
295
100
AcDbEntity
  8
M1
  6
CONTINUOUS
370
25
 62
     7
100
AcDbCircle
 10
336.835138
 20
721.00446
 40
69.999863
100
AcDbArc
 50
241.260452
 51
253.740604
  0
ARC
  5
296
100
AcDbEntity
  8
M1
  6
CONTINUOUS
370
25
 62
     7
100
AcDbCircle
 10
336.835138
 20
721.00446
 40
69.999977
100
AcDbArc
 50
286.260193
 51
298.740257
  0
ARC
  5
297
100
AcDbEntity
  8
M1
  6
CONTINUOUS
370
25
 62
     7
100
AcDbCircle
 10
336.835138
 20
721.00446
 40
125.000275
100
AcDbArc
 50
295.610748
 51
306.080935
  0
ARC
  5
298
100
AcDbEntity
  8
M1
  6
CONTINUOUS
370
25
 62
     7
100
AcDbCircle
 10
392.596125
 20
604.678471
 40
3.999983
100
AcDbArc
 50
115.610611
 51
202.496674
  0
ARC
  5
299
100
AcDbEntity
  8
M1
  6
CONTINUOUS
370
25
 62
     7
100
AcDbCircle
 10
396.236139
 20
595.88947
 40
3.999572
100
AcDbArc
 50
202.502029
 51
295.402229
  0
ARC
  5
29A
100
AcDbEntity
  8
M1
  6
CONTINUOUS
370
25
 62
     7
100
AcDbCircle
 10
419.60113
 20
609.954472
 40
3.999775
100
AcDbArc
 50
306.693726
 51
405.004021
  0
ARC
  5
29B
100
AcDbEntity
  8
M1
  6
CONTINUOUS
370
25
 62
     7
100
AcDbCircle
 10
412.807184
 20
616.748478
 40
3.999681
100
AcDbArc
 50
45.004017
 51
126.085606
  0
ARC
  5
29C
100
AcDbEntity
  8
M1
  6
CONTINUOUS
370
25
 62
     7
100
AcDbCircle
 10
336.835138
 20
721.00446
 40
124.999771
100
AcDbArc
 50
115.610359
 51
126.080947
  0
ARC
  5
29D
100
AcDbEntity
  8
M1
  6
CONTINUOUS
370
25
 62
     7
100
AcDbCircle
 10
281.075129
 20
837.330357
 40
3.999873
100
AcDbArc
 50
295.611359
 51
382.502686
  0
ARC
  5
29E
100
AcDbEntity
  8
M1
  6
CONTINUOUS
370
25
 62
     7
100
AcDbCircle
 10
277.434137
 20
846.119358
 40
4.000474
100
AcDbArc
 50
22.496675
 51
115.389597
  0
CIRCLE
  5
29F
100
AcDbEntity
  8
M1
  6
CONTINUOUS
370
25
 62
     7
100
AcDbCircle
 10
336.835138
 20
721.00446
 40
142.5
  0
ARC
  5
2A0
100
AcDbEntity
  8
M1
  6
CONTINUOUS
370
25
 62
     7
100
AcDbCircle
 10
254.070124
 20
832.054356
 40
4.000481
100
AcDbArc
 50
126.703629
 51
224.993195
  0
ARC
  5
2A1
100
AcDbEntity
  8
M1
  6
CONTINUOUS
370
25
 62
     7
100
AcDbCircle
 10
260.864191
 20
825.26035
 40
4.000436
100
AcDbArc
 50
224.992584
 51
306.073143
  0
ARC
  5
2A2
100
AcDbEntity
  8
M1
  6
CONTINUOUS
370
25
 62
     7
100
AcDbCircle
 10
336.835138
 20
721.00446
 40
125.000061
100
AcDbArc
 50
233.919067
 51
244.389639
  0
ARC
  5
2A3
100
AcDbEntity
  8
M1
  6
CONTINUOUS
370
25
 62
     7
100
AcDbCircle
 10
281.075129
 20
604.678471
 40
3.999459
100
AcDbArc
 50
337.497314
 51
424.389397
  0
ARC
  5
2A4
100
AcDbEntity
  8
M1
  6
CONTINUOUS
370
25
 62
     7
100
AcDbCircle
 10
277.434137
 20
595.88947
 40
3.999724
100
AcDbArc
 50
244.610413
 51
337.503334
  0
ARC
  5
2A5
100
AcDbEntity
  8
M1
  6
CONTINUOUS
370
25
 62
     7
100
AcDbCircle
 10
254.070124
 20
609.954472
 40
4.000371
100
AcDbArc
 50
135.005875
 51
233.295067
  0
ARC
  5
2A6
100
AcDbEntity
  8
M1
  6
CONTINUOUS
370
25
 62
     7
100
AcDbCircle
 10
260.864191
 20
616.748478
 40
3.999532
100
AcDbArc
 50
53.927113
 51
135.007107
  0
ARC
  5
2A7
100
AcDbEntity
  8
M1
  6
CONTINUOUS
370
25
 62
     7
100
AcDbCircle
 10
336.835138
 20
721.00446
 40
125.000435
100
AcDbArc
 50
357.761292
 51
362.238816
  0
ARC
  5
2A8
100
AcDbEntity
  8
M1
  6
CONTINUOUS
370
25
 62
     7
100
AcDbCircle
 10
476.246149
 20
726.004765
 40
2.999852
100
AcDbArc
 50
2.053896
 51
90.0
  0
ARC
  5
2A9
100
AcDbEntity
  8
M1
  6
CONTINUOUS
370
25
 62
     7
100
AcDbCircle
 10
464.738093
 20
726.004765
 40
3.0
100
AcDbArc
 50
90.0
 51
182.238525
  0
ARC
  5
2AA
100
AcDbEntity
  8
M1
  6
CONTINUOUS
370
25
 62
     7
100
AcDbCircle
 10
476.246149
 20
716.004368
 40
3.0
100
AcDbArc
 50
270.0
 51
357.946686
  0
ARC
  5
2AB
100
AcDbEntity
  8
M1
  6
CONTINUOUS
370
25
 62
     7
100
AcDbCircle
 10
464.738093
 20
716.004368
 40
3.000216
100
AcDbArc
 50
177.760895
 51
270.0
  0
ARC
  5
2AC
100
AcDbEntity
  8
M1
  6
CONTINUOUS
370
25
 62
     7
100
AcDbCircle
 10
208.933161
 20
726.004765
 40
3.000214
100
AcDbArc
 50
357.761475
 51
450.0
  0
ARC
  5
2AD
100
AcDbEntity
  8
M1
  6
CONTINUOUS
370
25
 62
     7
100
AcDbCircle
 10
336.835138
 20
721.00446
 40
124.999474
100
AcDbArc
 50
177.761124
 51
182.238725
  0
ARC
  5
2AE
100
AcDbEntity
  8
M1
  6
CONTINUOUS
370
25
 62
     7
100
AcDbCircle
 10
208.933161
 20
716.004368
 40
3.0
100
AcDbArc
 50
270.0
 51
362.239105
  0
ARC
  5
2AF
100
AcDbEntity
  8
M1
  6
CONTINUOUS
370
25
 62
     7
100
AcDbCircle
 10
197.425104
 20
716.004368
 40
2.999851
100
AcDbArc
 50
182.053314
 51
270.0
  0
ARC
  5
2B0
100
AcDbEntity
  8
M1
  6
CONTINUOUS
370
25
 62
     7
100
AcDbCircle
 10
197.425104
 20
726.004765
 40
3.0
100
AcDbArc
 50
90.0
 51
177.946106
  0
CIRCLE
  5
2B1
100
AcDbEntity
  8
M1
  6
CONTINUOUS
370
25
 62
     7
100
AcDbCircle
 10
1410.889338
 20
721.00446
 40
176.0
  0
CIRCLE
  5
2B2
100
AcDbEntity
  8
M1
  6
CONTINUOUS
370
25
 62
     7
100
AcDbCircle
 10
1275.789332
 20
799.00449
 40
9.5
  0
CIRCLE
  5
2B3
100
AcDbEntity
  8
M1
  6
CONTINUOUS
370
25
 62
     7
100
AcDbCircle
 10
1410.889338
 20
877.00449
 40
9.5
  0
CIRCLE
  5
2B4
100
AcDbEntity
  8
M1
  6
CONTINUOUS
370
25
 62
     7
100
AcDbCircle
 10
1545.989329
 20
799.00449
 40
9.5
  0
CIRCLE
  5
2B5
100
AcDbEntity
  8
M1
  6
CONTINUOUS
370
25
 62
     7
100
AcDbCircle
 10
1545.989329
 20
643.00446
 40
9.5
  0
CIRCLE
  5
2B6
100
AcDbEntity
  8
M1
  6
CONTINUOUS
370
25
 62
     7
100
AcDbCircle
 10
1410.889338
 20
565.00446
 40
9.5
  0
CIRCLE
  5
2B7
100
AcDbEntity
  8
M1
  6
CONTINUOUS
370
25
 62
     7
100
AcDbCircle
 10
1275.789332
 20
643.00446
 40
9.5
  0
ARC
  5
2B8
100
AcDbEntity
  8
M1
  6
CONTINUOUS
370
13
 62
     7
100
AcDbCircle
 10
1410.889338
 20
721.00446
 40
99.999977
100
AcDbArc
 50
172.548141
 51
187.696964
  0
CIRCLE
  5
2B9
100
AcDbEntity
  8
M1
  6
CONTINUOUS
370
13
 62
     7
100
AcDbCircle
 10
1340.178644
 20
791.715062
 40
6.0
  0
CIRCLE
  5
2BA
100
AcDbEntity
  8
M1
  6
CONTINUOUS
370
25
 62
     7
100
AcDbCircle
 10
1340.178644
 20
791.715062
 40
5.0
  0
CIRCLE
  5
2BB
100
AcDbEntity
  8
M1
  6
CONTINUOUS
370
13
 62
     7
100
AcDbCircle
 10
1410.889338
 20
821.00449
 40
6.0
  0
CIRCLE
  5
2BC
100
AcDbEntity
  8
M1
  6
CONTINUOUS
370
25
 62
     7
100
AcDbCircle
 10
1410.889338
 20
821.00449
 40
5.0
  0
CIRCLE
  5
2BD
100
AcDbEntity
  8
M1
  6
CONTINUOUS
370
13
 62
     7
100
AcDbCircle
 10
1481.600031
 20
791.715062
 40
6.0
  0
CIRCLE
  5
2BE
100
AcDbEntity
  8
M1
  6
CONTINUOUS
370
25
 62
     7
100
AcDbCircle
 10
1481.600031
 20
791.715062
 40
5.0
  0
CIRCLE
  5
2BF
100
AcDbEntity
  8
M1
  6
CONTINUOUS
370
13
 62
     7
100
AcDbCircle
 10
1510.889338
 20
721.00446
 40
6.0
  0
CIRCLE
  5
2C0
100
AcDbEntity
  8
M1
  6
CONTINUOUS
370
25
 62
     7
100
AcDbCircle
 10
1510.889338
 20
721.00446
 40
5.0
  0
CIRCLE
  5
2C1
100
AcDbEntity
  8
M1
  6
CONTINUOUS
370
13
 62
     7
100
AcDbCircle
 10
1481.600031
 20
650.293766
 40
6.0
  0
CIRCLE
  5
2C2
100
AcDbEntity
  8
M1
  6
CONTINUOUS
370
25
 62
     7
100
AcDbCircle
 10
1481.600031
 20
650.293766
 40
5.0
  0
CIRCLE
  5
2C3
100
AcDbEntity
  8
M1
  6
CONTINUOUS
370
13
 62
     7
100
AcDbCircle
 10
1410.889338
 20
621.00446
 40
6.0
  0
CIRCLE
  5
2C4
100
AcDbEntity
  8
M1
  6
CONTINUOUS
370
25
 62
     7
100
AcDbCircle
 10
1410.889338
 20
621.00446
 40
5.0
  0
CIRCLE
  5
2C5
100
AcDbEntity
  8
M1
  6
CONTINUOUS
370
13
 62
     7
100
AcDbCircle
 10
1340.178644
 20
650.293766
 40
6.0
  0
CIRCLE
  5
2C6
100
AcDbEntity
  8
M1
  6
CONTINUOUS
370
25
 62
     7
100
AcDbCircle
 10
1340.178644
 20
650.293766
 40
5.0
  0
CIRCLE
  5
2C7
100
AcDbEntity
  8
M1
  6
CONTINUOUS
370
13
 62
     7
100
AcDbCircle
 10
1310.889338
 20
721.00446
 40
6.0
  0
CIRCLE
  5
2C8
100
AcDbEntity
  8
M1
  6
CONTINUOUS
370
25
 62
     7
100
AcDbCircle
 10
1310.889338
 20
721.00446
 40
5.0
  0
ARC
  5
2C9
100
AcDbEntity
  8
M1
  6
CONTINUOUS
370
25
 62
     7
100
AcDbCircle
 10
1410.889338
 20
721.00446
 40
22.499964
100
AcDbArc
 50
195.466034
 51
524.533966
  0
CIRCLE
  5
2CA
100
AcDbEntity
  8
M1
  6
CONTINUOUS
370
25
 62
     7
100
AcDbCircle
 10
1410.889338
 20
721.00446
 40
65.0
  0
CIRCLE
  5
2CB
100
AcDbEntity
  8
M1
  6
CONTINUOUS
370
25
 62
     7
100
AcDbCircle
 10
1410.889338
 20
721.00446
 40
55.0
  0
ARC
  5
2CC
100
AcDbEntity
  8
M1
  6
CONTINUOUS
370
25
 62
     7
100
AcDbCircle
 10
1410.889338
 20
721.00446
 40
114.999992
100
AcDbArc
 50
131.724182
 51
138.275795
  0
ARC
  5
2CD
100
AcDbEntity
  8
M1
  6
CONTINUOUS
370
25
 62
     7
100
AcDbCircle
 10
1341.007044
 20
799.371983
 40
10.000032
100
AcDbArc
 50
45.000122
 51
131.724495
  0
ARC
  5
2CE
100
AcDbEntity
  8
M1
  6
CONTINUOUS
370
25
 62
     7
100
AcDbCircle
 10
1332.521631
 20
790.886692
 40
9.999907
100
AcDbArc
 50
138.275787
 51
225.000366
  0
ARC
  5
2CF
100
AcDbEntity
  8
M1
  6
CONTINUOUS
370
25
 62
     7
100
AcDbCircle
 10
1410.889338
 20
721.00446
 40
124.999977
100
AcDbArc
 50
115.610565
 51
126.080929
  0
ARC
  5
2D0
100
AcDbEntity
  8
M1
  6
CONTINUOUS
370
25
 62
     7
100
AcDbCircle
 10
1351.488245
 20
846.119358
 40
3.999967
100
AcDbArc
 50
22.499685
 51
115.397886
  0
ARC
  5
2D1
100
AcDbEntity
  8
M1
  6
CONTINUOUS
370
25
 62
     7
100
AcDbCircle
 10
1355.128718
 20
837.330357
 40
3.999873
100
AcDbArc
 50
295.611359
 51
382.499504
  0
ARC
  5
2D2
100
AcDbEntity
  8
M1
  6
CONTINUOUS
370
25
 62
     7
100
AcDbCircle
 10
1328.123743
 20
832.054356
 40
4.000134
100
AcDbArc
 50
126.696976
 51
224.997841
  0
ARC
  5
2D3
100
AcDbEntity
  8
M1
  6
CONTINUOUS
370
25
 62
     7
100
AcDbCircle
 10
1334.917627
 20
825.26035
 40
3.99994
100
AcDbArc
 50
224.999695
 51
306.081627
  0
ARC
  5
2D4
100
AcDbEntity
  8
M1
  6
CONTINUOUS
370
13
 62
     7
100
AcDbCircle
 10
1410.889338
 20
721.00446
 40
99.999992
100
AcDbArc
 50
83.060806
 51
96.630962
  0
ARC
  5
2D5
100
AcDbEntity
  8
M1
  6
CONTINUOUS
370
13
 62
     7
100
AcDbCircle
 10
1410.889338
 20
721.00446
 40
100.000031
100
AcDbArc
 50
38.845989
 51
51.426859
  0
ARC
  5
2D6
100
AcDbEntity
  8
M1
  6
CONTINUOUS
370
13
 62
     7
100
AcDbCircle
 10
1410.889338
 20
721.00446
 40
100.0
100
AcDbArc
 50
128.952881
 51
141.57118
  0
ARC
  5
2D7
100
AcDbEntity
  8
M1
  6
CONTINUOUS
370
25
 62
     7
100
AcDbCircle
 10
1410.889338
 20
721.00446
 40
108.000061
100
AcDbArc
 50
160.775848
 51
169.574687
  0
ARC
  5
2D8
100
AcDbEntity
  8
M1
  6
CONTINUOUS
370
25
 62
     7
100
AcDbCircle
 10
1324.433741
 20
780.590062
 40
2.999982
100
AcDbArc
 50
45.000824
 51
145.425644
  0
ARC
  5
2D9
100
AcDbEntity
  8
M1
  6
CONTINUOUS
370
25
 62
     7
100
AcDbCircle
 10
1410.889338
 20
721.00446
 40
108.000008
100
AcDbArc
 50
145.425217
 51
154.224163
  0
ARC
  5
2DA
100
AcDbEntity
  8
M1
  6
CONTINUOUS
370
25
 62
     7
100
AcDbCircle
 10
1316.336634
 20
766.663762
 40
2.999979
100
AcDbArc
 50
154.225021
 51
247.499519
  0
ARC
  5
2DB
100
AcDbEntity
  8
M1
  6
CONTINUOUS
370
25
 62
     7
100
AcDbCircle
 10
1311.744318
 20
755.577183
 40
2.999927
100
AcDbArc
 50
67.500252
 51
160.77581
  0
ARC
  5
2DC
100
AcDbEntity
  8
M1
  6
CONTINUOUS
370
25
 62
     7
100
AcDbCircle
 10
1307.622736
 20
740.00446
 40
3.000034
100
AcDbArc
 50
169.573898
 51
270.0
  0
ARC
  5
2DD
100
AcDbEntity
  8
M1
  6
CONTINUOUS
370
25
 62
     7
100
AcDbCircle
 10
1410.889338
 20
721.00446
 40
69.999962
100
AcDbArc
 50
151.260147
 51
163.739697
  0
ARC
  5
2DE
100
AcDbEntity
  8
M1
  6
CONTINUOUS
370
25
 62
     7
100
AcDbCircle
 10
1345.128443
 20
757.06696
 40
5.000034
100
AcDbArc
 50
331.260254
 51
404.999496
  0
ARC
  5
2DF
100
AcDbEntity
  8
M1
  6
CONTINUOUS
370
25
 62
     7
100
AcDbCircle
 10
1338.889338
 20
742.00446
 40
5.0
100
AcDbArc
 50
270.0
 51
343.739822
  0
ARC
  5
2E0
100
AcDbEntity
  8
M1
  6
CONTINUOUS
370
13
 62
     7
100
AcDbCircle
 10
1410.889338
 20
721.00446
 40
100.000023
100
AcDbArc
 50
353.448975
 51
365.757363
  0
ARC
  5
2E1
100
AcDbEntity
  8
M1
  6
CONTINUOUS
370
13
 62
     7
100
AcDbCircle
 10
1410.889338
 20
721.00446
 40
99.999977
100
AcDbArc
 50
308.786285
 51
321.174496
  0
ARC
  5
2E2
100
AcDbEntity
  8
M1
  6
CONTINUOUS
370
13
 62
     7
100
AcDbCircle
 10
1410.889338
 20
721.00446
 40
100.000084
100
AcDbArc
 50
263.470886
 51
276.046233
  0
ARC
  5
2E3
100
AcDbEntity
  8
M1
  6
CONTINUOUS
370
13
 62
     7
100
AcDbCircle
 10
1410.889338
 20
721.00446
 40
100.000008
100
AcDbArc
 50
218.444672
 51
231.061437
  0
ARC
  5
2E4
100
AcDbEntity
  8
M1
  6
CONTINUOUS
370
25
 62
     7
100
AcDbCircle
 10
1416.889338
 20
825.832859
 40
10.0
100
AcDbArc
 50
0.0
 51
86.72435
  0
ARC
  5
2E5
100
AcDbEntity
  8
M1
  6
CONTINUOUS
370
25
 62
     7
100
AcDbCircle
 10
1410.889338
 20
721.00446
 40
114.999954
100
AcDbArc
 50
86.724144
 51
93.275772
  0
ARC
  5
2E6
100
AcDbEntity
  8
M1
  6
CONTINUOUS
370
25
 62
     7
100
AcDbCircle
 10
1404.889338
 20
825.832859
 40
9.999982
100
AcDbArc
 50
93.275734
 51
180.0
  0
ARC
  5
2E7
100
AcDbEntity
  8
M1
  6
CONTINUOUS
370
25
 62
     7
100
AcDbCircle
 10
1391.889338
 20
824.271092
 40
3.0
100
AcDbArc
 50
0.0
 51
100.424385
  0
ARC
  5
2E8
100
AcDbEntity
  8
M1
  6
CONTINUOUS
370
25
 62
     7
100
AcDbCircle
 10
1410.889338
 20
721.00446
 40
108.000008
100
AcDbArc
 50
100.425217
 51
109.22417
  0
ARC
  5
2E9
100
AcDbEntity
  8
M1
  6
CONTINUOUS
370
25
 62
     7
100
AcDbCircle
 10
1376.316431
 20
820.149388
 40
2.99999
100
AcDbArc
 50
109.224197
 51
202.501686
  0
ARC
  5
2EA
100
AcDbEntity
  8
M1
  6
CONTINUOUS
370
25
 62
     7
100
AcDbCircle
 10
1389.889338
 20
793.00449
 40
4.999987
100
AcDbArc
 50
286.260162
 51
359.999985
  0
ARC
  5
2EB
100
AcDbEntity
  8
M1
  6
CONTINUOUS
370
25
 62
     7
100
AcDbCircle
 10
1365.229944
 20
815.557164
 40
2.999974
100
AcDbArc
 50
22.501905
 51
115.776823
  0
ARC
  5
2EC
100
AcDbEntity
  8
M1
  6
CONTINUOUS
370
25
 62
     7
100
AcDbCircle
 10
1410.889338
 20
721.00446
 40
107.999977
100
AcDbArc
 50
115.77581
 51
124.574671
  0
ARC
  5
2ED
100
AcDbEntity
  8
M1
  6
CONTINUOUS
370
25
 62
     7
100
AcDbCircle
 10
1351.303919
 20
807.459996
 40
2.999967
100
AcDbArc
 50
124.57402
 51
225.000824
  0
ARC
  5
2EE
100
AcDbEntity
  8
M1
  6
CONTINUOUS
370
25
 62
     7
100
AcDbCircle
 10
1374.826929
 20
786.765355
 40
4.999919
100
AcDbArc
 50
224.999756
 51
298.740715
  0
ARC
  5
2EF
100
AcDbEntity
  8
M1
  6
CONTINUOUS
370
25
 62
     7
100
AcDbCircle
 10
1489.256937
 20
790.886692
 40
9.999935
100
AcDbArc
 50
314.999817
 51
401.724472
  0
ARC
  5
2F0
100
AcDbEntity
  8
M1
  6
CONTINUOUS
370
25
 62
     7
100
AcDbCircle
 10
1410.889338
 20
721.00446
 40
115.000008
100
AcDbArc
 50
41.724113
 51
48.275766
  0
ARC
  5
2F1
100
AcDbEntity
  8
M1
  6
CONTINUOUS
370
25
 62
     7
100
AcDbCircle
 10
1480.771525
 20
799.371983
 40
10.000024
100
AcDbArc
 50
48.27557
 51
134.999943
  0
ARC
  5
2F2
100
AcDbEntity
  8
M1
  6
CONTINUOUS
370
25
 62
     7
100
AcDbCircle
 10
1470.474924
 20
807.459996
 40
3.000003
100
AcDbArc
 50
314.999573
 51
415.42572
  0
ARC
  5
2F3
100
AcDbEntity
  8
M1
  6
CONTINUOUS
370
25
 62
     7
100
AcDbCircle
 10
1410.889338
 20
721.00446
 40
107.999931
100
AcDbArc
 50
55.42519
 51
64.224142
  0
ARC
  5
2F4
100
AcDbEntity
  8
M1
  6
CONTINUOUS
370
25
 62
     7
100
AcDbCircle
 10
1456.548624
 20
815.557164
 40
3.000053
100
AcDbArc
 50
64.223442
 51
157.498207
  0
ARC
  5
2F5
100
AcDbEntity
  8
M1
  6
CONTINUOUS
370
25
 62
     7
100
AcDbCircle
 10
1446.951838
 20
786.765355
 40
5.000005
100
AcDbArc
 50
241.26088
 51
315.000252
  0
ARC
  5
2F6
100
AcDbEntity
  8
M1
  6
CONTINUOUS
370
25
 62
     7
100
AcDbCircle
 10
1445.462137
 20
820.149388
 40
2.999941
100
AcDbArc
 50
337.500366
 51
430.777733
  0
ARC
  5
2F7
100
AcDbEntity
  8
M1
  6
CONTINUOUS
370
25
 62
     7
100
AcDbCircle
 10
1410.889338
 20
721.00446
 40
107.999969
100
AcDbArc
 50
70.775841
 51
79.574642
  0
ARC
  5
2F8
100
AcDbEntity
  8
M1
  6
CONTINUOUS
370
25
 62
     7
100
AcDbCircle
 10
1429.889338
 20
824.271092
 40
2.999911
100
AcDbArc
 50
79.573761
 51
180.0
  0
ARC
  5
2F9
100
AcDbEntity
  8
M1
  6
CONTINUOUS
370
25
 62
     7
100
AcDbCircle
 10
1431.889429
 20
793.00449
 40
5.0
100
AcDbArc
 50
180.0
 51
253.740829
  0
ARC
  5
2FA
100
AcDbEntity
  8
M1
  6
CONTINUOUS
370
25
 62
     7
100
AcDbCircle
 10
1515.717829
 20
715.00446
 40
10.0
100
AcDbArc
 50
270.0
 51
356.723938
  0
ARC
  5
2FB
100
AcDbEntity
  8
M1
  6
CONTINUOUS
370
25
 62
     7
100
AcDbCircle
 10
1410.889338
 20
721.00446
 40
115.0
100
AcDbArc
 50
356.724152
 51
363.275777
  0
ARC
  5
2FC
100
AcDbEntity
  8
M1
  6
CONTINUOUS
370
25
 62
     7
100
AcDbCircle
 10
1515.717737
 20
727.00446
 40
9.999936
100
AcDbArc
 50
3.27575
 51
90.0
  0
ARC
  5
2FD
100
AcDbEntity
  8
M1
  6
CONTINUOUS
370
25
 62
     7
100
AcDbCircle
 10
1514.156031
 20
740.004368
 40
3.0
100
AcDbArc
 50
270.0
 51
370.424385
  0
ARC
  5
2FE
100
AcDbEntity
  8
M1
  6
CONTINUOUS
370
25
 62
     7
100
AcDbCircle
 10
1410.889338
 20
721.00446
 40
107.999939
100
AcDbArc
 50
10.425172
 51
19.224157
  0
ARC
  5
2FF
100
AcDbEntity
  8
M1
  6
CONTINUOUS
370
25
 62
     7
100
AcDbCircle
 10
1510.034235
 20
755.577275
 40
2.99999
100
AcDbArc
 50
19.224197
 51
112.500473
  0
ARC
  5
300
100
AcDbEntity
  8
M1
  6
CONTINUOUS
370
25
 62
     7
100
AcDbCircle
 10
1482.889338
 20
742.004368
 40
5.000001
100
AcDbArc
 50
196.260132
 51
270.0
  0
ARC
  5
301
100
AcDbEntity
  8
M1
  6
CONTINUOUS
370
25
 62
     7
100
AcDbCircle
 10
1505.442026
 20
766.663884
 40
3.000075
100
AcDbArc
 50
292.500488
 51
385.774986
  0
ARC
  5
302
100
AcDbEntity
  8
M1
  6
CONTINUOUS
370
25
 62
     7
100
AcDbCircle
 10
1410.889338
 20
721.00446
 40
108.000031
100
AcDbArc
 50
25.775816
 51
34.574624
  0
ARC
  5
303
100
AcDbEntity
  8
M1
  6
CONTINUOUS
370
25
 62
     7
100
AcDbCircle
 10
1497.344935
 20
780.590001
 40
3.000005
100
AcDbArc
 50
34.573528
 51
135.000416
  0
ARC
  5
304
100
AcDbEntity
  8
M1
  6
CONTINUOUS
370
25
 62
     7
100
AcDbCircle
 10
1476.650324
 20
757.066777
 40
5.000005
100
AcDbArc
 50
134.999252
 51
208.73912
  0
ARC
  5
305
100
AcDbEntity
  8
M1
  6
CONTINUOUS
370
25
 62
     7
100
AcDbCircle
 10
1480.771631
 20
642.636876
 40
9.999978
100
AcDbArc
 50
225.000427
 51
311.724312
  0
ARC
  5
306
100
AcDbEntity
  8
M1
  6
CONTINUOUS
370
25
 62
     7
100
AcDbCircle
 10
1410.889338
 20
721.00446
 40
115.000038
100
AcDbArc
 50
311.724152
 51
318.275807
  0
ARC
  5
307
100
AcDbEntity
  8
M1
  6
CONTINUOUS
370
25
 62
     7
100
AcDbCircle
 10
1489.256937
 20
651.122288
 40
9.999988
100
AcDbArc
 50
318.275269
 51
405.000305
  0
ARC
  5
308
100
AcDbEntity
  8
M1
  6
CONTINUOUS
370
25
 62
     7
100
AcDbCircle
 10
1497.344935
 20
661.418858
 40
3.000046
100
AcDbArc
 50
225.001236
 51
325.423874
  0
ARC
  5
309
100
AcDbEntity
  8
M1
  6
CONTINUOUS
370
25
 62
     7
100
AcDbCircle
 10
1410.889338
 20
721.00446
 40
108.000038
100
AcDbArc
 50
325.425171
 51
334.224155
  0
ARC
  5
30A
100
AcDbEntity
  8
M1
  6
CONTINUOUS
370
25
 62
     7
100
AcDbCircle
 10
1505.442026
 20
675.345158
 40
3.000019
100
AcDbArc
 50
334.22345
 51
427.498856
  0
ARC
  5
30B
100
AcDbEntity
  8
M1
  6
CONTINUOUS
370
25
 62
     7
100
AcDbCircle
 10
1476.650232
 20
684.94196
 40
5.000005
100
AcDbArc
 50
151.26088
 51
224.999878
  0
ARC
  5
30C
100
AcDbEntity
  8
M1
  6
CONTINUOUS
370
25
 62
     7
100
AcDbCircle
 10
1510.034327
 20
686.431675
 40
3.000034
100
AcDbArc
 50
247.501404
 51
340.775795
  0
ARC
  5
30D
100
AcDbEntity
  8
M1
  6
CONTINUOUS
370
25
 62
     7
100
AcDbCircle
 10
1410.889338
 20
721.00446
 40
108.000061
100
AcDbArc
 50
340.775787
 51
349.574628
  0
ARC
  5
30E
100
AcDbEntity
  8
M1
  6
CONTINUOUS
370
25
 62
     7
100
AcDbCircle
 10
1514.155924
 20
702.00446
 40
3.00005
100
AcDbArc
 50
349.572174
 51
450.0
  0
ARC
  5
30F
100
AcDbEntity
  8
M1
  6
CONTINUOUS
370
25
 62
     7
100
AcDbCircle
 10
1482.889338
 20
700.004368
 40
5.0
100
AcDbArc
 50
90.0
 51
163.739876
  0
ARC
  5
310
100
AcDbEntity
  8
M1
  6
CONTINUOUS
370
25
 62
     7
100
AcDbCircle
 10
1404.889338
 20
616.175877
 40
10.0
100
AcDbArc
 50
180.0
 51
266.724258
  0
ARC
  5
311
100
AcDbEntity
  8
M1
  6
CONTINUOUS
370
25
 62
     7
100
AcDbCircle
 10
1410.889338
 20
721.00446
 40
114.999985
100
AcDbArc
 50
266.724121
 51
273.275801
  0
ARC
  5
312
100
AcDbEntity
  8
M1
  6
CONTINUOUS
370
25
 62
     7
100
AcDbCircle
 10
1416.889429
 20
616.17606
 40
10.000011
100
AcDbArc
 50
273.275635
 51
360.0
  0
ARC
  5
313
100
AcDbEntity
  8
M1
  6
CONTINUOUS
370
25
 62
     7
100
AcDbCircle
 10
1429.889231
 20
617.737767
 40
3.0
100
AcDbArc
 50
180.0
 51
280.424095
  0
ARC
  5
314
100
AcDbEntity
  8
M1
  6
CONTINUOUS
370
25
 62
     7
100
AcDbCircle
 10
1410.889338
 20
721.00446
 40
108.000061
100
AcDbArc
 50
280.425201
 51
289.224211
  0
ARC
  5
315
100
AcDbEntity
  8
M1
  6
CONTINUOUS
370
25
 62
     7
100
AcDbCircle
 10
1445.462229
 20
621.859562
 40
2.999995
100
AcDbArc
 50
289.224457
 51
382.499512
  0
ARC
  5
316
100
AcDbEntity
  8
M1
  6
CONTINUOUS
370
25
 62
     7
100
AcDbCircle
 10
1431.889231
 20
649.00446
 40
4.999928
100
AcDbArc
 50
106.260376
 51
180.0
  0
ARC
  5
317
100
AcDbEntity
  8
M1
  6
CONTINUOUS
370
25
 62
     7
100
AcDbCircle
 10
1456.548731
 20
626.451664
 40
2.99999
100
AcDbArc
 50
202.501144
 51
295.776802
  0
ARC
  5
318
100
AcDbEntity
  8
M1
  6
CONTINUOUS
370
25
 62
     7
100
AcDbCircle
 10
1410.889338
 20
721.00446
 40
108.000046
100
AcDbArc
 50
295.775848
 51
304.574647
  0
ARC
  5
319
100
AcDbEntity
  8
M1
  6
CONTINUOUS
370
25
 62
     7
100
AcDbCircle
 10
1470.474833
 20
634.548863
 40
2.99994
100
AcDbArc
 50
304.572266
 51
405.000221
  0
ARC
  5
31A
100
AcDbEntity
  8
M1
  6
CONTINUOUS
370
25
 62
     7
100
AcDbCircle
 10
1446.951731
 20
655.243473
 40
4.999951
100
AcDbArc
 50
44.999878
 51
118.740547
  0
ARC
  5
31B
100
AcDbEntity
  8
M1
  6
CONTINUOUS
370
25
 62
     7
100
AcDbCircle
 10
1332.521845
 20
651.122074
 40
10.000054
100
AcDbArc
 50
135.0
 51
221.72374
  0
ARC
  5
31C
100
AcDbEntity
  8
M1
  6
CONTINUOUS
370
25
 62
     7
100
AcDbCircle
 10
1410.889338
 20
721.00446
 40
114.999992
100
AcDbArc
 50
221.724167
 51
228.27582
  0
ARC
  5
31D
100
AcDbEntity
  8
M1
  6
CONTINUOUS
370
25
 62
     7
100
AcDbCircle
 10
1341.007136
 20
642.636784
 40
9.999988
100
AcDbArc
 50
228.275269
 51
315.000366
  0
ARC
  5
31E
100
AcDbEntity
  8
M1
  6
CONTINUOUS
370
25
 62
     7
100
AcDbCircle
 10
1351.303644
 20
634.548863
 40
2.999982
100
AcDbArc
 50
135.0
 51
235.424835
  0
ARC
  5
31F
100
AcDbEntity
  8
M1
  6
CONTINUOUS
370
25
 62
     7
100
AcDbCircle
 10
1410.889338
 20
721.00446
 40
108.000061
100
AcDbArc
 50
235.425232
 51
244.224189
  0
ARC
  5
320
100
AcDbEntity
  8
M1
  6
CONTINUOUS
370
25
 62
     7
100
AcDbCircle
 10
1365.230036
 20
626.451664
 40
2.999991
100
AcDbArc
 50
244.22319
 51
337.500999
  0
ARC
  5
321
100
AcDbEntity
  8
M1
  6
CONTINUOUS
370
25
 62
     7
100
AcDbCircle
 10
1374.826838
 20
655.243565
 40
5.000049
100
AcDbArc
 50
61.259956
 51
134.999748
  0
ARC
  5
322
100
AcDbEntity
  8
M1
  6
CONTINUOUS
370
25
 62
     7
100
AcDbCircle
 10
1376.316645
 20
621.859471
 40
3.000068
100
AcDbArc
 50
157.501358
 51
250.775826
  0
ARC
  5
323
100
AcDbEntity
  8
M1
  6
CONTINUOUS
370
25
 62
     7
100
AcDbCircle
 10
1410.889338
 20
721.00446
 40
108.000031
100
AcDbArc
 50
250.775848
 51
259.574689
  0
ARC
  5
324
100
AcDbEntity
  8
M1
  6
CONTINUOUS
370
25
 62
     7
100
AcDbCircle
 10
1391.889338
 20
617.737858
 40
3.000004
100
AcDbArc
 50
259.573792
 51
360.0
  0
ARC
  5
325
100
AcDbEntity
  8
M1
  6
CONTINUOUS
370
25
 62
     7
100
AcDbCircle
 10
1389.889216
 20
649.00446
 40
5.0
100
AcDbArc
 50
0.0
 51
73.739586
  0
ARC
  5
326
100
AcDbEntity
  8
M1
  6
CONTINUOUS
370
25
 62
     7
100
AcDbCircle
 10
1306.060816
 20
727.004368
 40
10.0
100
AcDbArc
 50
90.0
 51
176.724274
  0
ARC
  5
327
100
AcDbEntity
  8
M1
  6
CONTINUOUS
370
25
 62
     7
100
AcDbCircle
 10
1410.889338
 20
721.00446
 40
115.000015
100
AcDbArc
 50
176.724136
 51
183.275806
  0
ARC
  5
328
100
AcDbEntity
  8
M1
  6
CONTINUOUS
370
25
 62
     7
100
AcDbCircle
 10
1306.060816
 20
715.004277
 40
10.000012
100
AcDbArc
 50
183.275726
 51
270.0
  0
ARC
  5
329
100
AcDbEntity
  8
M1
  6
CONTINUOUS
370
25
 62
     7
100
AcDbCircle
 10
1307.622645
 20
702.004582
 40
3.0
100
AcDbArc
 50
90.0
 51
190.426102
  0
ARC
  5
32A
100
AcDbEntity
  8
M1
  6
CONTINUOUS
370
25
 62
     7
100
AcDbCircle
 10
1410.889338
 20
721.00446
 40
107.999969
100
AcDbArc
 50
190.425201
 51
199.224197
  0
ARC
  5
32B
100
AcDbEntity
  8
M1
  6
CONTINUOUS
370
25
 62
     7
100
AcDbCircle
 10
1311.74444
 20
686.431584
 40
3.0
100
AcDbArc
 50
199.224747
 51
292.500473
  0
ARC
  5
32C
100
AcDbEntity
  8
M1
  6
CONTINUOUS
370
25
 62
     7
100
AcDbCircle
 10
1338.889338
 20
700.00446
 40
4.999995
100
AcDbArc
 50
16.260513
 51
90.0
  0
ARC
  5
32D
100
AcDbEntity
  8
M1
  6
CONTINUOUS
370
25
 62
     7
100
AcDbCircle
 10
1316.336634
 20
675.344975
 40
2.99999
100
AcDbArc
 50
112.501144
 51
205.77655
  0
ARC
  5
32E
100
AcDbEntity
  8
M1
  6
CONTINUOUS
370
25
 62
     7
100
AcDbCircle
 10
1410.889338
 20
721.00446
 40
107.999992
100
AcDbArc
 50
205.775864
 51
214.5747
  0
ARC
  5
32F
100
AcDbEntity
  8
M1
  6
CONTINUOUS
370
25
 62
     7
100
AcDbCircle
 10
1324.433741
 20
661.41898
 40
2.999942
100
AcDbArc
 50
214.574356
 51
314.999588
  0
ARC
  5
330
100
AcDbEntity
  8
M1
  6
CONTINUOUS
370
25
 62
     7
100
AcDbCircle
 10
1345.128321
 20
684.942082
 40
5.000049
100
AcDbArc
 50
315.000732
 51
388.739868
  0
ARC
  5
331
100
AcDbEntity
  8
M1
  6
CONTINUOUS
370
25
 62
     7
100
AcDbCircle
 10
1410.889338
 20
721.00446
 40
69.999992
100
AcDbArc
 50
61.260105
 51
73.73963
  0
ARC
  5
332
100
AcDbEntity
  8
M1
  6
CONTINUOUS
370
25
 62
     7
100
AcDbCircle
 10
1410.889338
 20
721.00446
 40
70.000015
100
AcDbArc
 50
106.260124
 51
118.739714
  0
ARC
  5
333
100
AcDbEntity
  8
M1
  6
CONTINUOUS
370
25
 62
     7
100
AcDbCircle
 10
1410.889338
 20
721.00446
 40
69.999947
100
AcDbArc
 50
16.260067
 51
28.739622
  0
ARC
  5
334
100
AcDbEntity
  8
M1
  6
CONTINUOUS
370
25
 62
     7
100
AcDbCircle
 10
1410.889338
 20
721.00446
 40
69.999992
100
AcDbArc
 50
331.260101
 51
343.739716
  0
ARC
  5
335
100
AcDbEntity
  8
M1
  6
CONTINUOUS
370
25
 62
     7
100
AcDbCircle
 10
1410.889338
 20
721.00446
 40
70.000046
100
AcDbArc
 50
286.260101
 51
298.739675
  0
ARC
  5
336
100
AcDbEntity
  8
M1
  6
CONTINUOUS
370
25
 62
     7
100
AcDbCircle
 10
1410.889338
 20
721.00446
 40
70.000008
100
AcDbArc
 50
196.260178
 51
208.739702
  0
ARC
  5
337
100
AcDbEntity
  8
M1
  6
CONTINUOUS
370
25
 62
     7
100
AcDbCircle
 10
1410.889338
 20
721.00446
 40
125.000023
100
AcDbArc
 50
233.919083
 51
244.38943
  0
ARC
  5
338
100
AcDbEntity
  8
M1
  6
CONTINUOUS
370
25
 62
     7
100
AcDbCircle
 10
1355.128718
 20
604.678471
 40
3.999995
100
AcDbArc
 50
337.500488
 51
424.389397
  0
ARC
  5
339
100
AcDbEntity
  8
M1
  6
CONTINUOUS
370
25
 62
     7
100
AcDbCircle
 10
1351.488245
 20
595.88947
 40
3.999999
100
AcDbArc
 50
244.602112
 51
337.500313
  0
CIRCLE
  5
33A
100
AcDbEntity
  8
M1
  6
CONTINUOUS
370
25
 62
     7
100
AcDbCircle
 10
1410.889338
 20
721.00446
 40
142.5
  0
ARC
  5
33B
100
AcDbEntity
  8
M1
  6
CONTINUOUS
370
25
 62
     7
100
AcDbCircle
 10
1328.123743
 20
609.954472
 40
4.000048
100
AcDbArc
 50
135.001236
 51
233.30172
  0
ARC
  5
33C
100
AcDbEntity
  8
M1
  6
CONTINUOUS
370
25
 62
     7
100
AcDbCircle
 10
1334.917627
 20
616.748478
 40
3.999964
100
AcDbArc
 50
53.918633
 51
135.0
  0
ARC
  5
33D
100
AcDbEntity
  8
M1
  6
CONTINUOUS
370
25
 62
     7
100
AcDbCircle
 10
1410.889338
 20
721.00446
 40
124.999931
100
AcDbArc
 50
53.919006
 51
64.389387
  0
ARC
  5
33E
100
AcDbEntity
  8
M1
  6
CONTINUOUS
370
25
 62
     7
100
AcDbCircle
 10
1466.649927
 20
837.330357
 40
3.999967
100
AcDbArc
 50
157.50032
 51
244.388634
  0
ARC
  5
33F
100
AcDbEntity
  8
M1
  6
CONTINUOUS
370
25
 62
     7
100
AcDbCircle
 10
1470.29043
 20
846.119358
 40
3.999999
100
AcDbArc
 50
64.602112
 51
157.500313
  0
ARC
  5
340
100
AcDbEntity
  8
M1
  6
CONTINUOUS
370
25
 62
     7
100
AcDbCircle
 10
1493.654932
 20
832.054356
 40
3.999961
100
AcDbArc
 50
315.001862
 51
413.303207
  0
ARC
  5
341
100
AcDbEntity
  8
M1
  6
CONTINUOUS
370
25
 62
     7
100
AcDbCircle
 10
1486.861033
 20
825.26035
 40
3.99993
100
AcDbArc
 50
233.918549
 51
315.000305
  0
ARC
  5
342
100
AcDbEntity
  8
M1
  6
CONTINUOUS
370
25
 62
     7
100
AcDbCircle
 10
1410.889338
 20
721.00446
 40
124.999977
100
AcDbArc
 50
295.610565
 51
306.080907
  0
ARC
  5
343
100
AcDbEntity
  8
M1
  6
CONTINUOUS
370
25
 62
     7
100
AcDbCircle
 10
1466.649927
 20
604.678471
 40
3.999983
100
AcDbArc
 50
115.610611
 51
202.49968
  0
ARC
  5
344
100
AcDbEntity
  8
M1
  6
CONTINUOUS
370
25
 62
     7
100
AcDbCircle
 10
1470.29043
 20
595.88947
 40
3.999967
100
AcDbArc
 50
202.49968
 51
295.397881
  0
ARC
  5
345
100
AcDbEntity
  8
M1
  6
CONTINUOUS
370
25
 62
     7
100
AcDbCircle
 10
1493.654932
 20
609.954472
 40
4.000003
100
AcDbArc
 50
306.69809
 51
404.999054
  0
ARC
  5
346
100
AcDbEntity
  8
M1
  6
CONTINUOUS
370
25
 62
     7
100
AcDbCircle
 10
1486.861033
 20
616.748478
 40
3.999961
100
AcDbArc
 50
45.0
 51
126.081192
  0
ARC
  5
347
100
AcDbEntity
  8
M1
  6
CONTINUOUS
370
25
 62
     7
100
AcDbCircle
 10
1410.889338
 20
721.00446
 40
125.000023
100
AcDbArc
 50
177.761139
 51
182.23872
  0
ARC
  5
348
100
AcDbEntity
  8
M1
  6
CONTINUOUS
370
25
 62
     7
100
AcDbCircle
 10
1271.478937
 20
726.004765
 40
3.0
100
AcDbArc
 50
90.0
 51
177.946228
  0
ARC
  5
349
100
AcDbEntity
  8
M1
  6
CONTINUOUS
370
25
 62
     7
100
AcDbCircle
 10
1282.987024
 20
726.004765
 40
3.000001
100
AcDbArc
 50
357.761322
 51
450.0
  0
ARC
  5
34A
100
AcDbEntity
  8
M1
  6
CONTINUOUS
370
25
 62
     7
100
AcDbCircle
 10
1271.478937
 20
716.004368
 40
3.000034
100
AcDbArc
 50
182.053192
 51
270.0
  0
ARC
  5
34B
100
AcDbEntity
  8
M1
  6
CONTINUOUS
370
25
 62
     7
100
AcDbCircle
 10
1282.987024
 20
716.004368
 40
3.0
100
AcDbArc
 50
270.0
 51
362.239265
  0
ARC
  5
34C
100
AcDbEntity
  8
M1
  6
CONTINUOUS
370
25
 62
     7
100
AcDbCircle
 10
1538.791727
 20
726.004765
 40
3.0
100
AcDbArc
 50
90.0
 51
182.238625
  0
ARC
  5
34D
100
AcDbEntity
  8
M1
  6
CONTINUOUS
370
25
 62
     7
100
AcDbCircle
 10
1410.889338
 20
721.00446
 40
125.0
100
AcDbArc
 50
357.761292
 51
362.238831
  0
ARC
  5
34E
100
AcDbEntity
  8
M1
  6
CONTINUOUS
370
25
 62
     7
100
AcDbCircle
 10
1538.791727
 20
716.004368
 40
3.000086
100
AcDbArc
 50
177.760788
 51
270.0
  0
ARC
  5
34F
100
AcDbEntity
  8
M1
  6
CONTINUOUS
370
25
 62
     7
100
AcDbCircle
 10
1550.29973
 20
716.004368
 40
3.0
100
AcDbArc
 50
270.0
 51
357.946808
  0
ARC
  5
350
100
AcDbEntity
  8
M1
  6
CONTINUOUS
370
25
 62
     7
100
AcDbCircle
 10
1550.29973
 20
726.004765
 40
3.000027
100
AcDbArc
 50
2.053776
 51
90.0
  0
CIRCLE
  5
351
100
AcDbEntity
  8
M1
  6
CONTINUOUS
370
25
 62
     7
100
AcDbCircle
 10
1410.889338
 20
721.00446
 40
197.5
  0
ARC
  5
352
100
AcDbEntity
  8
M1
  6
CONTINUOUS
370
25
 62
     7
100
AcDbCircle
 10
336.835138
 20
721.00446
 40
70.000023
100
AcDbArc
 50
331.260315
 51
343.739801
  0
ARC
  5
353
100
AcDbEntity
  8
M1
  6
CONTINUOUS
370
25
 62
     7
100
AcDbCircle
 10
1410.889338
 20
721.00446
 40
70.000008
100
AcDbArc
 50
241.260086
 51
253.739718
  0
ARC
  5
354
100
AcDbEntity
  8
M1
  6
CONTINUOUS
370
25
 62
     7
100
AcDbCircle
 10
1440.568827
 20
935.395298
 40
6.999914
100
AcDbArc
 50
79.999298
 51
170.000725
  0
ARC
  5
355
100
AcDbEntity
  8
M1
  6
CONTINUOUS
370
25
 62
     7
100
AcDbCircle
 10
1456.325724
 20
932.616856
 40
7.000038
100
AcDbArc
 50
350.000732
 51
439.999542
  0
ARC
  5
356
100
AcDbEntity
  8
M1
  6
CONTINUOUS
370
25
 62
     7
100
AcDbCircle
 10
1381.209833
 20
935.395298
 40
6.999918
100
AcDbArc
 50
9.999428
 51
99.999962
  0
ARC
  5
357
100
AcDbEntity
  8
M1
  6
CONTINUOUS
370
25
 62
     7
100
AcDbCircle
 10
1365.452936
 20
932.616856
 40
7.000078
100
AcDbArc
 50
99.999702
 51
189.999382
  0
ARC
  5
358
100
AcDbEntity
  8
M1
  6
CONTINUOUS
370
25
 62
     7
100
AcDbCircle
 10
382.27215
 20
932.616856
 40
6.999286
100
AcDbArc
 50
349.999664
 51
440.00473
  0
ARC
  5
359
100
AcDbEntity
  8
M1
  6
CONTINUOUS
370
25
 62
     7
100
AcDbCircle
 10
366.51507
 20
935.395298
 40
6.999993
100
AcDbArc
 50
79.995605
 51
170.001045
  0
ARC
  5
35A
100
AcDbEntity
  8
M1
  6
CONTINUOUS
370
25
 62
     7
100
AcDbCircle
 10
291.399103
 20
932.616856
 40
7.000153
100
AcDbArc
 50
100.003143
 51
189.998947
  0
ARC
  5
35B
100
AcDbEntity
  8
M1
  6
CONTINUOUS
370
25
 62
     7
100
AcDbCircle
 10
307.156183
 20
935.395298
 40
7.000248
100
AcDbArc
 50
9.998951
 51
100.004215
  0
CIRCLE
  5
35C
100
AcDbEntity
  8
M1
  6
CONTINUOUS
370
25
 62
     7
100
AcDbCircle
 10
430.835138
 20
883.817173
 40
8.5
  0
CIRCLE
  5
35D
100
AcDbEntity
  8
M1
  6
CONTINUOUS
370
25
 62
     7
100
AcDbCircle
 10
242.835138
 20
883.817295
 40
8.5
  0
CIRCLE
  5
35E
100
AcDbEntity
  8
M1
  6
CONTINUOUS
370
25
 62
     7
100
AcDbCircle
 10
148.835138
 20
721.00446
 40
8.5
  0
CIRCLE
  5
35F
100
AcDbEntity
  8
M1
  6
CONTINUOUS
370
25
 62
     7
100
AcDbCircle
 10
242.835138
 20
558.191685
 40
8.5
  0
CIRCLE
  5
360
100
AcDbEntity
  8
M1
  6
CONTINUOUS
370
25
 62
     7
100
AcDbCircle
 10
430.835138
 20
558.191685
 40
8.5
  0
CIRCLE
  5
361
100
AcDbEntity
  8
M1
  6
CONTINUOUS
370
25
 62
     7
100
AcDbCircle
 10
524.835138
 20
721.00446
 40
8.5
  0
ARC
  5
362
100
AcDbEntity
  8
M1
  6
CONTINUOUS
370
25
 62
     7
100
AcDbCircle
 10
816.348322
 20
728.878971
 40
4.999997
100
AcDbArc
 50
184.303329
 51
215.093096
  0
ARC
  5
363
100
AcDbEntity
  8
M1
  6
CONTINUOUS
370
25
 62
     7
100
AcDbCircle
 10
816.348322
 20
713.129887
 40
4.999998
100
AcDbArc
 50
144.906326
 51
175.696665
  0
ARC
  5
364
100
AcDbEntity
  8
M1
  6
CONTINUOUS
370
25
 62
     7
100
AcDbCircle
 10
816.348322
 20
550.317082
 40
5.000015
100
AcDbArc
 50
144.906052
 51
175.69528
  0
ARC
  5
365
100
AcDbEntity
  8
M1
  6
CONTINUOUS
370
25
 62
     7
100
AcDbCircle
 10
816.348322
 20
566.066288
 40
5.000006
100
AcDbArc
 50
184.304718
 51
215.093946
  0
ARC
  5
366
100
AcDbEntity
  8
M1
  6
CONTINUOUS
370
25
 62
     7
100
AcDbCircle
 10
816.348322
 20
916.879002
 40
5.000001
100
AcDbArc
 50
184.304031
 51
215.0931
  0
ARC
  5
367
100
AcDbEntity
  8
M1
  6
CONTINUOUS
370
25
 62
     7
100
AcDbCircle
 10
816.348322
 20
901.129856
 40
5.000033
100
AcDbArc
 50
144.905762
 51
175.695974
  0
ARC
  5
368
100
AcDbEntity
  8
M1
  6
CONTINUOUS
370
25
 62
     7
100
AcDbCircle
 10
855.362421
 20
936.50449
 40
7.0
100
AcDbArc
 50
90.0
 51
180.0
  0
ARC
  5
369
100
AcDbEntity
  8
M1
  6
CONTINUOUS
370
25
 62
     7
100
AcDbCircle
 10
887.362421
 20
936.50449
 40
7.0
100
AcDbArc
 50
0.0
 51
90.0
  0
SPLINE
  5
36A
100
AcDbEntity
  8
M1
  6
CONTINUOUS
370
25
 62
     7
100
AcDbSpline
210
0.0
220
0.0
230
-1.0
 70
     8
 71
     3
 72
    11
 73
     7
 43
0.0000001
 40
0.0
 40
0.0
 40
0.0
 40
0.0
 40
1.0
 40
1.0
 40
1.0
 40
2.0
 40
2.0
 40
2.0
 40
2.0
 10
788.988215
 20
805.00449
 10
788.273249
 20
803.099339
 10
787.862482
 20
801.051915
 10
787.862482
 20
799.00449
 10
787.862543
 20
796.957066
 10
788.27331
 20
794.909642
 10
788.988276
 20
793.00449
  0
SPLINE
  5
36B
100
AcDbEntity
  8
M1
  6
CONTINUOUS
370
25
 62
     7
100
AcDbSpline
210
0.0
220
0.0
230
-1.0
 70
     8
 71
     3
 72
    11
 73
     7
 43
0.0000001
 40
0.0
 40
0.0
 40
0.0
 40
0.0
 40
1.0
 40
1.0
 40
1.0
 40
2.0
 40
2.0
 40
2.0
 40
2.0
 10
788.988215
 20
883.00449
 10
788.273249
 20
881.099339
 10
787.862482
 20
879.051915
 10
787.862482
 20
877.00449
 10
787.862543
 20
874.957066
 10
788.27331
 20
872.909642
 10
788.988276
 20
871.00449
  0
SPLINE
  5
36C
100
AcDbEntity
  8
M1
  6
CONTINUOUS
370
25
 62
     7
100
AcDbSpline
210
0.0
220
0.0
230
-1.0
 70
     8
 71
     3
 72
    11
 73
     7
 43
0.0000001
 40
0.0
 40
0.0
 40
0.0
 40
0.0
 40
1.0
 40
1.0
 40
1.0
 40
2.0
 40
2.0
 40
2.0
 40
2.0
 10
788.988215
 20
559.00446
 10
788.273249
 20
560.909642
 10
787.862482
 20
562.957035
 10
787.862482
 20
565.00446
 10
787.862543
 20
567.051884
 10
788.27331
 20
569.099278
 10
788.988276
 20
571.00446
  0
SPLINE
  5
36D
100
AcDbEntity
  8
M1
  6
CONTINUOUS
370
25
 62
     7
100
AcDbSpline
210
0.0
220
0.0
230
-1.0
 70
     8
 71
     3
 72
    11
 73
     7
 43
0.0000001
 40
0.0
 40
0.0
 40
0.0
 40
0.0
 40
1.0
 40
1.0
 40
1.0
 40
2.0
 40
2.0
 40
2.0
 40
2.0
 10
788.988215
 20
637.00446
 10
788.273249
 20
638.909642
 10
787.862482
 20
640.957035
 10
787.862482
 20
643.00446
 10
787.862543
 20
645.051884
 10
788.27331
 20
647.099278
 10
788.988276
 20
649.00446
  0
SPLINE
  5
36E
100
AcDbEntity
  8
M1
  6
CONTINUOUS
370
25
 62
     7
100
AcDbSpline
210
0.0
220
0.0
230
-1.0
 70
     8
 71
     3
 72
    11
 73
     7
 43
0.0000001
 40
0.0
 40
0.0
 40
0.0
 40
0.0
 40
1.0
 40
1.0
 40
1.0
 40
2.0
 40
2.0
 40
2.0
 40
2.0
 10
953.736628
 20
883.00449
 10
954.451594
 20
881.099339
 10
954.862421
 20
879.051915
 10
954.862421
 20
877.00449
 10
954.862421
 20
874.957066
 10
954.451594
 20
872.909642
 10
953.736628
 20
871.00449
  0
SPLINE
  5
36F
100
AcDbEntity
  8
M1
  6
CONTINUOUS
370
25
 62
     7
100
AcDbSpline
210
0.0
220
0.0
230
-1.0
 70
     8
 71
     3
 72
    11
 73
     7
 43
0.0000001
 40
0.0
 40
0.0
 40
0.0
 40
0.0
 40
1.0
 40
1.0
 40
1.0
 40
2.0
 40
2.0
 40
2.0
 40
2.0
 10
953.736628
 20
805.00449
 10
954.451594
 20
803.099339
 10
954.862421
 20
801.051915
 10
954.862421
 20
799.00449
 10
954.862421
 20
796.957066
 10
954.451594
 20
794.909642
 10
953.736628
 20
793.00449
  0
SPLINE
  5
370
100
AcDbEntity
  8
M1
  6
CONTINUOUS
370
25
 62
     7
100
AcDbSpline
210
0.0
220
0.0
230
-1.0
 70
     8
 71
     3
 72
    11
 73
     7
 43
0.0000001
 40
0.0
 40
0.0
 40
0.0
 40
0.0
 40
1.0
 40
1.0
 40
1.0
 40
2.0
 40
2.0
 40
2.0
 40
2.0
 10
953.736628
 20
559.00446
 10
954.451594
 20
560.909642
 10
954.862421
 20
562.957035
 10
954.862421
 20
565.00446
 10
954.862421
 20
567.051884
 10
954.451594
 20
569.099278
 10
953.736628
 20
571.00446
  0
SPLINE
  5
371
100
AcDbEntity
  8
M1
  6
CONTINUOUS
370
25
 62
     7
100
AcDbSpline
210
0.0
220
0.0
230
-1.0
 70
     8
 71
     3
 72
    11
 73
     7
 43
0.0000001
 40
0.0
 40
0.0
 40
0.0
 40
0.0
 40
1.0
 40
1.0
 40
1.0
 40
2.0
 40
2.0
 40
2.0
 40
2.0
 10
953.736628
 20
637.00446
 10
954.451594
 20
638.909642
 10
954.862421
 20
640.957035
 10
954.862421
 20
643.00446
 10
954.862421
 20
645.051884
 10
954.451594
 20
647.099278
 10
953.736628
 20
649.00446
  0
SPLINE
  5
372
100
AcDbEntity
  8
M1
  6
CONTINUOUS
370
25
 62
     7
100
AcDbSpline
210
0.0
220
0.0
230
-1.0
 70
     8
 71
     3
 72
    11
 73
     7
 43
0.0000001
 40
0.0
 40
0.0
 40
0.0
 40
0.0
 40
1.0
 40
1.0
 40
1.0
 40
2.0
 40
2.0
 40
2.0
 40
2.0
 10
812.257258
 20
726.00446
 10
811.686701
 20
724.410344
 10
811.362421
 20
722.707402
 10
811.362421
 20
721.00446
 10
811.362421
 20
719.301518
 10
811.68664
 20
717.598576
 10
812.257258
 20
716.00446
  0
SPLINE
  5
373
100
AcDbEntity
  8
M1
  6
CONTINUOUS
370
25
 62
     7
100
AcDbSpline
210
0.0
220
0.0
230
-1.0
 70
     8
 71
     3
 72
    11
 73
     7
 43
0.0000001
 40
0.0
 40
0.0
 40
0.0
 40
0.0
 40
1.0
 40
1.0
 40
1.0
 40
2.0
 40
2.0
 40
2.0
 40
2.0
 10
812.257258
 20
553.191685
 10
811.686701
 20
554.785801
 10
811.362421
 20
556.488743
 10
811.362421
 20
558.191685
 10
811.362421
 20
559.894627
 10
811.68664
 20
561.597569
 10
812.257258
 20
563.191685
  0
SPLINE
  5
374
100
AcDbEntity
  8
M1
  6
CONTINUOUS
370
25
 62
     7
100
AcDbSpline
210
0.0
220
0.0
230
-1.0
 70
     8
 71
     3
 72
    11
 73
     7
 43
0.0000001
 40
0.0
 40
0.0
 40
0.0
 40
0.0
 40
1.0
 40
1.0
 40
1.0
 40
2.0
 40
2.0
 40
2.0
 40
2.0
 10
812.257258
 20
914.00449
 10
811.686701
 20
912.410374
 10
811.362421
 20
910.707432
 10
811.362421
 20
909.00449
 10
811.362421
 20
907.301548
 10
811.68664
 20
905.598606
 10
812.257258
 20
904.00449
  0
TEXT
  5
375
100
AcDbEntity
  8
M1
100
AcDbText
 10
1519.678122
 20
296.858769
 40
18.0
  1
ＰＯＣ－４０
 41
0.713889
  7
STANDARD
100
AcDbText
  0
TEXT
  5
376
100
AcDbEntity
  8
M1
100
AcDbText
 10
318.087179
 20
422.248478
 40
18.0
  1
Ｄ１
 41
0.713889
  7
STANDARD
100
AcDbText
  0
TEXT
  5
377
100
AcDbEntity
  8
M1
100
AcDbText
 10
859.552145
 20
425.31847
 40
18.0
  1
Ｄ２
 41
0.713889
  7
STANDARD
100
AcDbText
  0
TEXT
  5
378
100
AcDbEntity
  8
M1
100
AcDbText
 10
1401.021139
 20
425.31847
 40
18.0
  1
Ｄ３
 41
0.713889
  7
STANDARD
100
AcDbText
  0
TEXT
  5
379
100
AcDbEntity
  8
M1
100
AcDbText
 10
1494.074118
 20
272.535694
 40
18.0
  1
（ＳＤＫ６０１８）
 41
0.713889
  7
STANDARD
100
AcDbText
  0
ARC
  5
37A
100
AcDbEntity
  8
M1
  6
CONTINUOUS
370
25
100
AcDbCircle
 10
1401.186014
 20
934.30283
 40
1.4
100
AcDbArc
 50
100.3855
 51
170.000123
  0
ARC
  5
37B
100
AcDbEntity
  8
M1
  6
CONTINUOUS
370
25
100
AcDbCircle
 10
1417.889338
 20
932.853794
 40
1.999999
100
AcDbArc
 50
180.0
 51
270.0
  0
LINE
  5
37C
100
AcDbEntity
  8
M1
  6
CONTINUOUS
370
25
100
AcDbLine
 10
1413.889338
 20
923.50446
 11
1410.889338
 21
926.50446
  0
ARC
  5
37D
100
AcDbEntity
  8
M1
  6
CONTINUOUS
370
25
100
AcDbCircle
 10
1420.592676
 20
934.30283
 40
1.4
100
AcDbArc
 50
9.999768
 51
79.615114
  0
ARC
  5
37E
100
AcDbEntity
  8
M1
  6
CONTINUOUS
370
25
100
AcDbCircle
 10
1410.889353
 20
972.504444
 40
5.0
100
AcDbArc
 50
0.0
 51
180.0
  0
LINE
  5
37F
100
AcDbEntity
  8
M1
  6
CONTINUOUS
370
25
100
AcDbLine
 10
1410.889338
 20
923.50446
 11
1407.889338
 21
926.50446
  0
ARC
  5
380
100
AcDbEntity
  8
M1
  6
CONTINUOUS
370
25
100
AcDbCircle
 10
1403.889353
 20
932.853794
 40
1.999999
100
AcDbArc
 50
270.0
 51
360.0
  0
ARC
  5
381
100
AcDbEntity
  8
M1
  6
DASHED
370
13
100
AcDbCircle
 10
1410.889353
 20
972.504444
 40
5.0
100
AcDbArc
 50
180.0
 51
360.0
  0
LINE
  5
382
100
AcDbEntity
  8
M1
  6
CONTINUOUS
370
25
100
AcDbLine
 10
1422.889338
 20
921.00446
 11
1398.889338
 21
921.00446
  0
LINE
  5
383
100
AcDbEntity
  8
M1
  6
CONTINUOUS
370
25
100
AcDbLine
 10
1422.889338
 20
918.50446
 11
1422.889338
 21
921.00446
  0
LINE
  5
384
100
AcDbEntity
  8
M1
  6
CONTINUOUS
370
25
100
AcDbLine
 10
1398.889338
 20
918.50446
 11
1422.889338
 21
918.50446
  0
LINE
  5
385
100
AcDbEntity
  8
M1
  6
CONTINUOUS
370
25
100
AcDbLine
 10
1398.889338
 20
921.00446
 11
1398.889338
 21
918.50446
  0
LINE
  5
386
100
AcDbEntity
  8
M1
  6
CONTINUOUS
370
25
100
AcDbLine
 10
1422.889338
 20
923.50446
 11
1398.889338
 21
923.50446
  0
LINE
  5
387
100
AcDbEntity
  8
M1
  6
CONTINUOUS
370
25
100
AcDbLine
 10
1422.889338
 20
921.00446
 11
1422.889338
 21
923.50446
  0
LINE
  5
388
100
AcDbEntity
  8
M1
  6
CONTINUOUS
370
25
100
AcDbLine
 10
1398.889338
 20
921.00446
 11
1422.889338
 21
921.00446
  0
LINE
  5
389
100
AcDbEntity
  8
M1
  6
CONTINUOUS
370
25
100
AcDbLine
 10
1398.889338
 20
923.50446
 11
1398.889338
 21
921.00446
  0
LINE
  5
38A
100
AcDbEntity
  8
M1
  6
CONTINUOUS
370
25
100
AcDbLine
 10
1416.989329
 20
921.50446
 11
1416.889338
 21
921.50446
  0
LINE
  5
38B
100
AcDbEntity
  8
M1
  6
CONTINUOUS
370
25
100
AcDbLine
 10
1398.389353
 20
926.50446
 11
1423.389353
 21
926.50446
  0
LINE
  5
38C
100
AcDbEntity
  8
M1
  6
CONTINUOUS
370
25
100
AcDbLine
 10
1398.389338
 20
926.50446
 11
1399.807291
 21
934.545933
  0
LINE
  5
38D
100
AcDbEntity
  8
M1
  6
CONTINUOUS
370
25
100
AcDbLine
 10
1423.389322
 20
926.50446
 11
1421.971415
 21
934.545933
  0
LINE
  5
38E
100
AcDbEntity
  8
M1
  6
CONTINUOUS
370
25
100
AcDbLine
 10
1405.889353
 20
972.504444
 11
1405.889353
 21
932.853794
  0
LINE
  5
38F
100
AcDbEntity
  8
M1
  6
CONTINUOUS
370
25
100
AcDbLine
 10
1415.889353
 20
932.853794
 11
1415.889353
 21
972.504429
  0
LINE
  5
390
100
AcDbEntity
  8
M1
  6
CONTINUOUS
370
25
100
AcDbLine
 10
1404.889338
 20
921.50446
 11
1404.789316
 21
921.50446
  0
LINE
  5
391
100
AcDbEntity
  8
M1
  6
CONTINUOUS
370
25
100
AcDbLine
 10
1421.639338
 20
926.50446
 11
1400.139338
 21
926.50446
  0
LINE
  5
392
100
AcDbEntity
  8
M1
  6
CONTINUOUS
370
25
100
AcDbLine
 10
1421.639338
 20
923.50446
 11
1421.639338
 21
926.50446
  0
LINE
  5
393
100
AcDbEntity
  8
M1
  6
CONTINUOUS
370
25
100
AcDbLine
 10
1400.139338
 20
923.50446
 11
1421.639338
 21
923.50446
  0
LINE
  5
394
100
AcDbEntity
  8
M1
  6
CONTINUOUS
370
25
100
AcDbLine
 10
1400.139338
 20
926.50446
 11
1400.139338
 21
923.50446
  0
LINE
  5
395
100
AcDbEntity
  8
M1
  6
CONTINUOUS
370
25
100
AcDbLine
 10
1420.845041
 20
935.679905
 11
1415.889353
 21
936.588108
  0
LINE
  5
396
100
AcDbEntity
  8
M1
  6
CONTINUOUS
370
25
100
AcDbLine
 10
1400.933634
 20
935.679905
 11
1405.889353
 21
936.588124
  0
LINE
  5
397
100
AcDbEntity
  8
M1
  6
DASHED
370
13
100
AcDbLine
 10
1415.889353
 20
936.588108
 11
1410.889338
 21
937.50446
  0
LINE
  5
398
100
AcDbEntity
  8
M1
  6
DASHED
370
13
100
AcDbLine
 10
1405.889353
 20
936.588124
 11
1410.889338
 21
937.50446
  0
LINE
  5
399
100
AcDbEntity
  8
M1
  6
CONTINUOUS
370
25
100
AcDbLine
 10
324.835138
 20
921.00446
 11
348.835138
 21
921.00446
  0
LINE
  5
39A
100
AcDbEntity
  8
M1
  6
CONTINUOUS
370
25
100
AcDbLine
 10
324.835138
 20
923.50446
 11
324.835138
 21
921.00446
  0
LINE
  5
39B
100
AcDbEntity
  8
M1
  6
CONTINUOUS
370
25
100
AcDbLine
 10
348.835138
 20
921.00446
 11
324.835138
 21
921.00446
  0
LINE
  5
39C
100
AcDbEntity
  8
M1
  6
CONTINUOUS
370
25
100
AcDbLine
 10
348.835138
 20
918.50446
 11
348.835138
 21
921.00446
  0
LINE
  5
39D
100
AcDbEntity
  8
M1
  6
CONTINUOUS
370
25
100
AcDbLine
 10
339.835138
 20
923.50446
 11
336.835138
 21
926.50446
  0
LINE
  5
39E
100
AcDbEntity
  8
M1
  6
CONTINUOUS
370
25
100
AcDbLine
 10
336.835138
 20
923.50446
 11
333.835138
 21
926.50446
  0
LINE
  5
39F
100
AcDbEntity
  8
M1
  6
CONTINUOUS
370
25
100
AcDbLine
 10
348.835138
 20
923.50446
 11
324.835138
 21
923.50446
  0
LINE
  5
3A0
100
AcDbEntity
  8
M1
  6
CONTINUOUS
370
25
100
AcDbLine
 10
348.835138
 20
921.00446
 11
348.835138
 21
923.50446
  0
ARC
  5
3A1
100
AcDbEntity
  8
M1
  6
CONTINUOUS
370
25
100
AcDbCircle
 10
343.835138
 20
932.853794
 40
1.999999
100
AcDbArc
 50
180.0
 51
270.0
  0
ARC
  5
3A2
100
AcDbEntity
  8
M1
  6
CONTINUOUS
370
25
100
AcDbCircle
 10
329.835154
 20
932.853794
 40
1.999999
100
AcDbArc
 50
270.0
 51
360.0
  0
ARC
  5
3A3
100
AcDbEntity
  8
M1
  6
CONTINUOUS
370
25
100
AcDbCircle
 10
346.538477
 20
934.30283
 40
1.4
100
AcDbArc
 50
9.999768
 51
79.615114
  0
ARC
  5
3A4
100
AcDbEntity
  8
M1
  6
CONTINUOUS
370
25
100
AcDbCircle
 10
327.131815
 20
934.30283
 40
1.4
100
AcDbArc
 50
100.3855
 51
170.000123
  0
LINE
  5
3A5
100
AcDbEntity
  8
M1
  6
CONTINUOUS
370
25
100
AcDbLine
 10
324.835138
 20
918.50446
 11
348.835138
 21
918.50446
  0
LINE
  5
3A6
100
AcDbEntity
  8
M1
  6
CONTINUOUS
370
25
100
AcDbLine
 10
324.835138
 20
921.00446
 11
324.835138
 21
918.50446
  0
ARC
  5
3A7
100
AcDbEntity
  8
M1
  6
DASHED
370
13
100
AcDbCircle
 10
336.835154
 20
972.504444
 40
5.0
100
AcDbArc
 50
180.0
 51
360.0
  0
ARC
  5
3A8
100
AcDbEntity
  8
M1
  6
CONTINUOUS
370
25
100
AcDbCircle
 10
336.835154
 20
972.504444
 40
5.0
100
AcDbArc
 50
0.0
 51
180.0
  0
LINE
  5
3A9
100
AcDbEntity
  8
M1
  6
CONTINUOUS
370
25
100
AcDbLine
 10
342.935129
 20
921.50446
 11
342.835138
 21
921.50446
  0
LINE
  5
3AA
100
AcDbEntity
  8
M1
  6
CONTINUOUS
370
25
100
AcDbLine
 10
324.335154
 20
926.50446
 11
349.335154
 21
926.50446
  0
LINE
  5
3AB
100
AcDbEntity
  8
M1
  6
CONTINUOUS
370
25
100
AcDbLine
 10
324.335138
 20
926.50446
 11
325.753092
 21
934.545933
  0
LINE
  5
3AC
100
AcDbEntity
  8
M1
  6
CONTINUOUS
370
25
100
AcDbLine
 10
349.335123
 20
926.50446
 11
347.917215
 21
934.545933
  0
LINE
  5
3AD
100
AcDbEntity
  8
M1
  6
CONTINUOUS
370
25
100
AcDbLine
 10
331.835154
 20
972.504444
 11
331.835154
 21
932.853794
  0
LINE
  5
3AE
100
AcDbEntity
  8
M1
  6
CONTINUOUS
370
25
100
AcDbLine
 10
341.835154
 20
932.853794
 11
341.835154
 21
972.504429
  0
LINE
  5
3AF
100
AcDbEntity
  8
M1
  6
CONTINUOUS
370
25
100
AcDbLine
 10
330.835138
 20
921.50446
 11
330.735117
 21
921.50446
  0
LINE
  5
3B0
100
AcDbEntity
  8
M1
  6
CONTINUOUS
370
25
100
AcDbLine
 10
347.585138
 20
926.50446
 11
326.085138
 21
926.50446
  0
LINE
  5
3B1
100
AcDbEntity
  8
M1
  6
CONTINUOUS
370
25
100
AcDbLine
 10
347.585138
 20
923.50446
 11
347.585138
 21
926.50446
  0
LINE
  5
3B2
100
AcDbEntity
  8
M1
  6
CONTINUOUS
370
25
100
AcDbLine
 10
326.085138
 20
923.50446
 11
347.585138
 21
923.50446
  0
LINE
  5
3B3
100
AcDbEntity
  8
M1
  6
CONTINUOUS
370
25
100
AcDbLine
 10
326.085138
 20
926.50446
 11
326.085138
 21
923.50446
  0
LINE
  5
3B4
100
AcDbEntity
  8
M1
  6
CONTINUOUS
370
25
100
AcDbLine
 10
346.790842
 20
935.679905
 11
341.835154
 21
936.588108
  0
LINE
  5
3B5
100
AcDbEntity
  8
M1
  6
CONTINUOUS
370
25
100
AcDbLine
 10
326.879435
 20
935.679905
 11
331.835154
 21
936.588124
  0
LINE
  5
3B6
100
AcDbEntity
  8
M1
  6
DASHED
370
13
100
AcDbLine
 10
341.835154
 20
936.588108
 11
336.835138
 21
937.50446
  0
LINE
  5
3B7
100
AcDbEntity
  8
M1
  6
DASHED
370
13
100
AcDbLine
 10
331.835154
 20
936.588124
 11
336.835138
 21
937.50446
  0
ARC
  5
3B8
100
AcDbEntity
  8
M1
  6
CONTINUOUS
370
25
100
AcDbCircle
 10
862.364634
 20
952.50449
 40
25.0
100
AcDbArc
 50
338.899804
 51
595.938082
  0
ARC
  5
3B9
100
AcDbEntity
  8
M1
  6
CONTINUOUS
370
25
100
AcDbCircle
 10
862.364634
 20
952.50449
 40
15.0
100
AcDbArc
 50
323.130102
 51
583.010742
  0
ENDSEC
  0
SECTION
  2
OBJECTS
  0
DICTIONARY
  5
C
100
AcDbDictionary
  3
ACAD_GROUP
350
D
  3
ACAD_MLINESTYLE
350
E
  0
DICTIONARY
  5
D
102
{ACAD_REACTORS
330
C
102
}
100
AcDbDictionary
  0
DICTIONARY
  5
E
102
{ACAD_REACTORS
330
C
102
}
100
AcDbDictionary
  3
STANDARD
350
13
  0
MLINESTYLE
  5
13
102
{ACAD_REACTORS
330
E
102
}
100
AcDbMlineStyle
  2
STANDARD
 70
     0
  3

 62
     0
 51
90.0
 52
90.0
 71
     2
 49
0.5
 62
   256
  6
BYLAYER
 49
-0.5
 62
   256
  6
BYLAYER
  0
ENDSEC
  0
EOF
