  0
SECTION
  2
HEADER
  9
$ACADVER
  1
AC1015
  9
$INSBASE
 10
0.0
 20
0.0
  9
$VIEWCTR
 10
7.531722
 20
4.5
  9
$VIEWSIZE
 40
9.0
  9
$SNAPMODE
 70
     0
  9
$SNAPUNIT
 10
1.0
 20
1.0
  9
$SNAPBASE
 10
0.0
 20
0.0
  9
$SNAPANG
 50
0.0
  9
$SNAPSTYLE
 70
     0
  9
$SNAPISOPAIR
 70
     0
  9
$GRIDMODE
 70
     0
  9
$GRIDUNIT
 10
0.0
 20
0.0
  9
$ORTHOMODE
 70
     0
  9
$REGENMODE
 70
     1
  9
$FILLMODE
 70
     1
  9
$QTEXTMODE
 70
     0
  9
$DRAGMODE
 70
     2
  9
$LTSCALE
 40
1.0
  9
$OSMODE
 70
     0
  9
$ATTMODE
 70
     1
  9
$TEXTSIZE
 40
0.2
  9
$TRACEWID
 40
0.05
  9
$TEXTSTYLE
  7
STANDARD
  9
$CELTYPE
  6
BYLAYER
  9
$CECOLOR
 62
   256
  9
$DIMSCALE
 40
1.0
  9
$DIMASZ
 40
0.18
  9
$DIMEXO
 40
0.0625
  9
$DIMDLI
 40
0.38
  9
$DIMRND
 40
0.0
  9
$DIMDLE
 40
0.0
  9
$DIMEXE
 40
0.18
  9
$DIMTP
 40
0.0
  9
$DIMTM
 40
0.0
  9
$DIMTXT
 40
0.18
  9
$DIMCEN
 40
0.09
  9
$DIMTSZ
 40
0.0
  9
$DIMADEC
 70
     0
  9
$DIMALTRND
 40
0.000000
  9
$DIMAZIN
 70
     0
  9
$DIMDSEP
 70
    46
  9
$DIMATFIT
 70
     3
  9
$DIMFRAC
 70
     0
  9
$DIMLDRBLK
  1

  9
$DIMLUNIT
 70
     2
  9
$DIMLWD
 70
   13
  9
$DIMLWE
 70
   13
  9
$DIMTMOVE
 70
     0
  9
$CELWEIGHT
370
    25
  9
$LWDISPLAY
290
    1
  9
$EXTNAMES
290
    1
  9
$DIMTOL
 70
     0
  9
$DIMLIM
 70
     0
  9
$DIMTIH
 70
     1
  9
$DIMTOH
 70
     1
  9
$DIMSE1
 70
     0
  9
$DIMSE2
 70
     0
  9
$DIMTAD
 70
     0
  9
$DIMZIN
 70
     0
  9
$DIMBLK
  1

  9
$LUNITS
 70
     2
  9
$LUPREC
 70
     4
  9
$AXISMODE
 70
     0
  9
$AXISUNIT
 10
0.0
 20
0.0
  9
$SKETCHINC
 40
0.1
  9
$FILLETRAD
 40
0.0
  9
$AUNITS
 70
     0
  9
$AUPREC
 70
     0
  9
$MENU
  1
ACAD
  9
$ELEVATION
 40
0.0
  9
$THICKNESS
 40
0.0
  9
$VIEWDIR
 10
0.0
 20
0.0
 30
1.0
  9
$LIMCHECK
 70
     0
  9
$BLIPMODE
 70
     1
  9
$CHAMFERA
 40
0.0
  9
$CHAMFERB
 40
0.0
  9
$FASTZOOM
 70
     1
  9
$SKPOLY
 70
     0
  9
$TDCREATE
 40
0000000.0000000000
  9
$TDUPDATE
 40
0000000.0000000000
  9
$TDINDWG
 40
0.0000000000
  9
$TDUSRTIMER
 40
0.0000000000
  9
$USRTIMER
 70
     1
  9
$ANGBASE
 50
0.0
  9
$ANGDIR
 70
     0
  9
$PDMODE
 70
     0
  9
$PDSIZE
 40
0.0
  9
$PLINEWID
 40
0.0
  9
$COORDS
 70
     0
  9
$USERI1
 70
     0
  9
$USERI2
 70
     0
  9
$USERI3
 70
     0
  9
$USERI4
 70
     0
  9
$USERI5
 70
     0
  9
$USERR1
 40
0.0
  9
$USERR2
 40
0.0
  9
$USERR3
 40
0.0
  9
$USERR4
 40
0.0
  9
$USERR5
 40
0.0
  9
$CLAYER
  8
M1
  9
$EXTMIN
 10
0.0
 20
0.0
  9
$EXTMAX
 10
841.0
 20
594.0
  9
$LIMMIN
 10
0.0
 20
0.0
  9
$LIMMAX
 10
841.0
 20
594.0
  9
$HANDSEED
  5
2F9
  0
ENDSEC
  0
SECTION
  2
CLASSES
  0
ENDSEC
  0
SECTION
  2
TABLES
  0
TABLE
  2
VPORT
  5
8
100
AcDbSymbolTable
 70
     2
  0
VPORT
  5
14
100
AcDbSymbolTableRecord
100
AcDbViewportTableRecord
  2
*ACTIVE
 70
     0
 10
0.0
 20
0.0
 11
1.0
 21
1.0
 12
484.0
 22
297.0
 13
0.0
 23
0.0
 14
1.0
 24
1.0
 15
0.0
 25
0.0
 16
0.0
 26
0.0
 36
1.0
 17
0.0
 27
0.0
 37
0.0
 40
594.0
 41
2.0
 42
50.0
 43
0.0
 44
0.0
 50
0.0
 51
0.0
 71
     0
 72
   100
 73
     1
 74
     1
 75
     0
 76
     0
 77
     0
 78
     0
  0
ENDTAB
  0
TABLE
  2
LTYPE
  5
5
100
AcDbSymbolTable
 70
     5
  0
LTYPE
  5
15
100
AcDbSymbolTableRecord
100
AcDbLinetypeTableRecord
  2
BYBLOCK
 70
     0
  3

 72
    65
 73
     0
 40
0.0
  0
LTYPE
  5
16
100
AcDbSymbolTableRecord
100
AcDbLinetypeTableRecord
  2
BYLAYER
 70
     0
  3

 72
    65
 73
     0
 40
0.0
  0
LTYPE
  5
17
100
AcDbSymbolTableRecord
100
AcDbLinetypeTableRecord
  2
CONTINUOUS
 70
    64
  3
Solid line
 72
    65
 73
     0
 40
0.0
  0
LTYPE
  5
18
100
AcDbSymbolTableRecord
100
AcDbLinetypeTableRecord
  2
DASHED
 70
    64
  3
__ __ __ __ __ __ __ __ __ __ __ __ __ __ __ __
 72
    65
 73
     2
 40
0.75
 49
0.5
 74
     0
 49
-0.25
 74
     0
  0
LTYPE
  5
19
100
AcDbSymbolTableRecord
100
AcDbLinetypeTableRecord
  2
DASHDOT
 70
    64
  3
__ . __ . __ . __ . __ . __ . __ . __ . __ . __
 72
    65
 73
     4
 40
1.0
 49
0.5
 74
     0
 49
-0.25
 74
     0
 49
0.0
 74
     0
 49
-0.25
 74
     0
  0
LTYPE
  5
1A
100
AcDbSymbolTableRecord
100
AcDbLinetypeTableRecord
  2
DIVIDE
 70
    64
  3
____ . . ____ . . ____ . . ____ . . ____ . . __
 72
    65
 73
     6
 40
1.25
 49
0.5
 74
     0
 49
-0.25
 74
     0
 49
0.0
 74
     0
 49
-0.25
 74
     0
 49
0.0
 74
     0
 49
-0.25
 74
     0
  0
LTYPE
  5
1B
100
AcDbSymbolTableRecord
100
AcDbLinetypeTableRecord
  2
DOT
 70
    64
  3
. . . . . . . . . . . . . . . . . . . . . . . .
 72
    65
 73
     2
 40
0.25
 49
0.0
 74
     0
 49
-0.25
 74
     0
  0
ENDTAB
  0
TABLE
  2
LAYER
  5
2
100
AcDbSymbolTable
 70
   102
  0
LAYER
  5
F
100
AcDbSymbolTableRecord
100
AcDbLayerTableRecord
  2
0
 70
     0
 62
     7
  6
CONTINUOUS
370
     -3
390
F
  0
LAYER
  5
1C
100
AcDbSymbolTableRecord
100
AcDbLayerTableRecord
  2
M1
 70
     0
 62
     3
  6
CONTINUOUS
370
     -3
390
F
  0
LAYER
  5
1D
100
AcDbSymbolTableRecord
100
AcDbLayerTableRecord
  2
M2
 70
     0
 62
     2
  6
CONTINUOUS
370
     -3
390
F
  0
ENDTAB
  0
TABLE
  2
STYLE
  5
3
100
AcDbSymbolTable
 70
     2
  0
STYLE
  5
10
100
AcDbSymbolTableRecord
100
AcDbTextStyleTableRecord
  2
STANDARD
 70
     0
 40
0.0
 41
1.0
 50
0.0
 71
     0
 42
0.2
  3
txt
  4
BIGFONT
  0
ENDTAB
  0
TABLE
  2
VIEW
  5
6
100
AcDbSymbolTable
 70
     0
  0
ENDTAB
  0
TABLE
  2
UCS
  5
7
100
AcDbSymbolTable
 70
     0
  0
ENDTAB
  0
TABLE
  2
APPID
  5
9
100
AcDbSymbolTable
 70
     1
  0
APPID
  5
11
100
AcDbSymbolTableRecord
100
AcDbRegAppTableRecord
  2
ACAD
 70
     0
  0
ENDTAB
  0
TABLE
  2
DIMSTYLE
  5
A
100
AcDbSymbolTable
 70
     2
100
AcDbDimStyleTable
 71
     1
  0
DIMSTYLE
105
24
100
AcDbSymbolTableRecord
100
AcDbDimStyleTableRecord
  2
STANDARD
 70
     0
  3

  4

  5

  6
_OPEN
  7
_OPEN
 40
1.0
 41
3.0
 42
0.5
 43
8.0
 44
1.5
 45
0.0
 46
0.0
 47
0.0
 48
0.0
140
3.15
141
0.09
142
0.0
143
0.03937
144
1.0
145
0.0
146
1.0
147
1.0
148
0.000000
 71
     0
 72
     0
 73
     0
 74
     0
 75
     0
 76
     0
 77
     3
 78
     8
170
     0
171
     2
172
     0
173
     1
174
     0
175
     0
176
     0
177
     0
178
     0
270
     2
271
     2
272
     4
273
     2
274
     2
340
10
275
     0
278
    46
280
     0
281
     0
282
     0
283
     1
284
     0
285
     0
286
     0
287
     3
288
     0
371
   13
372
   13
  0
DIMSTYLE
105
25
100
AcDbSymbolTableRecord
100
AcDbDimStyleTableRecord
  2
LEADSTYL
 70
     0
  3

  4

  5

  6
_OPEN
  7
_OPEN
 40
1.0
 41
3.0
 42
0.0625
 43
0.38
 44
0.18
 45
0.0
 46
0.0
 47
0.0
 48
0.0
140
3.15
141
0.09
142
0.0
143
25.4
144
1.0
145
0.0
146
1.0
147
1.0
 71
     0
 72
     0
 73
     1
 74
     1
 75
     0
 76
     0
 77
     0
 78
     0
170
     0
171
     2
172
     0
173
     1
174
     0
175
     0
176
     0
177
     0
178
     0
270
     2
271
     4
272
     4
273
     2
274
     2
340
10
275
     0
280
     0
281
     0
282
     0
283
     1
284
     0
285
     0
286
     0
287
     3
288
     0
  0
ENDTAB
  0
TABLE
  2
BLOCK_RECORD
  5
1
100
AcDbSymbolTable
 70
     6
  0
BLOCK_RECORD
  5
1E
100
AcDbSymbolTableRecord
100
AcDbBlockTableRecord
  2
*MODEL_SPACE
  0
BLOCK_RECORD
  5
21
100
AcDbSymbolTableRecord
100
AcDbBlockTableRecord
  2
*PAPER_SPACE
  0
BLOCK_RECORD
  5
26
100
AcDbSymbolTableRecord
100
AcDbBlockTableRecord
  2
_NONE
  0
BLOCK_RECORD
  5
2A
100
AcDbSymbolTableRecord
100
AcDbBlockTableRecord
  2
_OPEN
  0
BLOCK_RECORD
  5
30
100
AcDbSymbolTableRecord
100
AcDbBlockTableRecord
  2
_CLOSED
  0
BLOCK_RECORD
  5
37
100
AcDbSymbolTableRecord
100
AcDbBlockTableRecord
  2
_ORIGIN
  0
BLOCK_RECORD
  5
3C
100
AcDbSymbolTableRecord
100
AcDbBlockTableRecord
  2
_DOT
  0
BLOCK_RECORD
  5
44
100
AcDbSymbolTableRecord
100
AcDbBlockTableRecord
  2
_OBLIQUE
  0
ENDTAB
  0
ENDSEC
  0
SECTION
  2
BLOCKS
  0
BLOCK
  5
1F
100
AcDbEntity
  8
0
100
AcDbBlockBegin
  2
*MODEL_SPACE
 70
     0
 10
0.0
 20
0.0
 30
0.0
  3
*MODEL_SPACE
  1

  0
ENDBLK
  5
20
100
AcDbEntity
  8
0
100
AcDbBlockEnd
  0
BLOCK
  5
22
100
AcDbEntity
 67
     1
  8
0
100
AcDbBlockBegin
  2
*PAPER_SPACE
 70
     0
 10
0.0
 20
0.0
 30
0.0
  3
*PAPER_SPACE
  1

  0
ENDBLK
  5
23
100
AcDbEntity
 67
     1
  8
0
100
AcDbBlockEnd
  0
BLOCK
  5
27
100
AcDbEntity
  8
0
100
AcDbBlockBegin
  2
_NONE
 70
     0
 10
0.0
 20
0.0
  0
CIRCLE
  5
28
100
AcDbEntity
  8
0
 62
     0
370
13
100
AcDbCircle
 10
0.0
 20
0.0
 40
0.25
  0
ENDBLK
  5
29
100
AcDbEntity
  8
0
100
AcDbBlockEnd
  0
BLOCK
  5
2B
100
AcDbEntity
  8
0
100
AcDbBlockBegin
  2
_OPEN
 70
     0
 10
0.0
 20
0.0
  0
LINE
  5
2C
100
AcDbEntity
  8
0
 62
     0
370
13
100
AcDbLine
 10
-0.965926
 20
0.258819
 11
0.0
 21
0.0
  0
LINE
  5
2D
100
AcDbEntity
  8
0
 62
     0
370
13
100
AcDbLine
 10
0.0
 20
0.0
 11
-0.965926
 21
-0.258819
  0
LINE
  5
2E
100
AcDbEntity
  8
0
 62
     0
370
13
100
AcDbLine
 10
0.0
 20
0.0
 11
-1.0
 21
0.0
  0
ENDBLK
  5
2F
100
AcDbEntity
  8
0
100
AcDbBlockEnd
  0
BLOCK
  5
31
100
AcDbEntity
  8
0
100
AcDbBlockBegin
  2
_CLOSED
 70
     0
 10
0.0
 20
0.0
  0
LINE
  5
32
100
AcDbEntity
  8
0
 62
     0
370
13
100
AcDbLine
 10
-0.965926
 20
0.258819
 11
0.0
 21
0.0
  0
LINE
  5
33
100
AcDbEntity
  8
0
 62
     0
370
13
100
AcDbLine
 10
0.0
 20
0.0
 11
-0.965926
 21
-0.258819
  0
LINE
  5
34
100
AcDbEntity
  8
0
 62
     0
370
13
100
AcDbLine
 10
-0.965926
 20
0.258819
 11
-0.965926
 21
-0.258819
  0
LINE
  5
35
100
AcDbEntity
  8
0
 62
     0
370
13
100
AcDbLine
 10
0.0
 20
0.0
 11
-1.0
 21
0.0
  0
ENDBLK
  5
36
100
AcDbEntity
  8
0
100
AcDbBlockEnd
  0
BLOCK
  5
38
100
AcDbEntity
  8
0
100
AcDbBlockBegin
  2
_ORIGIN
 70
     0
 10
0.0
 20
0.0
  0
CIRCLE
  5
39
100
AcDbEntity
  8
0
 62
     0
370
13
100
AcDbCircle
 10
0.0
 20
0.0
 40
0.5
  0
LINE
  5
3A
100
AcDbEntity
  8
0
 62
     0
370
13
100
AcDbLine
 10
0.0
 20
0.0
 11
-1.0
 21
0.0
  0
ENDBLK
  5
3B
100
AcDbEntity
  8
0
100
AcDbBlockEnd
  0
BLOCK
  5
3D
100
AcDbEntity
  8
0
100
AcDbBlockBegin
  2
_DOT
 70
     0
 10
0.0
 20
0.0
  0
POLYLINE
  5
3E
100
AcDbEntity
  8
0
 62
     0
100
AcDb2dPolyline
 66
     1
 70
     1
 40
0.5
 41
0.5
  0
VERTEX
  5
3F
100
AcDbEntity
  8
0
 62
     0
100
AcDbVertex
100
AcDb2dVertex
 10
-0.25
 20
0.0
 42
1.0
  0
VERTEX
  5
40
100
AcDbEntity
  8
0
 62
     0
100
AcDbVertex
100
AcDb2dVertex
 10
0.25
 20
0.0
 42
1.0
  0
SEQEND
  5
41
100
AcDbEntity
  8
0
 62
     0
  0
LINE
  5
42
100
AcDbEntity
  8
0
 62
     0
370
13
100
AcDbLine
 10
-0.5
 20
0.0
 11
-1.0
 21
0.0
  0
ENDBLK
  5
43
100
AcDbEntity
  8
0
100
AcDbBlockEnd
  0
BLOCK
  5
45
100
AcDbEntity
  8
0
100
AcDbBlockBegin
  2
_OBLIQUE
 70
     0
 10
0.0
 20
0.0
  0
LINE
  5
46
100
AcDbEntity
  8
0
 62
     0
370
13
100
AcDbLine
 10
-0.353553
 20
-0.353553
 11
0.353553
 21
0.353553
  0
ENDBLK
  5
47
100
AcDbEntity
  8
0
100
AcDbBlockEnd
  0
ENDSEC
  0
SECTION
  2
ENTITIES
  0
LINE
  5
48
100
AcDbEntity
  8
M1
  6
CONTINUOUS
370
25
 62
     7
100
AcDbLine
 10
365.86145
 20
367.399231
 11
365.86145
 21
346.898727
  0
LINE
  5
49
100
AcDbEntity
  8
M1
  6
CONTINUOUS
370
25
 62
     7
100
AcDbLine
 10
375.86145
 20
367.898727
 11
366.36145
 21
367.898727
  0
LINE
  5
4A
100
AcDbEntity
  8
M1
  6
CONTINUOUS
370
25
 62
     7
100
AcDbLine
 10
375.86145
 20
383.898727
 11
375.86145
 21
346.898727
  0
LINE
  5
4B
100
AcDbEntity
  8
M1
  6
CONTINUOUS
370
25
 62
     7
100
AcDbLine
 10
392.36145
 20
404.898727
 11
383.86145
 21
404.898727
  0
LINE
  5
4C
100
AcDbEntity
  8
M1
  6
CONTINUOUS
370
25
 62
     7
100
AcDbLine
 10
382.86145
 20
403.898727
 11
382.86145
 21
346.898727
  0
LINE
  5
4D
100
AcDbEntity
  8
M1
  6
CONTINUOUS
370
25
 62
     7
100
AcDbLine
 10
366.361145
 20
367.898727
 11
365.861145
 21
367.398727
  0
LINE
  5
4E
100
AcDbEntity
  8
M1
  6
CONTINUOUS
370
25
 62
     7
100
AcDbLine
 10
378.86145
 20
383.898727
 11
375.86145
 21
383.898727
  0
LINE
  5
4F
100
AcDbEntity
  8
M1
  6
CONTINUOUS
370
25
 62
     7
100
AcDbLine
 10
392.36145
 20
413.398727
 11
392.36145
 21
346.898727
  0
LINE
  5
50
100
AcDbEntity
  8
M1
  6
CONTINUOUS
370
25
 62
     7
100
AcDbLine
 10
392.86145
 20
413.898727
 11
428.86145
 21
413.898727
  0
LINE
  5
51
100
AcDbEntity
  8
M1
  6
CONTINUOUS
370
25
 62
     7
100
AcDbLine
 10
429.36145
 20
413.398727
 11
429.36145
 21
346.898727
  0
LINE
  5
52
100
AcDbEntity
  8
M1
  6
CONTINUOUS
370
25
 62
     7
100
AcDbLine
 10
381.561432
 20
377.498734
 11
381.561432
 21
368.298721
  0
LINE
  5
53
100
AcDbEntity
  8
M1
  6
CONTINUOUS
370
25
 62
     7
100
AcDbLine
 10
378.465546
 20
377.498734
 11
382.86145
 21
377.498734
  0
LINE
  5
54
100
AcDbEntity
  8
M1
  6
CONTINUOUS
370
25
 62
     7
100
AcDbLine
 10
378.465546
 20
368.298721
 11
382.86145
 21
368.298721
  0
LINE
  5
55
100
AcDbEntity
  8
M1
  6
CONTINUOUS
370
25
 62
     7
100
AcDbLine
 10
381.56134
 20
373.198334
 11
382.861328
 21
374.498322
  0
LINE
  5
56
100
AcDbEntity
  8
M1
  6
CONTINUOUS
370
25
 62
     7
100
AcDbLine
 10
381.561127
 20
371.07692
 11
382.861145
 21
372.376923
  0
LINE
  5
57
100
AcDbEntity
  8
M1
  6
CONTINUOUS
370
25
 62
     7
100
AcDbLine
 10
378.061432
 20
376.798721
 11
378.061432
 21
368.998734
  0
LINE
  5
58
100
AcDbEntity
  8
M1
  6
CONTINUOUS
370
25
 62
     7
100
AcDbLine
 10
378.061249
 20
376.798828
 11
378.465454
 21
377.498825
  0
LINE
  5
59
100
AcDbEntity
  8
M1
  6
CONTINUOUS
370
25
 62
     7
100
AcDbLine
 10
378.465546
 20
375.398727
 11
381.561432
 21
375.398727
  0
LINE
  5
5A
100
AcDbEntity
  8
M1
  6
CONTINUOUS
370
25
 62
     7
100
AcDbLine
 10
378.465546
 20
370.398727
 11
381.561432
 21
370.398727
  0
LINE
  5
5B
100
AcDbEntity
  8
M1
  6
CONTINUOUS
370
25
 62
     7
100
AcDbLine
 10
378.061249
 20
368.998627
 11
378.465454
 21
368.29863
  0
LINE
  5
5C
100
AcDbEntity
  8
M1
  6
CONTINUOUS
370
25
 62
     7
100
AcDbLine
 10
333.36145
 20
352.898727
 11
333.36145
 21
346.898727
  0
LINE
  5
5D
100
AcDbEntity
  8
M1
  6
CONTINUOUS
370
25
 62
     7
100
AcDbLine
 10
359.36145
 20
352.898727
 11
333.36145
 21
352.898727
  0
LINE
  5
5E
100
AcDbEntity
  8
M1
  6
CONTINUOUS
370
25
 62
     7
100
AcDbLine
 10
355.36145
 20
348.898727
 11
355.36145
 21
346.898727
  0
LINE
  5
5F
100
AcDbEntity
  8
M1
  6
CONTINUOUS
370
25
 62
     7
100
AcDbLine
 10
359.36145
 20
354.398727
 11
359.36145
 21
346.898727
  0
LINE
  5
60
100
AcDbEntity
  8
M1
  6
CONTINUOUS
370
25
 62
     7
100
AcDbLine
 10
355.36145
 20
348.898727
 11
333.36145
 21
348.898727
  0
LINE
  5
61
100
AcDbEntity
  8
M1
  6
CONTINUOUS
370
13
 62
     7
100
AcDbLine
 10
192.29834
 20
383.497025
 11
192.29834
 21
373.570831
  0
LINE
  5
62
100
AcDbEntity
  8
M1
  6
CONTINUOUS
370
13
 62
     7
100
AcDbLine
 10
194.762634
 20
346.898727
 11
190.130432
 21
346.898727
  0
LINE
  5
63
100
AcDbEntity
  8
M1
  6
CONTINUOUS
370
13
 62
     7
100
AcDbLine
 10
497.176544
 20
346.898727
 11
486.577545
 21
346.898727
  0
LINE
  5
64
100
AcDbEntity
  8
M1
  6
CONTINUOUS
370
25
 62
     7
100
AcDbLine
 10
244.840546
 20
371.461533
 11
214.225769
 21
353.786133
  0
LINE
  5
65
100
AcDbEntity
  8
M1
  6
CONTINUOUS
370
25
 62
     7
100
AcDbLine
 10
239.84024
 20
380.122025
 11
209.225464
 21
362.446625
  0
LINE
  5
66
100
AcDbEntity
  8
M1
  6
CONTINUOUS
370
25
 62
     7
100
AcDbLine
 10
237.347839
 20
368.289429
 11
233.347748
 21
370.598923
  0
LINE
  5
67
100
AcDbEntity
  8
M1
  6
CONTINUOUS
370
25
 62
     7
100
AcDbLine
 10
237.315033
 20
377.509232
 11
233.347626
 21
375.218628
  0
LINE
  5
68
100
AcDbEntity
  8
M1
  6
CONTINUOUS
370
25
 62
     7
100
AcDbLine
 10
241.315155
 20
370.580826
 11
237.347626
 21
368.290222
  0
LINE
  5
69
100
AcDbEntity
  8
M1
  6
CONTINUOUS
370
25
 62
     7
100
AcDbLine
 10
237.31543
 20
377.508224
 11
241.315247
 21
375.198929
  0
LINE
  5
6A
100
AcDbEntity
  8
M1
  6
CONTINUOUS
370
25
 62
     7
100
AcDbLine
 10
233.347443
 20
375.217621
 11
233.347443
 21
370.59903
  0
LINE
  5
6B
100
AcDbEntity
  8
M1
  6
CONTINUOUS
370
25
 62
     7
100
AcDbLine
 10
241.315155
 20
370.580231
 11
241.315155
 21
375.198822
  0
LINE
  5
6C
100
AcDbEntity
  8
M1
  6
CONTINUOUS
370
25
 62
     7
100
AcDbLine
 10
197.29834
 20
404.682816
 11
197.29834
 21
369.331924
  0
LINE
  5
6D
100
AcDbEntity
  8
M1
  6
CONTINUOUS
370
25
 62
     7
100
AcDbLine
 10
187.29834
 20
404.682816
 11
187.29834
 21
369.331924
  0
LINE
  5
6E
100
AcDbEntity
  8
M1
  6
CONTINUOUS
370
25
 62
     7
100
AcDbLine
 10
196.298645
 20
396.607315
 11
192.298645
 21
394.297928
  0
LINE
  5
6F
100
AcDbEntity
  8
M1
  6
CONTINUOUS
370
25
 62
     7
100
AcDbLine
 10
188.29834
 20
401.189316
 11
188.29834
 21
396.608139
  0
LINE
  5
70
100
AcDbEntity
  8
M1
  6
CONTINUOUS
370
25
 62
     7
100
AcDbLine
 10
196.29834
 20
401.189316
 11
196.29834
 21
396.608139
  0
LINE
  5
71
100
AcDbEntity
  8
M1
  6
CONTINUOUS
370
25
 62
     7
100
AcDbLine
 10
188.298218
 20
401.189835
 11
192.298218
 21
403.499222
  0
LINE
  5
72
100
AcDbEntity
  8
M1
  6
CONTINUOUS
370
25
 62
     7
100
AcDbLine
 10
188.298523
 20
396.608231
 11
192.298523
 21
394.298813
  0
LINE
  5
73
100
AcDbEntity
  8
M1
  6
CONTINUOUS
370
25
 62
     7
100
AcDbLine
 10
196.298462
 20
401.189316
 11
192.298523
 21
403.498734
  0
LINE
  5
74
100
AcDbEntity
  8
M1
  6
CONTINUOUS
370
25
 62
     7
100
AcDbLine
 10
144.755859
 20
380.120728
 11
175.370544
 21
362.445328
  0
LINE
  5
75
100
AcDbEntity
  8
M1
  6
CONTINUOUS
370
25
 62
     7
100
AcDbLine
 10
139.75592
 20
371.460526
 11
170.370667
 21
353.785126
  0
LINE
  5
76
100
AcDbEntity
  8
M1
  6
CONTINUOUS
370
25
 62
     7
100
AcDbLine
 10
151.248718
 20
375.217529
 11
151.248718
 21
370.598724
  0
LINE
  5
77
100
AcDbEntity
  8
M1
  6
CONTINUOUS
370
25
 62
     7
100
AcDbLine
 10
143.281311
 20
370.579727
 11
147.248718
 21
368.289124
  0
LINE
  5
78
100
AcDbEntity
  8
M1
  6
CONTINUOUS
370
25
 62
     7
100
AcDbLine
 10
147.281311
 20
377.508026
 11
151.248718
 21
375.217422
  0
LINE
  5
79
100
AcDbEntity
  8
M1
  6
CONTINUOUS
370
25
 62
     7
100
AcDbLine
 10
143.28125
 20
370.579834
 11
143.28125
 21
375.198624
  0
LINE
  5
7A
100
AcDbEntity
  8
M1
  6
CONTINUOUS
370
25
 62
     7
100
AcDbLine
 10
147.249146
 20
368.288727
 11
151.248962
 21
370.598022
  0
LINE
  5
7B
100
AcDbEntity
  8
M1
  6
CONTINUOUS
370
25
 62
     7
100
AcDbLine
 10
147.281921
 20
377.507523
 11
143.282166
 21
375.198227
  0
LINE
  5
7C
100
AcDbEntity
  8
M1
  6
CONTINUOUS
370
25
 62
     7
100
AcDbLine
 10
151.248718
 20
375.217529
 11
151.248718
 21
370.598724
  0
LINE
  5
7D
100
AcDbEntity
  8
M1
  6
CONTINUOUS
370
25
 62
     7
100
AcDbLine
 10
143.281311
 20
370.579727
 11
147.248657
 21
368.28923
  0
LINE
  5
7E
100
AcDbEntity
  8
M1
  6
CONTINUOUS
370
25
 62
     7
100
AcDbLine
 10
147.281311
 20
377.508026
 11
151.248718
 21
375.217422
  0
LINE
  5
7F
100
AcDbEntity
  8
M1
  6
CONTINUOUS
370
25
 62
     7
100
AcDbLine
 10
143.28125
 20
370.579834
 11
143.28125
 21
375.198624
  0
LINE
  5
80
100
AcDbEntity
  8
M1
  6
CONTINUOUS
370
25
 62
     7
100
AcDbLine
 10
147.249329
 20
368.288528
 11
151.249268
 21
370.597931
  0
LINE
  5
81
100
AcDbEntity
  8
M1
  6
CONTINUOUS
370
25
 62
     7
100
AcDbLine
 10
147.281921
 20
377.507523
 11
143.282166
 21
375.198227
  0
LINE
  5
82
100
AcDbEntity
  8
M1
  6
CONTINUOUS
370
25
 62
     7
100
AcDbLine
 10
139.755615
 20
322.338028
 11
170.370422
 21
340.013428
  0
LINE
  5
83
100
AcDbEntity
  8
M1
  6
CONTINUOUS
370
25
 62
     7
100
AcDbLine
 10
144.755554
 20
313.677521
 11
175.370361
 21
331.352921
  0
LINE
  5
84
100
AcDbEntity
  8
M1
  6
CONTINUOUS
370
25
 62
     7
100
AcDbLine
 10
147.248718
 20
325.507919
 11
151.248718
 21
323.198624
  0
LINE
  5
85
100
AcDbEntity
  8
M1
  6
CONTINUOUS
370
25
 62
     7
100
AcDbLine
 10
147.281128
 20
316.290329
 11
151.248535
 21
318.580933
  0
LINE
  5
86
100
AcDbEntity
  8
M1
  6
CONTINUOUS
370
25
 62
     7
100
AcDbLine
 10
143.281067
 20
323.21843
 11
147.248413
 21
325.508926
  0
LINE
  5
87
100
AcDbEntity
  8
M1
  6
CONTINUOUS
370
25
 62
     7
100
AcDbLine
 10
147.281311
 20
316.289124
 11
143.281433
 21
318.598526
  0
LINE
  5
88
100
AcDbEntity
  8
M1
  6
CONTINUOUS
370
25
 62
     7
100
AcDbLine
 10
151.249329
 20
318.580032
 11
151.249329
 21
323.19873
  0
LINE
  5
89
100
AcDbEntity
  8
M1
  6
CONTINUOUS
370
25
 62
     7
100
AcDbLine
 10
143.281616
 20
323.217529
 11
143.281616
 21
318.598831
  0
LINE
  5
8A
100
AcDbEntity
  8
M1
  6
CONTINUOUS
370
25
 62
     7
100
AcDbLine
 10
187.29834
 20
289.114731
 11
187.29834
 21
324.46553
  0
LINE
  5
8B
100
AcDbEntity
  8
M1
  6
CONTINUOUS
370
25
 62
     7
100
AcDbLine
 10
197.298523
 20
289.114731
 11
197.298523
 21
324.46553
  0
LINE
  5
8C
100
AcDbEntity
  8
M1
  6
CONTINUOUS
370
25
 62
     7
100
AcDbLine
 10
188.298035
 20
297.19043
 11
192.298035
 21
299.499832
  0
LINE
  5
8D
100
AcDbEntity
  8
M1
  6
CONTINUOUS
370
25
 62
     7
100
AcDbLine
 10
196.298523
 20
292.608231
 11
196.298523
 21
297.189423
  0
LINE
  5
8E
100
AcDbEntity
  8
M1
  6
CONTINUOUS
370
25
 62
     7
100
AcDbLine
 10
188.298523
 20
292.608231
 11
188.298523
 21
297.189423
  0
LINE
  5
8F
100
AcDbEntity
  8
M1
  6
CONTINUOUS
370
25
 62
     7
100
AcDbLine
 10
196.298157
 20
292.609024
 11
192.298218
 21
290.299728
  0
LINE
  5
90
100
AcDbEntity
  8
M1
  6
CONTINUOUS
370
25
 62
     7
100
AcDbLine
 10
196.298462
 20
297.189819
 11
192.298523
 21
299.49913
  0
LINE
  5
91
100
AcDbEntity
  8
M1
  6
CONTINUOUS
370
25
 62
     7
100
AcDbLine
 10
188.298462
 20
292.608231
 11
192.298218
 21
290.298828
  0
LINE
  5
92
100
AcDbEntity
  8
M1
  6
CONTINUOUS
370
25
 62
     7
100
AcDbLine
 10
239.840851
 20
313.676422
 11
209.226013
 21
331.351822
  0
LINE
  5
93
100
AcDbEntity
  8
M1
  6
CONTINUOUS
370
25
 62
     7
100
AcDbLine
 10
244.840942
 20
322.336823
 11
214.226257
 21
340.012222
  0
LINE
  5
94
100
AcDbEntity
  8
M1
  6
CONTINUOUS
370
25
 62
     7
100
AcDbLine
 10
233.348053
 20
318.580231
 11
233.348053
 21
323.198929
  0
LINE
  5
95
100
AcDbEntity
  8
M1
  6
CONTINUOUS
370
25
 62
     7
100
AcDbLine
 10
241.31543
 20
323.217728
 11
237.348053
 21
325.508331
  0
LINE
  5
96
100
AcDbEntity
  8
M1
  6
CONTINUOUS
370
25
 62
     7
100
AcDbLine
 10
237.315338
 20
316.289429
 11
233.347931
 21
318.580032
  0
LINE
  5
97
100
AcDbEntity
  8
M1
  6
CONTINUOUS
370
25
 62
     7
100
AcDbLine
 10
241.315552
 20
323.217728
 11
241.315552
 21
318.59903
  0
LINE
  5
98
100
AcDbEntity
  8
M1
  6
CONTINUOUS
370
25
 62
     7
100
AcDbLine
 10
237.347351
 20
325.509628
 11
233.347443
 21
323.200333
  0
LINE
  5
99
100
AcDbEntity
  8
M1
  6
CONTINUOUS
370
25
 62
     7
100
AcDbLine
 10
237.315033
 20
316.290634
 11
241.314941
 21
318.59993
  0
LINE
  5
9A
100
AcDbEntity
  8
M1
  6
CONTINUOUS
370
25
 62
     7
100
AcDbLine
 10
205.594055
 20
365.965622
 11
209.385559
 21
372.53273
  0
LINE
  5
9B
100
AcDbEntity
  8
M1
  6
CONTINUOUS
370
25
 62
     7
100
AcDbLine
 10
202.129517
 20
367.959229
 11
205.921753
 21
374.527634
  0
LINE
  5
9C
100
AcDbEntity
  8
M1
  6
CONTINUOUS
370
25
 62
     7
100
AcDbLine
 10
182.434265
 20
367.947021
 11
178.642761
 21
374.51413
  0
LINE
  5
9D
100
AcDbEntity
  8
M1
  6
CONTINUOUS
370
25
 62
     7
100
AcDbLine
 10
178.975647
 20
365.94313
 11
175.183411
 21
372.511429
  0
LINE
  5
9E
100
AcDbEntity
  8
M1
  6
CONTINUOUS
370
25
 62
     7
100
AcDbLine
 10
169.138062
 20
348.87973
 11
161.555054
 21
348.87973
  0
LINE
  5
9F
100
AcDbEntity
  8
M1
  6
CONTINUOUS
370
25
 62
     7
100
AcDbLine
 10
169.144165
 20
344.882523
 11
161.559753
 21
344.882523
  0
LINE
  5
A0
100
AcDbEntity
  8
M1
  6
CONTINUOUS
370
25
 62
     7
100
AcDbLine
 10
179.002441
 20
327.832321
 11
175.210938
 21
321.265228
  0
LINE
  5
A1
100
AcDbEntity
  8
M1
  6
CONTINUOUS
370
25
 62
     7
100
AcDbLine
 10
182.467041
 20
325.838928
 11
178.674866
 21
319.270523
  0
LINE
  5
A2
100
AcDbEntity
  8
M1
  6
CONTINUOUS
370
25
 62
     7
100
AcDbLine
 10
202.161865
 20
325.850632
 11
205.953369
 21
319.283524
  0
LINE
  5
A3
100
AcDbEntity
  8
M1
  6
CONTINUOUS
370
25
 62
     7
100
AcDbLine
 10
205.620667
 20
327.854233
 11
209.412964
 21
321.285934
  0
LINE
  5
A4
100
AcDbEntity
  8
M1
  6
CONTINUOUS
370
25
 62
     7
100
AcDbLine
 10
215.458313
 20
344.917328
 11
223.041351
 21
344.917328
  0
LINE
  5
A5
100
AcDbEntity
  8
M1
  6
CONTINUOUS
370
25
 62
     7
100
AcDbLine
 10
215.452515
 20
348.91452
 11
223.036926
 21
348.91452
  0
LINE
  5
A6
100
AcDbEntity
  8
M1
  6
CONTINUOUS
370
13
 62
     7
100
AcDbLine
 10
161.137939
 20
328.90863
 11
168.390564
 21
333.095825
  0
LINE
  5
A7
100
AcDbEntity
  8
M1
  6
CONTINUOUS
370
13
 62
     7
100
AcDbLine
 10
161.329956
 20
364.778122
 11
168.050659
 21
360.897934
  0
LINE
  5
A8
100
AcDbEntity
  8
M1
  6
CONTINUOUS
370
13
 62
     7
100
AcDbLine
 10
216.228516
 20
360.715225
 11
223.127136
 21
364.69812
  0
LINE
  5
A9
100
AcDbEntity
  8
M1
  6
CONTINUOUS
370
13
 62
     7
100
AcDbLine
 10
216.007019
 20
333.210327
 11
223.530548
 21
328.866623
  0
LINE
  5
AA
100
AcDbEntity
  8
M1
  6
CONTINUOUS
370
25
 62
     7
100
AcDbLine
 10
199.79834
 20
348.898727
 11
195.79834
 21
348.898727
  0
LINE
  5
AB
100
AcDbEntity
  8
M1
  6
CONTINUOUS
370
25
 62
     7
100
AcDbLine
 10
195.79834
 20
348.898727
 11
195.79834
 21
344.898727
  0
LINE
  5
AC
100
AcDbEntity
  8
M1
  6
CONTINUOUS
370
25
 62
     7
100
AcDbLine
 10
199.79834
 20
348.898727
 11
199.79834
 21
344.898727
  0
LINE
  5
AD
100
AcDbEntity
  8
M1
  6
CONTINUOUS
370
25
 62
     7
100
AcDbLine
 10
199.79834
 20
344.898727
 11
195.79834
 21
344.898727
  0
LINE
  5
AE
100
AcDbEntity
  8
M1
  6
CONTINUOUS
370
25
 62
     7
100
AcDbLine
 10
381.561432
 20
403.498734
 11
381.561432
 21
394.298721
  0
LINE
  5
AF
100
AcDbEntity
  8
M1
  6
CONTINUOUS
370
25
 62
     7
100
AcDbLine
 10
378.465546
 20
403.498734
 11
382.86145
 21
403.498734
  0
LINE
  5
B0
100
AcDbEntity
  8
M1
  6
CONTINUOUS
370
25
 62
     7
100
AcDbLine
 10
378.465546
 20
394.298721
 11
382.86145
 21
394.298721
  0
LINE
  5
B1
100
AcDbEntity
  8
M1
  6
CONTINUOUS
370
25
 62
     7
100
AcDbLine
 10
381.561249
 20
399.198441
 11
382.861237
 21
400.498428
  0
LINE
  5
B2
100
AcDbEntity
  8
M1
  6
CONTINUOUS
370
25
 62
     7
100
AcDbLine
 10
381.561646
 20
397.077225
 11
382.861633
 21
398.377213
  0
LINE
  5
B3
100
AcDbEntity
  8
M1
  6
CONTINUOUS
370
25
 62
     7
100
AcDbLine
 10
378.061432
 20
402.798721
 11
378.061432
 21
394.998734
  0
LINE
  5
B4
100
AcDbEntity
  8
M1
  6
CONTINUOUS
370
25
 62
     7
100
AcDbLine
 10
378.061249
 20
402.798935
 11
378.465454
 21
403.498917
  0
LINE
  5
B5
100
AcDbEntity
  8
M1
  6
CONTINUOUS
370
25
 62
     7
100
AcDbLine
 10
378.465546
 20
401.398727
 11
381.561432
 21
401.398727
  0
LINE
  5
B6
100
AcDbEntity
  8
M1
  6
CONTINUOUS
370
25
 62
     7
100
AcDbLine
 10
378.465546
 20
396.398727
 11
381.561432
 21
396.398727
  0
LINE
  5
B7
100
AcDbEntity
  8
M1
  6
CONTINUOUS
370
25
 62
     7
100
AcDbLine
 10
378.06134
 20
394.998734
 11
378.465454
 21
394.298721
  0
LINE
  5
B8
100
AcDbEntity
  8
M1
  6
CONTINUOUS
370
25
 62
     7
100
AcDbLine
 10
365.86145
 20
326.398224
 11
365.86145
 21
346.898727
  0
LINE
  5
B9
100
AcDbEntity
  8
M1
  6
CONTINUOUS
370
25
 62
     7
100
AcDbLine
 10
375.86145
 20
325.898727
 11
366.36145
 21
325.898727
  0
LINE
  5
BA
100
AcDbEntity
  8
M1
  6
CONTINUOUS
370
25
 62
     7
100
AcDbLine
 10
375.86145
 20
309.898727
 11
375.86145
 21
346.898727
  0
LINE
  5
BB
100
AcDbEntity
  8
M1
  6
CONTINUOUS
370
25
 62
     7
100
AcDbLine
 10
392.36145
 20
288.898727
 11
383.86145
 21
288.898727
  0
LINE
  5
BC
100
AcDbEntity
  8
M1
  6
CONTINUOUS
370
25
 62
     7
100
AcDbLine
 10
382.86145
 20
289.898727
 11
382.86145
 21
346.898727
  0
LINE
  5
BD
100
AcDbEntity
  8
M1
  6
CONTINUOUS
370
25
 62
     7
100
AcDbLine
 10
366.361145
 20
325.898834
 11
365.861145
 21
326.398727
  0
LINE
  5
BE
100
AcDbEntity
  8
M1
  6
CONTINUOUS
370
25
 62
     7
100
AcDbLine
 10
378.86145
 20
309.898727
 11
375.86145
 21
309.898727
  0
LINE
  5
BF
100
AcDbEntity
  8
M1
  6
CONTINUOUS
370
25
 62
     7
100
AcDbLine
 10
392.36145
 20
280.398727
 11
392.36145
 21
346.898727
  0
LINE
  5
C0
100
AcDbEntity
  8
M1
  6
CONTINUOUS
370
25
 62
     7
100
AcDbLine
 10
392.86145
 20
279.898727
 11
428.86145
 21
279.898727
  0
LINE
  5
C1
100
AcDbEntity
  8
M1
  6
CONTINUOUS
370
25
 62
     7
100
AcDbLine
 10
429.36145
 20
280.398727
 11
429.36145
 21
346.898727
  0
LINE
  5
C2
100
AcDbEntity
  8
M1
  6
CONTINUOUS
370
25
 62
     7
100
AcDbLine
 10
381.561432
 20
316.298721
 11
381.561432
 21
325.498734
  0
LINE
  5
C3
100
AcDbEntity
  8
M1
  6
CONTINUOUS
370
25
 62
     7
100
AcDbLine
 10
378.465546
 20
316.298721
 11
382.86145
 21
316.298721
  0
LINE
  5
C4
100
AcDbEntity
  8
M1
  6
CONTINUOUS
370
25
 62
     7
100
AcDbLine
 10
378.465546
 20
325.498734
 11
382.86145
 21
325.498734
  0
LINE
  5
C5
100
AcDbEntity
  8
M1
  6
CONTINUOUS
370
25
 62
     7
100
AcDbLine
 10
378.061432
 20
316.998734
 11
378.061432
 21
324.798721
  0
LINE
  5
C6
100
AcDbEntity
  8
M1
  6
CONTINUOUS
370
25
 62
     7
100
AcDbLine
 10
378.061249
 20
316.998627
 11
378.46524
 21
316.29863
  0
LINE
  5
C7
100
AcDbEntity
  8
M1
  6
CONTINUOUS
370
25
 62
     7
100
AcDbLine
 10
378.465546
 20
318.398727
 11
381.561432
 21
318.398727
  0
LINE
  5
C8
100
AcDbEntity
  8
M1
  6
CONTINUOUS
370
25
 62
     7
100
AcDbLine
 10
378.465546
 20
323.398727
 11
381.561432
 21
323.398727
  0
LINE
  5
C9
100
AcDbEntity
  8
M1
  6
CONTINUOUS
370
25
 62
     7
100
AcDbLine
 10
378.061554
 20
324.79863
 11
378.465637
 21
325.498734
  0
LINE
  5
CA
100
AcDbEntity
  8
M1
  6
CONTINUOUS
370
25
 62
     7
100
AcDbLine
 10
333.36145
 20
340.898727
 11
333.36145
 21
346.898727
  0
LINE
  5
CB
100
AcDbEntity
  8
M1
  6
CONTINUOUS
370
25
 62
     7
100
AcDbLine
 10
359.36145
 20
340.898727
 11
333.36145
 21
340.898727
  0
LINE
  5
CC
100
AcDbEntity
  8
M1
  6
CONTINUOUS
370
25
 62
     7
100
AcDbLine
 10
355.36145
 20
344.898727
 11
355.36145
 21
346.898727
  0
LINE
  5
CD
100
AcDbEntity
  8
M1
  6
CONTINUOUS
370
25
 62
     7
100
AcDbLine
 10
359.36145
 20
339.398727
 11
359.36145
 21
346.898727
  0
LINE
  5
CE
100
AcDbEntity
  8
M1
  6
CONTINUOUS
370
25
 62
     7
100
AcDbLine
 10
355.36145
 20
344.898727
 11
333.36145
 21
344.898727
  0
LINE
  5
CF
100
AcDbEntity
  8
M1
  6
CONTINUOUS
370
25
 62
     7
100
AcDbLine
 10
381.561432
 20
290.298721
 11
381.561432
 21
299.498734
  0
LINE
  5
D0
100
AcDbEntity
  8
M1
  6
CONTINUOUS
370
25
 62
     7
100
AcDbLine
 10
378.465546
 20
290.298721
 11
382.86145
 21
290.298721
  0
LINE
  5
D1
100
AcDbEntity
  8
M1
  6
CONTINUOUS
370
25
 62
     7
100
AcDbLine
 10
378.465546
 20
299.498734
 11
382.86145
 21
299.498734
  0
LINE
  5
D2
100
AcDbEntity
  8
M1
  6
CONTINUOUS
370
25
 62
     7
100
AcDbLine
 10
378.061432
 20
290.998734
 11
378.061432
 21
298.798721
  0
LINE
  5
D3
100
AcDbEntity
  8
M1
  6
CONTINUOUS
370
25
 62
     7
100
AcDbLine
 10
378.061737
 20
290.998825
 11
378.465851
 21
290.298828
  0
LINE
  5
D4
100
AcDbEntity
  8
M1
  6
CONTINUOUS
370
25
 62
     7
100
AcDbLine
 10
378.465546
 20
292.398727
 11
381.561432
 21
292.398727
  0
LINE
  5
D5
100
AcDbEntity
  8
M1
  6
CONTINUOUS
370
25
 62
     7
100
AcDbLine
 10
378.465546
 20
297.398727
 11
381.561432
 21
297.398727
  0
LINE
  5
D6
100
AcDbEntity
  8
M1
  6
CONTINUOUS
370
25
 62
     7
100
AcDbLine
 10
378.061432
 20
298.79863
 11
378.465546
 21
299.498734
  0
LINE
  5
D7
100
AcDbEntity
  8
M1
  6
CONTINUOUS
370
25
 62
     7
100
AcDbLine
 10
392.361542
 20
413.398514
 11
392.861633
 21
413.898636
  0
LINE
  5
D8
100
AcDbEntity
  8
M1
  6
CONTINUOUS
370
25
 62
     7
100
AcDbLine
 10
428.86145
 20
413.898819
 11
429.361328
 21
413.398941
  0
LINE
  5
D9
100
AcDbEntity
  8
M1
  6
CONTINUOUS
370
25
 62
     7
100
AcDbLine
 10
392.361542
 20
280.398727
 11
392.86145
 21
279.898834
  0
LINE
  5
DA
100
AcDbEntity
  8
M1
  6
CONTINUOUS
370
25
 62
     7
100
AcDbLine
 10
429.361633
 20
280.398621
 11
428.861542
 21
279.898529
  0
LINE
  5
DB
100
AcDbEntity
  8
M1
  6
CONTINUOUS
370
25
 62
     7
100
AcDbLine
 10
144.320313
 20
442.322922
 11
147.120361
 21
447.172623
  0
LINE
  5
DC
100
AcDbEntity
  8
M1
  6
CONTINUOUS
370
25
 62
     7
100
AcDbLine
 10
143.350464
 20
442.882919
 11
145.290222
 21
441.762924
  0
LINE
  5
DD
100
AcDbEntity
  8
M1
  6
CONTINUOUS
370
25
 62
     7
100
AcDbLine
 10
133.650513
 20
437.283615
 11
133.650513
 21
435.043533
  0
LINE
  5
DE
100
AcDbEntity
  8
M1
  6
CONTINUOUS
370
25
 62
     7
100
AcDbLine
 10
133.651245
 20
436.164536
 11
128.051025
 21
436.164627
  0
LINE
  5
DF
100
AcDbEntity
  8
M1
  6
CONTINUOUS
370
25
 62
     7
100
AcDbLine
 10
144.320618
 20
425.524734
 11
141.411255
 21
430.563522
  0
LINE
  5
E0
100
AcDbEntity
  8
M1
  6
CONTINUOUS
370
25
 62
     7
100
AcDbLine
 10
148.713623
 20
426.874313
 11
145.289917
 21
432.802322
  0
LINE
  5
E1
100
AcDbEntity
  8
M1
  6
CONTINUOUS
370
25
 62
     7
100
AcDbLine
 10
143.351257
 20
431.683731
 11
146.517456
 21
426.199936
  0
LINE
  5
E2
100
AcDbEntity
  8
M1
  6
CONTINUOUS
370
25
 62
     7
100
AcDbLine
 10
144.319824
 20
425.525131
 11
148.713318
 21
426.875137
  0
LINE
  5
E3
100
AcDbEntity
  8
M1
  6
CONTINUOUS
370
25
 62
     7
100
AcDbLine
 10
145.965332
 20
422.673813
 11
150.248352
 21
424.216019
  0
LINE
  5
E4
100
AcDbEntity
  8
M1
  6
CONTINUOUS
370
25
 62
     7
100
AcDbLine
 10
156.879456
 20
403.771439
 11
145.966248
 21
422.674423
  0
LINE
  5
E5
100
AcDbEntity
  8
M1
  6
CONTINUOUS
370
25
 62
     7
100
AcDbLine
 10
160.75885
 20
406.010941
 11
150.247925
 21
424.215927
  0
LINE
  5
E6
100
AcDbEntity
  8
M1
  6
CONTINUOUS
370
25
 62
     7
100
AcDbLine
 10
148.105957
 20
423.445236
 11
158.799255
 21
404.923019
  0
LINE
  5
E7
100
AcDbEntity
  8
M1
  6
CONTINUOUS
370
25
 62
     7
100
AcDbLine
 10
455.86145
 20
367.399231
 11
455.86145
 21
346.898727
  0
LINE
  5
E8
100
AcDbEntity
  8
M1
  6
CONTINUOUS
370
25
 62
     7
100
AcDbLine
 10
445.86145
 20
367.898727
 11
455.36145
 21
367.898727
  0
LINE
  5
E9
100
AcDbEntity
  8
M1
  6
CONTINUOUS
370
25
 62
     7
100
AcDbLine
 10
445.86145
 20
383.898727
 11
445.86145
 21
346.898727
  0
LINE
  5
EA
100
AcDbEntity
  8
M1
  6
CONTINUOUS
370
25
 62
     7
100
AcDbLine
 10
429.36145
 20
404.898727
 11
437.86145
 21
404.898727
  0
LINE
  5
EB
100
AcDbEntity
  8
M1
  6
CONTINUOUS
370
25
 62
     7
100
AcDbLine
 10
438.86145
 20
403.898727
 11
438.86145
 21
346.898727
  0
LINE
  5
EC
100
AcDbEntity
  8
M1
  6
CONTINUOUS
370
25
 62
     7
100
AcDbLine
 10
455.361847
 20
367.898727
 11
455.861847
 21
367.398727
  0
LINE
  5
ED
100
AcDbEntity
  8
M1
  6
CONTINUOUS
370
25
 62
     7
100
AcDbLine
 10
442.86145
 20
383.898727
 11
445.86145
 21
383.898727
  0
LINE
  5
EE
100
AcDbEntity
  8
M1
  6
CONTINUOUS
370
25
 62
     7
100
AcDbLine
 10
429.36145
 20
413.398727
 11
429.36145
 21
346.898727
  0
LINE
  5
EF
100
AcDbEntity
  8
M1
  6
CONTINUOUS
370
25
 62
     7
100
AcDbLine
 10
440.16153
 20
377.498734
 11
440.16153
 21
368.298721
  0
LINE
  5
F0
100
AcDbEntity
  8
M1
  6
CONTINUOUS
370
25
 62
     7
100
AcDbLine
 10
443.257355
 20
377.498734
 11
438.86145
 21
377.498734
  0
LINE
  5
F1
100
AcDbEntity
  8
M1
  6
CONTINUOUS
370
25
 62
     7
100
AcDbLine
 10
443.257355
 20
368.298721
 11
438.86145
 21
368.298721
  0
LINE
  5
F2
100
AcDbEntity
  8
M1
  6
CONTINUOUS
370
25
 62
     7
100
AcDbLine
 10
443.66153
 20
376.798721
 11
443.66153
 21
368.998734
  0
LINE
  5
F3
100
AcDbEntity
  8
M1
  6
CONTINUOUS
370
25
 62
     7
100
AcDbLine
 10
443.66153
 20
376.798828
 11
443.257355
 21
377.498825
  0
LINE
  5
F4
100
AcDbEntity
  8
M1
  6
CONTINUOUS
370
25
 62
     7
100
AcDbLine
 10
443.257355
 20
375.398727
 11
440.16153
 21
375.398727
  0
LINE
  5
F5
100
AcDbEntity
  8
M1
  6
CONTINUOUS
370
25
 62
     7
100
AcDbLine
 10
443.257355
 20
370.398727
 11
440.16153
 21
370.398727
  0
LINE
  5
F6
100
AcDbEntity
  8
M1
  6
CONTINUOUS
370
25
 62
     7
100
AcDbLine
 10
443.661652
 20
368.998627
 11
443.257538
 21
368.298523
  0
LINE
  5
F7
100
AcDbEntity
  8
M1
  6
CONTINUOUS
370
25
 62
     7
100
AcDbLine
 10
488.361435
 20
352.898727
 11
488.361435
 21
346.898727
  0
LINE
  5
F8
100
AcDbEntity
  8
M1
  6
CONTINUOUS
370
25
 62
     7
100
AcDbLine
 10
462.36145
 20
352.898727
 11
488.361435
 21
352.898727
  0
LINE
  5
F9
100
AcDbEntity
  8
M1
  6
CONTINUOUS
370
25
 62
     7
100
AcDbLine
 10
466.36145
 20
348.898727
 11
466.36145
 21
346.898727
  0
LINE
  5
FA
100
AcDbEntity
  8
M1
  6
CONTINUOUS
370
25
 62
     7
100
AcDbLine
 10
462.36145
 20
354.398727
 11
462.36145
 21
346.898727
  0
LINE
  5
FB
100
AcDbEntity
  8
M1
  6
CONTINUOUS
370
25
 62
     7
100
AcDbLine
 10
466.36145
 20
348.898727
 11
488.361435
 21
348.898727
  0
LINE
  5
FC
100
AcDbEntity
  8
M1
  6
CONTINUOUS
370
25
 62
     7
100
AcDbLine
 10
440.16153
 20
403.498734
 11
440.16153
 21
394.298721
  0
LINE
  5
FD
100
AcDbEntity
  8
M1
  6
CONTINUOUS
370
25
 62
     7
100
AcDbLine
 10
443.257355
 20
403.498734
 11
438.86145
 21
403.498734
  0
LINE
  5
FE
100
AcDbEntity
  8
M1
  6
CONTINUOUS
370
25
 62
     7
100
AcDbLine
 10
443.257355
 20
394.298721
 11
438.86145
 21
394.298721
  0
LINE
  5
FF
100
AcDbEntity
  8
M1
  6
CONTINUOUS
370
25
 62
     7
100
AcDbLine
 10
443.66153
 20
402.798721
 11
443.66153
 21
394.998734
  0
LINE
  5
100
100
AcDbEntity
  8
M1
  6
CONTINUOUS
370
25
 62
     7
100
AcDbLine
 10
443.661652
 20
402.798813
 11
443.257446
 21
403.498825
  0
LINE
  5
101
100
AcDbEntity
  8
M1
  6
CONTINUOUS
370
25
 62
     7
100
AcDbLine
 10
443.257355
 20
401.398727
 11
440.16153
 21
401.398727
  0
LINE
  5
102
100
AcDbEntity
  8
M1
  6
CONTINUOUS
370
25
 62
     7
100
AcDbLine
 10
443.257355
 20
396.398727
 11
440.16153
 21
396.398727
  0
LINE
  5
103
100
AcDbEntity
  8
M1
  6
CONTINUOUS
370
25
 62
     7
100
AcDbLine
 10
443.661652
 20
394.998734
 11
443.257446
 21
394.29863
  0
LINE
  5
104
100
AcDbEntity
  8
M1
  6
CONTINUOUS
370
25
 62
     7
100
AcDbLine
 10
455.86145
 20
326.398224
 11
455.86145
 21
346.898727
  0
LINE
  5
105
100
AcDbEntity
  8
M1
  6
CONTINUOUS
370
25
 62
     7
100
AcDbLine
 10
445.86145
 20
325.898727
 11
455.36145
 21
325.898727
  0
LINE
  5
106
100
AcDbEntity
  8
M1
  6
CONTINUOUS
370
25
 62
     7
100
AcDbLine
 10
445.86145
 20
309.898727
 11
445.86145
 21
346.898727
  0
LINE
  5
107
100
AcDbEntity
  8
M1
  6
CONTINUOUS
370
25
 62
     7
100
AcDbLine
 10
429.36145
 20
288.898727
 11
437.86145
 21
288.898727
  0
LINE
  5
108
100
AcDbEntity
  8
M1
  6
CONTINUOUS
370
25
 62
     7
100
AcDbLine
 10
438.86145
 20
289.898727
 11
438.86145
 21
346.898727
  0
LINE
  5
109
100
AcDbEntity
  8
M1
  6
CONTINUOUS
370
25
 62
     7
100
AcDbLine
 10
455.361755
 20
325.898834
 11
455.861755
 21
326.398727
  0
LINE
  5
10A
100
AcDbEntity
  8
M1
  6
CONTINUOUS
370
25
 62
     7
100
AcDbLine
 10
442.86145
 20
309.898727
 11
445.86145
 21
309.898727
  0
LINE
  5
10B
100
AcDbEntity
  8
M1
  6
CONTINUOUS
370
25
 62
     7
100
AcDbLine
 10
440.16153
 20
316.298721
 11
440.16153
 21
325.498734
  0
LINE
  5
10C
100
AcDbEntity
  8
M1
  6
CONTINUOUS
370
25
 62
     7
100
AcDbLine
 10
443.257355
 20
316.298721
 11
438.86145
 21
316.298721
  0
LINE
  5
10D
100
AcDbEntity
  8
M1
  6
CONTINUOUS
370
25
 62
     7
100
AcDbLine
 10
443.257355
 20
325.498734
 11
438.86145
 21
325.498734
  0
LINE
  5
10E
100
AcDbEntity
  8
M1
  6
CONTINUOUS
370
25
 62
     7
100
AcDbLine
 10
440.16153
 20
320.599319
 11
438.86145
 21
319.299332
  0
LINE
  5
10F
100
AcDbEntity
  8
M1
  6
CONTINUOUS
370
25
 62
     7
100
AcDbLine
 10
440.161835
 20
322.720428
 11
438.861847
 21
321.420425
  0
LINE
  5
110
100
AcDbEntity
  8
M1
  6
CONTINUOUS
370
25
 62
     7
100
AcDbLine
 10
443.66153
 20
316.998734
 11
443.66153
 21
324.798721
  0
LINE
  5
111
100
AcDbEntity
  8
M1
  6
CONTINUOUS
370
25
 62
     7
100
AcDbLine
 10
443.66153
 20
316.998627
 11
443.257538
 21
316.29863
  0
LINE
  5
112
100
AcDbEntity
  8
M1
  6
CONTINUOUS
370
25
 62
     7
100
AcDbLine
 10
443.257355
 20
318.398727
 11
440.16153
 21
318.398727
  0
LINE
  5
113
100
AcDbEntity
  8
M1
  6
CONTINUOUS
370
25
 62
     7
100
AcDbLine
 10
443.257355
 20
323.398727
 11
440.16153
 21
323.398727
  0
LINE
  5
114
100
AcDbEntity
  8
M1
  6
CONTINUOUS
370
25
 62
     7
100
AcDbLine
 10
443.661438
 20
324.798721
 11
443.257233
 21
325.498734
  0
LINE
  5
115
100
AcDbEntity
  8
M1
  6
CONTINUOUS
370
25
 62
     7
100
AcDbLine
 10
488.361435
 20
340.898727
 11
488.361435
 21
346.898727
  0
LINE
  5
116
100
AcDbEntity
  8
M1
  6
CONTINUOUS
370
25
 62
     7
100
AcDbLine
 10
462.36145
 20
340.898727
 11
488.361435
 21
340.898727
  0
LINE
  5
117
100
AcDbEntity
  8
M1
  6
CONTINUOUS
370
25
 62
     7
100
AcDbLine
 10
466.36145
 20
344.898727
 11
466.36145
 21
346.898727
  0
LINE
  5
118
100
AcDbEntity
  8
M1
  6
CONTINUOUS
370
25
 62
     7
100
AcDbLine
 10
462.36145
 20
339.398727
 11
462.36145
 21
346.898727
  0
LINE
  5
119
100
AcDbEntity
  8
M1
  6
CONTINUOUS
370
25
 62
     7
100
AcDbLine
 10
466.36145
 20
344.898727
 11
488.361435
 21
344.898727
  0
LINE
  5
11A
100
AcDbEntity
  8
M1
  6
CONTINUOUS
370
25
 62
     7
100
AcDbLine
 10
440.16153
 20
290.298721
 11
440.16153
 21
299.498734
  0
LINE
  5
11B
100
AcDbEntity
  8
M1
  6
CONTINUOUS
370
25
 62
     7
100
AcDbLine
 10
443.257355
 20
290.298721
 11
438.86145
 21
290.298721
  0
LINE
  5
11C
100
AcDbEntity
  8
M1
  6
CONTINUOUS
370
25
 62
     7
100
AcDbLine
 10
443.257355
 20
299.498734
 11
438.86145
 21
299.498734
  0
LINE
  5
11D
100
AcDbEntity
  8
M1
  6
CONTINUOUS
370
25
 62
     7
100
AcDbLine
 10
440.161743
 20
294.599228
 11
438.861755
 21
293.299225
  0
LINE
  5
11E
100
AcDbEntity
  8
M1
  6
CONTINUOUS
370
25
 62
     7
100
AcDbLine
 10
440.161835
 20
296.72052
 11
438.861755
 21
295.420532
  0
LINE
  5
11F
100
AcDbEntity
  8
M1
  6
CONTINUOUS
370
25
 62
     7
100
AcDbLine
 10
443.66153
 20
290.998734
 11
443.66153
 21
298.798721
  0
LINE
  5
120
100
AcDbEntity
  8
M1
  6
CONTINUOUS
370
25
 62
     7
100
AcDbLine
 10
443.661133
 20
290.998932
 11
443.256927
 21
290.29892
  0
LINE
  5
121
100
AcDbEntity
  8
M1
  6
CONTINUOUS
370
25
 62
     7
100
AcDbLine
 10
443.257355
 20
292.398727
 11
440.16153
 21
292.398727
  0
LINE
  5
122
100
AcDbEntity
  8
M1
  6
CONTINUOUS
370
25
 62
     7
100
AcDbLine
 10
443.257355
 20
297.398727
 11
440.16153
 21
297.398727
  0
LINE
  5
123
100
AcDbEntity
  8
M1
  6
CONTINUOUS
370
25
 62
     7
100
AcDbLine
 10
443.661438
 20
298.798523
 11
443.257355
 21
299.498734
  0
LINE
  5
124
100
AcDbEntity
  8
M1
  6
CONTINUOUS
370
25
 62
     7
100
AcDbLine
 10
429.361328
 20
413.398514
 11
428.861328
 21
413.898636
  0
LINE
  5
125
100
AcDbEntity
  8
M1
  6
CONTINUOUS
370
25
 62
     7
100
AcDbLine
 10
429.36145
 20
280.398727
 11
428.861542
 21
279.898834
  0
LINE
  5
126
100
AcDbEntity
  8
M1
  6
CONTINUOUS
370
25
 62
     7
100
AcDbLine
 10
435.813446
 20
412.513626
 11
435.813446
 21
418.504623
  0
LINE
  5
127
100
AcDbEntity
  8
M1
  6
CONTINUOUS
370
25
 62
     7
100
AcDbLine
 10
438.613525
 20
412.513626
 11
438.613525
 21
420.376633
  0
LINE
  5
128
100
AcDbEntity
  8
M1
  6
CONTINUOUS
370
25
 62
     7
100
AcDbLine
 10
438.613434
 20
420.376633
 11
435.813354
 21
418.50563
  0
LINE
  5
129
100
AcDbEntity
  8
M1
  6
CONTINUOUS
370
25
 62
     7
100
AcDbLine
 10
438.613525
 20
424.049515
 11
435.813446
 21
422.006516
  0
LINE
  5
12A
100
AcDbEntity
  8
M1
  6
CONTINUOUS
370
25
 62
     7
100
AcDbLine
 10
435.813446
 20
422.006638
 11
435.813446
 21
429.513626
  0
LINE
  5
12B
100
AcDbEntity
  8
M1
  6
CONTINUOUS
370
25
 62
     7
100
AcDbLine
 10
438.613525
 20
424.049637
 11
438.613525
 21
429.513626
  0
LINE
  5
12C
100
AcDbEntity
  8
M1
  6
CONTINUOUS
370
25
 62
     7
100
AcDbLine
 10
431.613434
 20
441.637741
 11
430.213348
 21
439.212723
  0
LINE
  5
12D
100
AcDbEntity
  8
M1
  6
CONTINUOUS
370
25
 62
     7
100
AcDbLine
 10
430.913544
 20
440.42543
 11
424.851654
 21
443.925339
  0
LINE
  5
12E
100
AcDbEntity
  8
M1
  6
CONTINUOUS
370
25
 62
     7
100
AcDbLine
 10
442.813354
 20
441.637619
 11
444.213348
 21
439.21254
  0
LINE
  5
12F
100
AcDbEntity
  8
M1
  6
CONTINUOUS
370
25
 62
     7
100
AcDbLine
 10
443.513428
 20
440.425735
 11
449.575531
 21
443.925735
  0
LINE
  5
130
100
AcDbEntity
  8
M1
  6
CONTINUOUS
370
25
 62
     7
100
AcDbLine
 10
429.36145
 20
406.713638
 11
432.811554
 21
406.713638
  0
LINE
  5
131
100
AcDbEntity
  8
M1
  6
CONTINUOUS
370
25
 62
     7
100
AcDbLine
 10
429.36145
 20
409.513626
 11
432.811554
 21
409.513626
  0
LINE
  5
132
100
AcDbEntity
  8
M1
  6
CONTINUOUS
370
13
 62
     7
100
AcDbLine
 10
639.424561
 20
383.166122
 11
639.424561
 21
374.563431
  0
LINE
  5
133
100
AcDbEntity
  8
M1
  6
CONTINUOUS
370
13
 62
     7
100
AcDbLine
 10
637.637077
 20
346.898727
 11
641.607567
 21
346.898727
  0
LINE
  5
134
100
AcDbEntity
  8
M1
  6
CONTINUOUS
370
25
 62
     7
100
AcDbLine
 10
586.882339
 20
371.461533
 11
617.497139
 21
353.786026
  0
LINE
  5
135
100
AcDbEntity
  8
M1
  6
CONTINUOUS
370
25
 62
     7
100
AcDbLine
 10
591.882645
 20
380.121826
 11
622.497337
 21
362.446426
  0
LINE
  5
136
100
AcDbEntity
  8
M1
  6
CONTINUOUS
370
25
 62
     7
100
AcDbLine
 10
594.375046
 20
368.28952
 11
598.375137
 21
370.59903
  0
LINE
  5
137
100
AcDbEntity
  8
M1
  6
CONTINUOUS
370
25
 62
     7
100
AcDbLine
 10
594.407837
 20
377.509125
 11
598.375244
 21
375.218521
  0
LINE
  5
138
100
AcDbEntity
  8
M1
  6
CONTINUOUS
370
25
 62
     7
100
AcDbLine
 10
590.407745
 20
370.580826
 11
594.375137
 21
368.290131
  0
LINE
  5
139
100
AcDbEntity
  8
M1
  6
CONTINUOUS
370
25
 62
     7
100
AcDbLine
 10
594.407547
 20
377.508224
 11
590.407639
 21
375.198929
  0
LINE
  5
13A
100
AcDbEntity
  8
M1
  6
CONTINUOUS
370
25
 62
     7
100
AcDbLine
 10
598.375443
 20
375.217621
 11
598.375443
 21
370.59903
  0
LINE
  5
13B
100
AcDbEntity
  8
M1
  6
CONTINUOUS
370
25
 62
     7
100
AcDbLine
 10
590.407745
 20
370.580231
 11
590.407745
 21
375.198822
  0
LINE
  5
13C
100
AcDbEntity
  8
M1
  6
CONTINUOUS
370
25
 62
     7
100
AcDbLine
 10
634.424561
 20
404.682816
 11
634.424561
 21
369.331924
  0
LINE
  5
13D
100
AcDbEntity
  8
M1
  6
CONTINUOUS
370
25
 62
     7
100
AcDbLine
 10
644.424561
 20
404.682816
 11
644.424561
 21
369.331924
  0
LINE
  5
13E
100
AcDbEntity
  8
M1
  6
CONTINUOUS
370
25
 62
     7
100
AcDbLine
 10
635.424301
 20
396.607315
 11
639.42424
 21
394.298019
  0
LINE
  5
13F
100
AcDbEntity
  8
M1
  6
CONTINUOUS
370
25
 62
     7
100
AcDbLine
 10
643.424561
 20
401.189316
 11
643.424561
 21
396.608139
  0
LINE
  5
140
100
AcDbEntity
  8
M1
  6
CONTINUOUS
370
25
 62
     7
100
AcDbLine
 10
635.424561
 20
401.189316
 11
635.424561
 21
396.608139
  0
LINE
  5
141
100
AcDbEntity
  8
M1
  6
CONTINUOUS
370
25
 62
     7
100
AcDbLine
 10
643.424622
 20
401.189835
 11
639.424683
 21
403.499222
  0
LINE
  5
142
100
AcDbEntity
  8
M1
  6
CONTINUOUS
370
25
 62
     7
100
AcDbLine
 10
643.424377
 20
396.608231
 11
639.424454
 21
394.298813
  0
LINE
  5
143
100
AcDbEntity
  8
M1
  6
CONTINUOUS
370
25
 62
     7
100
AcDbLine
 10
635.424568
 20
401.189316
 11
639.424454
 21
403.498642
  0
LINE
  5
144
100
AcDbEntity
  8
M1
  6
CONTINUOUS
370
25
 62
     7
100
AcDbLine
 10
686.96714
 20
380.120728
 11
656.352448
 21
362.445328
  0
LINE
  5
145
100
AcDbEntity
  8
M1
  6
CONTINUOUS
370
25
 62
     7
100
AcDbLine
 10
691.967072
 20
371.460434
 11
661.352333
 21
353.785034
  0
LINE
  5
146
100
AcDbEntity
  8
M1
  6
CONTINUOUS
370
25
 62
     7
100
AcDbLine
 10
680.474121
 20
375.217529
 11
680.474121
 21
370.598724
  0
LINE
  5
147
100
AcDbEntity
  8
M1
  6
CONTINUOUS
370
25
 62
     7
100
AcDbLine
 10
688.441639
 20
370.579727
 11
684.474171
 21
368.289124
  0
LINE
  5
148
100
AcDbEntity
  8
M1
  6
CONTINUOUS
370
25
 62
     7
100
AcDbLine
 10
684.441631
 20
377.508026
 11
680.474232
 21
375.217422
  0
LINE
  5
149
100
AcDbEntity
  8
M1
  6
CONTINUOUS
370
25
 62
     7
100
AcDbLine
 10
688.44165
 20
370.579834
 11
688.44165
 21
375.198624
  0
LINE
  5
14A
100
AcDbEntity
  8
M1
  6
CONTINUOUS
370
25
 62
     7
100
AcDbLine
 10
684.473812
 20
368.288727
 11
680.47393
 21
370.598022
  0
LINE
  5
14B
100
AcDbEntity
  8
M1
  6
CONTINUOUS
370
25
 62
     7
100
AcDbLine
 10
684.44096
 20
377.507523
 11
688.44083
 21
375.198227
  0
LINE
  5
14C
100
AcDbEntity
  8
M1
  6
CONTINUOUS
370
25
 62
     7
100
AcDbLine
 10
680.474121
 20
375.217529
 11
680.474121
 21
370.598724
  0
LINE
  5
14D
100
AcDbEntity
  8
M1
  6
CONTINUOUS
370
25
 62
     7
100
AcDbLine
 10
688.44162
 20
370.579834
 11
684.47427
 21
368.28923
  0
LINE
  5
14E
100
AcDbEntity
  8
M1
  6
CONTINUOUS
370
25
 62
     7
100
AcDbLine
 10
684.441631
 20
377.508026
 11
680.474232
 21
375.217422
  0
LINE
  5
14F
100
AcDbEntity
  8
M1
  6
CONTINUOUS
370
25
 62
     7
100
AcDbLine
 10
688.44165
 20
370.579834
 11
688.44165
 21
375.198624
  0
LINE
  5
150
100
AcDbEntity
  8
M1
  6
CONTINUOUS
370
25
 62
     7
100
AcDbLine
 10
684.473518
 20
368.28862
 11
680.473701
 21
370.597931
  0
LINE
  5
151
100
AcDbEntity
  8
M1
  6
CONTINUOUS
370
25
 62
     7
100
AcDbLine
 10
684.44096
 20
377.507523
 11
688.44083
 21
375.198227
  0
LINE
  5
152
100
AcDbEntity
  8
M1
  6
CONTINUOUS
370
25
 62
     7
100
AcDbLine
 10
691.967281
 20
322.337921
 11
661.352417
 21
340.013428
  0
LINE
  5
153
100
AcDbEntity
  8
M1
  6
CONTINUOUS
370
25
 62
     7
100
AcDbLine
 10
686.96727
 20
313.677429
 11
656.352524
 21
331.352829
  0
LINE
  5
154
100
AcDbEntity
  8
M1
  6
CONTINUOUS
370
25
 62
     7
100
AcDbLine
 10
684.474129
 20
325.508026
 11
680.474121
 21
323.198624
  0
LINE
  5
155
100
AcDbEntity
  8
M1
  6
CONTINUOUS
370
25
 62
     7
100
AcDbLine
 10
684.441719
 20
316.290222
 11
680.4743
 21
318.580826
  0
LINE
  5
156
100
AcDbEntity
  8
M1
  6
CONTINUOUS
370
25
 62
     7
100
AcDbLine
 10
688.441761
 20
323.218323
 11
684.47448
 21
325.508926
  0
LINE
  5
157
100
AcDbEntity
  8
M1
  6
CONTINUOUS
370
25
 62
     7
100
AcDbLine
 10
684.441532
 20
316.289124
 11
688.441532
 21
318.598526
  0
LINE
  5
158
100
AcDbEntity
  8
M1
  6
CONTINUOUS
370
25
 62
     7
100
AcDbLine
 10
680.473511
 20
318.580032
 11
680.473511
 21
323.19873
  0
LINE
  5
159
100
AcDbEntity
  8
M1
  6
CONTINUOUS
370
25
 62
     7
100
AcDbLine
 10
688.44128
 20
323.217529
 11
688.44128
 21
318.598831
  0
LINE
  5
15A
100
AcDbEntity
  8
M1
  6
CONTINUOUS
370
25
 62
     7
100
AcDbLine
 10
644.424561
 20
289.114731
 11
644.424561
 21
324.46553
  0
LINE
  5
15B
100
AcDbEntity
  8
M1
  6
CONTINUOUS
370
25
 62
     7
100
AcDbLine
 10
634.424324
 20
289.114731
 11
634.424324
 21
324.46553
  0
LINE
  5
15C
100
AcDbEntity
  8
M1
  6
CONTINUOUS
370
25
 62
     7
100
AcDbLine
 10
643.424873
 20
297.190323
 11
639.424873
 21
299.499725
  0
LINE
  5
15D
100
AcDbEntity
  8
M1
  6
CONTINUOUS
370
25
 62
     7
100
AcDbLine
 10
635.424324
 20
292.608231
 11
635.424324
 21
297.189423
  0
LINE
  5
15E
100
AcDbEntity
  8
M1
  6
CONTINUOUS
370
25
 62
     7
100
AcDbLine
 10
643.424324
 20
292.608231
 11
643.424324
 21
297.189423
  0
LINE
  5
15F
100
AcDbEntity
  8
M1
  6
CONTINUOUS
370
25
 62
     7
100
AcDbLine
 10
635.424683
 20
292.609024
 11
639.424622
 21
290.299622
  0
LINE
  5
160
100
AcDbEntity
  8
M1
  6
CONTINUOUS
370
25
 62
     7
100
AcDbLine
 10
635.4245
 20
297.189819
 11
639.424324
 21
299.49913
  0
LINE
  5
161
100
AcDbEntity
  8
M1
  6
CONTINUOUS
370
25
 62
     7
100
AcDbLine
 10
643.424492
 20
292.608231
 11
639.424614
 21
290.29892
  0
LINE
  5
162
100
AcDbEntity
  8
M1
  6
CONTINUOUS
370
25
 62
     7
100
AcDbLine
 10
591.882141
 20
313.676422
 11
622.496841
 21
331.351822
  0
LINE
  5
163
100
AcDbEntity
  8
M1
  6
CONTINUOUS
370
25
 62
     7
100
AcDbLine
 10
586.882034
 20
322.336823
 11
617.496841
 21
340.012222
  0
LINE
  5
164
100
AcDbEntity
  8
M1
  6
CONTINUOUS
370
25
 62
     7
100
AcDbLine
 10
598.374847
 20
318.580231
 11
598.374847
 21
323.198929
  0
LINE
  5
165
100
AcDbEntity
  8
M1
  6
CONTINUOUS
370
25
 62
     7
100
AcDbLine
 10
590.407547
 20
323.217728
 11
594.374939
 21
325.508331
  0
LINE
  5
166
100
AcDbEntity
  8
M1
  6
CONTINUOUS
370
25
 62
     7
100
AcDbLine
 10
594.407547
 20
316.289429
 11
598.374939
 21
318.580032
  0
LINE
  5
167
100
AcDbEntity
  8
M1
  6
CONTINUOUS
370
25
 62
     7
100
AcDbLine
 10
590.407333
 20
323.217728
 11
590.407333
 21
318.59903
  0
LINE
  5
168
100
AcDbEntity
  8
M1
  6
CONTINUOUS
370
25
 62
     7
100
AcDbLine
 10
594.375534
 20
325.509628
 11
598.375443
 21
323.200226
  0
LINE
  5
169
100
AcDbEntity
  8
M1
  6
CONTINUOUS
370
25
 62
     7
100
AcDbLine
 10
594.407837
 20
316.290634
 11
590.407944
 21
318.59993
  0
LINE
  5
16A
100
AcDbEntity
  8
M1
  6
CONTINUOUS
370
25
 62
     7
100
AcDbLine
 10
626.128838
 20
365.965622
 11
622.337341
 21
372.53273
  0
LINE
  5
16B
100
AcDbEntity
  8
M1
  6
CONTINUOUS
370
25
 62
     7
100
AcDbLine
 10
629.593338
 20
367.959229
 11
625.80114
 21
374.527634
  0
LINE
  5
16C
100
AcDbEntity
  8
M1
  6
CONTINUOUS
370
25
 62
     7
100
AcDbLine
 10
649.288681
 20
367.947021
 11
653.080177
 21
374.514023
  0
LINE
  5
16D
100
AcDbEntity
  8
M1
  6
CONTINUOUS
370
25
 62
     7
100
AcDbLine
 10
652.747292
 20
365.94313
 11
656.539528
 21
372.511429
  0
LINE
  5
16E
100
AcDbEntity
  8
M1
  6
CONTINUOUS
370
25
 62
     7
100
AcDbLine
 10
662.584839
 20
348.87973
 11
670.16785
 21
348.87973
  0
LINE
  5
16F
100
AcDbEntity
  8
M1
  6
CONTINUOUS
370
25
 62
     7
100
AcDbLine
 10
662.578743
 20
344.882523
 11
670.163212
 21
344.882523
  0
LINE
  5
170
100
AcDbEntity
  8
M1
  6
CONTINUOUS
370
25
 62
     7
100
AcDbLine
 10
652.720459
 20
327.832321
 11
656.511963
 21
321.265228
  0
LINE
  5
171
100
AcDbEntity
  8
M1
  6
CONTINUOUS
370
25
 62
     7
100
AcDbLine
 10
649.255852
 20
325.838928
 11
653.048088
 21
319.27063
  0
LINE
  5
172
100
AcDbEntity
  8
M1
  6
CONTINUOUS
370
25
 62
     7
100
AcDbLine
 10
629.560944
 20
325.850632
 11
625.76944
 21
319.283524
  0
LINE
  5
173
100
AcDbEntity
  8
M1
  6
CONTINUOUS
370
25
 62
     7
100
AcDbLine
 10
626.102242
 20
327.854324
 11
622.310043
 21
321.285934
  0
LINE
  5
174
100
AcDbEntity
  8
M1
  6
CONTINUOUS
370
25
 62
     7
100
AcDbLine
 10
616.264542
 20
344.917328
 11
608.681541
 21
344.917328
  0
LINE
  5
175
100
AcDbEntity
  8
M1
  6
CONTINUOUS
370
25
 62
     7
100
AcDbLine
 10
616.27034
 20
348.91452
 11
608.685944
 21
348.91452
  0
LINE
  5
176
100
AcDbEntity
  8
M1
  6
CONTINUOUS
370
13
 62
     7
100
AcDbLine
 10
670.584888
 20
328.90863
 11
663.332397
 21
333.095825
  0
LINE
  5
177
100
AcDbEntity
  8
M1
  6
CONTINUOUS
370
13
 62
     7
100
AcDbLine
 10
670.39307
 20
364.778229
 11
663.672241
 21
360.897934
  0
LINE
  5
178
100
AcDbEntity
  8
M1
  6
CONTINUOUS
370
13
 62
     7
100
AcDbLine
 10
615.494339
 20
360.715134
 11
608.595741
 21
364.698029
  0
LINE
  5
179
100
AcDbEntity
  8
M1
  6
CONTINUOUS
370
13
 62
     7
100
AcDbLine
 10
615.715942
 20
333.210327
 11
608.192444
 21
328.866623
  0
LINE
  5
17A
100
AcDbEntity
  8
M1
  6
CONTINUOUS
370
25
 62
     7
100
AcDbLine
 10
631.924538
 20
348.898727
 11
635.924561
 21
348.898727
  0
LINE
  5
17B
100
AcDbEntity
  8
M1
  6
CONTINUOUS
370
25
 62
     7
100
AcDbLine
 10
635.924561
 20
348.898727
 11
635.924561
 21
344.898727
  0
LINE
  5
17C
100
AcDbEntity
  8
M1
  6
CONTINUOUS
370
25
 62
     7
100
AcDbLine
 10
631.924538
 20
348.898727
 11
631.924538
 21
344.898727
  0
LINE
  5
17D
100
AcDbEntity
  8
M1
  6
CONTINUOUS
370
25
 62
     7
100
AcDbLine
 10
631.924538
 20
344.898727
 11
635.924561
 21
344.898727
  0
LINE
  5
17E
100
AcDbEntity
  8
M1
  6
CONTINUOUS
370
25
 62
     7
100
AcDbLine
 10
687.402592
 20
442.322922
 11
684.6026
 21
447.172623
  0
LINE
  5
17F
100
AcDbEntity
  8
M1
  6
CONTINUOUS
370
25
 62
     7
100
AcDbLine
 10
688.37252
 20
442.882919
 11
686.432629
 21
441.762924
  0
LINE
  5
180
100
AcDbEntity
  8
M1
  6
CONTINUOUS
370
25
 62
     7
100
AcDbLine
 10
698.072361
 20
437.283615
 11
698.072399
 21
435.043533
  0
LINE
  5
181
100
AcDbEntity
  8
M1
  6
CONTINUOUS
370
25
 62
     7
100
AcDbLine
 10
698.07164
 20
436.164536
 11
703.671871
 21
436.164627
  0
LINE
  5
182
100
AcDbEntity
  8
M1
  6
CONTINUOUS
370
25
 62
     7
100
AcDbLine
 10
687.402241
 20
425.524734
 11
690.311661
 21
430.563522
  0
LINE
  5
183
100
AcDbEntity
  8
M1
  6
CONTINUOUS
370
25
 62
     7
100
AcDbLine
 10
683.009331
 20
426.874313
 11
686.432972
 21
432.802414
  0
LINE
  5
184
100
AcDbEntity
  8
M1
  6
CONTINUOUS
370
25
 62
     7
100
AcDbLine
 10
688.37167
 20
431.68364
 11
685.20541
 21
426.199814
  0
LINE
  5
185
100
AcDbEntity
  8
M1
  6
CONTINUOUS
370
25
 62
     7
100
AcDbLine
 10
687.403099
 20
425.525314
 11
683.009541
 21
426.87532
  0
LINE
  5
186
100
AcDbEntity
  8
M1
  6
CONTINUOUS
370
25
 62
     7
100
AcDbLine
 10
685.757519
 20
422.673721
 11
681.474579
 21
424.215836
  0
LINE
  5
187
100
AcDbEntity
  8
M1
  6
CONTINUOUS
370
25
 62
     7
100
AcDbLine
 10
672.35268
 20
399.456833
 11
685.75668
 21
422.674423
  0
LINE
  5
188
100
AcDbEntity
  8
M1
  6
CONTINUOUS
370
25
 62
     7
100
AcDbLine
 10
668.731483
 20
402.144241
 11
681.474911
 21
424.216019
  0
LINE
  5
189
100
AcDbEntity
  8
M1
  6
CONTINUOUS
370
25
 62
     7
100
AcDbLine
 10
683.61684
 20
423.445114
 11
670.47377
 21
400.679642
  0
LINE
  5
18A
100
AcDbEntity
  8
M1
  6
CONTINUOUS
370
25
 62
     7
100
AcDbLine
 10
438.861328
 20
399.420334
 11
440.161438
 21
400.720413
  0
LINE
  5
18B
100
AcDbEntity
  8
M1
  6
CONTINUOUS
370
25
 62
     7
100
AcDbLine
 10
438.86145
 20
373.201523
 11
440.161438
 21
374.501526
  0
LINE
  5
18C
100
AcDbEntity
  8
M1
  6
CONTINUOUS
370
25
 62
     7
100
AcDbLine
 10
438.861328
 20
397.581924
 11
440.161438
 21
398.881912
  0
LINE
  5
18D
100
AcDbEntity
  8
M1
  6
CONTINUOUS
370
25
 62
     7
100
AcDbLine
 10
438.86145
 20
371.363022
 11
440.16153
 21
372.663025
  0
LINE
  5
18E
100
AcDbEntity
  8
M1
  6
CONTINUOUS
370
25
 62
     7
100
AcDbLine
 10
381.56134
 20
321.271225
 11
382.861328
 21
322.571228
  0
LINE
  5
18F
100
AcDbEntity
  8
M1
  6
CONTINUOUS
370
25
 62
     7
100
AcDbLine
 10
381.561432
 20
295.085022
 11
382.86145
 21
296.385132
  0
LINE
  5
190
100
AcDbEntity
  8
M1
  6
CONTINUOUS
370
25
 62
     7
100
AcDbLine
 10
381.56134
 20
319.432724
 11
382.861328
 21
320.732834
  0
LINE
  5
191
100
AcDbEntity
  8
M1
  6
CONTINUOUS
370
25
 62
     7
100
AcDbLine
 10
381.56134
 20
293.246628
 11
382.861328
 21
294.546631
  0
LINE
  5
192
100
AcDbEntity
  8
M1
  6
CONTINUOUS
370
13
 62
     7
100
AcDbLine
 10
192.29834
 20
349.417023
 11
192.29834
 21
343.461334
  0
LINE
  5
193
100
AcDbEntity
  8
M1
  6
CONTINUOUS
370
13
 62
     7
100
AcDbLine
 10
192.29834
 20
319.638428
 11
192.29834
 21
310.704834
  0
LINE
  5
194
100
AcDbEntity
  8
M1
  6
CONTINUOUS
370
13
 62
     7
100
AcDbLine
 10
335.63385
 20
346.898727
 11
324.669342
 21
346.898727
  0
LINE
  5
195
100
AcDbEntity
  8
M1
  6
CONTINUOUS
370
13
 62
     7
100
AcDbLine
 10
639.424561
 20
349.417023
 11
639.424561
 21
344.453934
  0
LINE
  5
196
100
AcDbEntity
  8
M1
  6
CONTINUOUS
370
13
 62
     7
100
AcDbLine
 10
639.424561
 20
319.969223
 11
639.424561
 21
311.035629
  0
ARC
  5
197
100
AcDbEntity
  8
M1
  6
CONTINUOUS
370
25
 62
     7
100
AcDbCircle
 10
383.86145
 20
403.898727
 40
1.0
100
AcDbArc
 50
90.0
 51
180.0
  0
ARC
  5
198
100
AcDbEntity
  8
M1
  6
CONTINUOUS
370
25
 62
     7
100
AcDbCircle
 10
378.86145
 20
387.898727
 40
4.0
100
AcDbArc
 50
270.0
 51
360.0
  0
ARC
  5
199
100
AcDbEntity
  8
M1
  6
CONTINUOUS
370
25
 62
     7
100
AcDbCircle
 10
383.016144
 20
377.470734
 40
5.000077
100
AcDbArc
 50
187.723953
 51
204.564558
  0
ARC
  5
19A
100
AcDbEntity
  8
M1
  6
CONTINUOUS
370
25
 62
     7
100
AcDbCircle
 10
383.016144
 20
368.326721
 40
5.000053
100
AcDbArc
 50
155.43544
 51
172.276045
  0
ARC
  5
19B
100
AcDbEntity
  8
M1
  6
CONTINUOUS
370
25
 62
     7
100
AcDbCircle
 10
355.36145
 20
346.898727
 40
2.0
100
AcDbArc
 50
0.0
 51
90.0
  0
CIRCLE
  5
19C
100
AcDbEntity
  8
M1
  6
CONTINUOUS
370
25
 62
     7
100
AcDbCircle
 10
192.29834
 20
346.898727
 40
67.0
  0
CIRCLE
  5
19D
100
AcDbEntity
  8
M1
  6
CONTINUOUS
370
25
 62
     7
100
AcDbCircle
 10
192.29834
 20
346.898727
 40
58.0
  0
CIRCLE
  5
19E
100
AcDbEntity
  8
M1
  6
CONTINUOUS
370
25
 62
     7
100
AcDbCircle
 10
192.29834
 20
346.898727
 40
21.0
  0
CIRCLE
  5
19F
100
AcDbEntity
  8
M1
  6
CONTINUOUS
370
25
 62
     7
100
AcDbCircle
 10
192.29834
 20
346.898727
 40
16.0
  0
ARC
  5
1A0
100
AcDbEntity
  8
M1
  6
CONTINUOUS
370
25
 62
     7
100
AcDbCircle
 10
192.29834
 20
346.898727
 40
21.499954
100
AcDbArc
 50
47.330162
 51
72.670023
  0
CIRCLE
  5
1A1
100
AcDbEntity
  8
M1
  6
CONTINUOUS
370
25
 62
     7
100
AcDbCircle
 10
237.331635
 20
372.898727
 40
4.0
  0
ARC
  5
1A2
100
AcDbEntity
  8
M1
  6
CONTINUOUS
370
25
 62
     7
100
AcDbCircle
 10
220.011169
 20
362.898727
 40
5.000048
100
AcDbArc
 50
299.999268
 51
480.000183
  0
CIRCLE
  5
1A3
100
AcDbEntity
  8
M1
  6
CONTINUOUS
370
13
 62
     7
100
AcDbCircle
 10
220.011169
 20
362.898727
 40
2.499969
  0
CIRCLE
  5
1A4
100
AcDbEntity
  8
M1
  6
CONTINUOUS
370
25
 62
     7
100
AcDbCircle
 10
220.011169
 20
362.898727
 40
2.066956
  0
CIRCLE
  5
1A5
100
AcDbEntity
  8
M1
  6
CONTINUOUS
370
13
 62
     7
100
AcDbCircle
 10
192.29834
 20
378.898727
 40
2.5
  0
CIRCLE
  5
1A6
100
AcDbEntity
  8
M1
  6
CONTINUOUS
370
25
 62
     7
100
AcDbCircle
 10
192.29834
 20
378.898727
 40
2.067017
  0
CIRCLE
  5
1A7
100
AcDbEntity
  8
M1
  6
CONTINUOUS
370
25
 62
     7
100
AcDbCircle
 10
192.29834
 20
398.898727
 40
4.0
  0
ARC
  5
1A8
100
AcDbEntity
  8
M1
  6
CONTINUOUS
370
25
 62
     7
100
AcDbCircle
 10
192.29834
 20
378.898727
 40
5.0
100
AcDbArc
 50
0.0
 51
180.0
  0
CIRCLE
  5
1A9
100
AcDbEntity
  8
M1
  6
CONTINUOUS
370
13
 62
     7
100
AcDbCircle
 10
164.58551
 20
362.898727
 40
2.5
  0
CIRCLE
  5
1AA
100
AcDbEntity
  8
M1
  6
CONTINUOUS
370
25
 62
     7
100
AcDbCircle
 10
164.58551
 20
362.898727
 40
2.067017
  0
CIRCLE
  5
1AB
100
AcDbEntity
  8
M1
  6
CONTINUOUS
370
25
 62
     7
100
AcDbCircle
 10
147.265015
 20
372.898727
 40
4.0
  0
ARC
  5
1AC
100
AcDbEntity
  8
M1
  6
CONTINUOUS
370
25
 62
     7
100
AcDbCircle
 10
164.58551
 20
362.898727
 40
4.999971
100
AcDbArc
 50
59.999805
 51
239.999805
  0
CIRCLE
  5
1AD
100
AcDbEntity
  8
M1
  6
CONTINUOUS
370
13
 62
     7
100
AcDbCircle
 10
164.58551
 20
362.898727
 40
2.5
  0
CIRCLE
  5
1AE
100
AcDbEntity
  8
M1
  6
CONTINUOUS
370
25
 62
     7
100
AcDbCircle
 10
164.58551
 20
362.898727
 40
2.067017
  0
CIRCLE
  5
1AF
100
AcDbEntity
  8
M1
  6
CONTINUOUS
370
25
 62
     7
100
AcDbCircle
 10
147.265015
 20
372.898727
 40
4.0
  0
ARC
  5
1B0
100
AcDbEntity
  8
M1
  6
CONTINUOUS
370
25
 62
     7
100
AcDbCircle
 10
164.58551
 20
362.898727
 40
4.999971
100
AcDbArc
 50
59.999805
 51
239.999805
  0
CIRCLE
  5
1B1
100
AcDbEntity
  8
M1
  6
CONTINUOUS
370
13
 62
     7
100
AcDbCircle
 10
164.58551
 20
330.898727
 40
2.5
  0
CIRCLE
  5
1B2
100
AcDbEntity
  8
M1
  6
CONTINUOUS
370
25
 62
     7
100
AcDbCircle
 10
164.58551
 20
330.898727
 40
2.067017
  0
CIRCLE
  5
1B3
100
AcDbEntity
  8
M1
  6
CONTINUOUS
370
25
 62
     7
100
AcDbCircle
 10
147.265015
 20
320.898727
 40
4.0
  0
ARC
  5
1B4
100
AcDbEntity
  8
M1
  6
CONTINUOUS
370
25
 62
     7
100
AcDbCircle
 10
164.58551
 20
330.898727
 40
5.000063
100
AcDbArc
 50
119.99958
 51
300.000191
  0
CIRCLE
  5
1B5
100
AcDbEntity
  8
M1
  6
CONTINUOUS
370
13
 62
     7
100
AcDbCircle
 10
192.29834
 20
314.898834
 40
2.5
  0
CIRCLE
  5
1B6
100
AcDbEntity
  8
M1
  6
CONTINUOUS
370
25
 62
     7
100
AcDbCircle
 10
192.29834
 20
314.898834
 40
2.067017
  0
CIRCLE
  5
1B7
100
AcDbEntity
  8
M1
  6
CONTINUOUS
370
25
 62
     7
100
AcDbCircle
 10
192.29834
 20
294.898727
 40
4.0
  0
ARC
  5
1B8
100
AcDbEntity
  8
M1
  6
CONTINUOUS
370
25
 62
     7
100
AcDbCircle
 10
192.29834
 20
314.898834
 40
5.0
100
AcDbArc
 50
180.0
 51
360.0
  0
CIRCLE
  5
1B9
100
AcDbEntity
  8
M1
  6
CONTINUOUS
370
13
 62
     7
100
AcDbCircle
 10
220.011169
 20
330.898727
 40
2.499969
  0
CIRCLE
  5
1BA
100
AcDbEntity
  8
M1
  6
CONTINUOUS
370
25
 62
     7
100
AcDbCircle
 10
220.011169
 20
330.898727
 40
2.066956
  0
CIRCLE
  5
1BB
100
AcDbEntity
  8
M1
  6
CONTINUOUS
370
25
 62
     7
100
AcDbCircle
 10
237.331635
 20
320.898727
 40
4.0
  0
ARC
  5
1BC
100
AcDbEntity
  8
M1
  6
CONTINUOUS
370
25
 62
     7
100
AcDbCircle
 10
220.011169
 20
330.898727
 40
4.999971
100
AcDbArc
 50
239.999802
 51
420.000717
  0
ARC
  5
1BD
100
AcDbEntity
  8
M1
  6
CONTINUOUS
370
25
 62
     7
100
AcDbCircle
 10
192.29834
 20
346.898727
 40
33.000072
100
AcDbArc
 50
43.050373
 51
52.622041
  0
ARC
  5
1BE
100
AcDbEntity
  8
M1
  6
CONTINUOUS
370
25
 62
     7
100
AcDbCircle
 10
214.951721
 20
368.060623
 40
2.000044
100
AcDbArc
 50
299.999268
 51
403.050179
  0
ARC
  5
1BF
100
AcDbEntity
  8
M1
  6
CONTINUOUS
370
25
 62
     7
100
AcDbCircle
 10
211.117554
 20
371.532928
 40
2.000018
100
AcDbArc
 50
52.621277
 51
149.999191
  0
ARC
  5
1C0
100
AcDbEntity
  8
M1
  6
CONTINUOUS
370
25
 62
     7
100
AcDbCircle
 10
207.32605
 20
364.96582
 40
1.999951
100
AcDbArc
 50
149.999191
 51
230.247261
  0
ARC
  5
1C1
100
AcDbEntity
  8
M1
  6
CONTINUOUS
370
25
 62
     7
100
AcDbCircle
 10
208.226013
 20
364.177521
 40
1.999991
100
AcDbArc
 50
227.328171
 51
299.999275
  0
ARC
  5
1C2
100
AcDbEntity
  8
M1
  6
CONTINUOUS
370
25
 62
     7
100
AcDbCircle
 10
192.29834
 20
346.898727
 40
33.000015
100
AcDbArc
 50
67.444054
 51
76.949938
  0
ARC
  5
1C3
100
AcDbEntity
  8
M1
  6
CONTINUOUS
370
25
 62
     7
100
AcDbCircle
 10
204.189453
 20
375.52742
 40
2.000057
100
AcDbArc
 50
330.000946
 51
427.442848
  0
ARC
  5
1C4
100
AcDbEntity
  8
M1
  6
CONTINUOUS
370
25
 62
     7
100
AcDbCircle
 10
199.29834
 20
377.098129
 40
2.000046
100
AcDbArc
 50
76.950409
 51
180.0
  0
ARC
  5
1C5
100
AcDbEntity
  8
M1
  6
CONTINUOUS
370
25
 62
     7
100
AcDbCircle
 10
200.397217
 20
368.959122
 40
1.999971
100
AcDbArc
 50
249.843903
 51
329.999199
  0
ARC
  5
1C6
100
AcDbEntity
  8
M1
  6
CONTINUOUS
370
25
 62
     7
100
AcDbCircle
 10
199.29834
 20
369.331924
 40
2.0
100
AcDbArc
 50
180.0
 51
252.671143
  0
ARC
  5
1C7
100
AcDbEntity
  8
M1
  6
CONTINUOUS
370
25
 62
     7
100
AcDbCircle
 10
192.29834
 20
346.898727
 40
47.499989
100
AcDbArc
 50
57.970242
 51
62.046297
  0
ARC
  5
1C8
100
AcDbEntity
  8
M1
  6
CONTINUOUS
370
25
 62
     7
100
AcDbCircle
 10
192.29834
 20
346.898727
 40
37.499931
100
AcDbArc
 50
57.970173
 51
62.046324
  0
ARC
  5
1C9
100
AcDbEntity
  8
M1
  6
CONTINUOUS
370
25
 62
     7
100
AcDbCircle
 10
214.838623
 20
382.929031
 40
5.000034
100
AcDbArc
 50
237.970535
 51
417.970444
  0
ARC
  5
1CA
100
AcDbEntity
  8
M1
  6
CONTINUOUS
370
25
 62
     7
100
AcDbCircle
 10
212.22052
 20
384.440125
 40
4.999977
100
AcDbArc
 50
62.045879
 51
242.04649
  0
ARC
  5
1CB
100
AcDbEntity
  8
M1
  6
CONTINUOUS
370
25
 62
     7
100
AcDbCircle
 10
169.74762
 20
382.922531
 40
4.999964
100
AcDbArc
 50
122.045639
 51
302.046234
  0
ARC
  5
1CC
100
AcDbEntity
  8
M1
  6
CONTINUOUS
370
25
 62
     7
100
AcDbCircle
 10
192.29834
 20
346.898727
 40
47.499992
100
AcDbArc
 50
117.970192
 51
122.04628
  0
ARC
  5
1CD
100
AcDbEntity
  8
M1
  6
CONTINUOUS
370
25
 62
     7
100
AcDbCircle
 10
172.365356
 20
384.434326
 40
4.999958
100
AcDbArc
 50
297.970856
 51
477.970276
  0
ARC
  5
1CE
100
AcDbEntity
  8
M1
  6
CONTINUOUS
370
25
 62
     7
100
AcDbCircle
 10
192.29834
 20
346.898727
 40
37.499985
100
AcDbArc
 50
117.970093
 51
122.046376
  0
ARC
  5
1CF
100
AcDbEntity
  8
M1
  6
CONTINUOUS
370
25
 62
     7
100
AcDbCircle
 10
192.29834
 20
346.898727
 40
33.000046
100
AcDbArc
 50
103.050476
 51
112.622104
  0
ARC
  5
1D0
100
AcDbEntity
  8
M1
  6
CONTINUOUS
370
25
 62
     7
100
AcDbCircle
 10
185.29834
 20
377.098022
 40
2.0
100
AcDbArc
 50
0.0
 51
103.052902
  0
ARC
  5
1D1
100
AcDbEntity
  8
M1
  6
CONTINUOUS
370
25
 62
     7
100
AcDbCircle
 10
180.374146
 20
375.513626
 40
2.00007
100
AcDbArc
 50
112.620773
 51
209.996407
  0
ARC
  5
1D2
100
AcDbEntity
  8
M1
  6
CONTINUOUS
370
25
 62
     7
100
AcDbCircle
 10
184.165649
 20
368.946625
 40
1.999951
100
AcDbArc
 50
210.000809
 51
290.24559
  0
ARC
  5
1D3
100
AcDbEntity
  8
M1
  6
CONTINUOUS
370
25
 62
     7
100
AcDbCircle
 10
185.29834
 20
369.331924
 40
1.999972
100
AcDbArc
 50
287.328857
 51
360.0
  0
ARC
  5
1D4
100
AcDbEntity
  8
M1
  6
CONTINUOUS
370
25
 62
     7
100
AcDbCircle
 10
192.29834
 20
346.898727
 40
21.499992
100
AcDbArc
 50
107.329979
 51
132.670078
  0
ARC
  5
1D5
100
AcDbEntity
  8
M1
  6
CONTINUOUS
370
25
 62
     7
100
AcDbCircle
 10
173.450623
 20
371.511032
 40
2.000103
100
AcDbArc
 50
30.001328
 51
127.442039
  0
ARC
  5
1D6
100
AcDbEntity
  8
M1
  6
CONTINUOUS
370
25
 62
     7
100
AcDbCircle
 10
192.29834
 20
346.898727
 40
32.999973
100
AcDbArc
 50
127.444191
 51
136.949837
  0
ARC
  5
1D7
100
AcDbEntity
  8
M1
  6
CONTINUOUS
370
25
 62
     7
100
AcDbCircle
 10
169.644958
 20
368.060532
 40
2.000083
100
AcDbArc
 50
136.951324
 51
239.999413
  0
ARC
  5
1D8
100
AcDbEntity
  8
M1
  6
CONTINUOUS
370
25
 62
     7
100
AcDbCircle
 10
177.24292
 20
364.942734
 40
1.999967
100
AcDbArc
 50
309.841492
 51
390.000793
  0
ARC
  5
1D9
100
AcDbEntity
  8
M1
  6
CONTINUOUS
370
25
 62
     7
100
AcDbCircle
 10
176.370667
 20
364.177521
 40
2.000044
100
AcDbArc
 50
240.000732
 51
312.671837
  0
ARC
  5
1DA
100
AcDbEntity
  8
M1
  6
CONTINUOUS
370
25
 62
     7
100
AcDbCircle
 10
149.825439
 20
345.381226
 40
5.000017
100
AcDbArc
 50
182.047089
 51
362.045868
  0
ARC
  5
1DB
100
AcDbEntity
  8
M1
  6
CONTINUOUS
370
25
 62
     7
100
AcDbCircle
 10
192.29834
 20
346.898727
 40
47.500019
100
AcDbArc
 50
177.970215
 51
182.046322
  0
ARC
  5
1DC
100
AcDbEntity
  8
M1
  6
CONTINUOUS
370
25
 62
     7
100
AcDbCircle
 10
149.825012
 20
348.404022
 40
5.000082
100
AcDbArc
 50
357.971313
 51
537.970062
  0
ARC
  5
1DD
100
AcDbEntity
  8
M1
  6
CONTINUOUS
370
25
 62
     7
100
AcDbCircle
 10
192.29834
 20
346.898727
 40
37.499912
100
AcDbArc
 50
177.970093
 51
182.046428
  0
ARC
  5
1DE
100
AcDbEntity
  8
M1
  6
CONTINUOUS
370
25
 62
     7
100
AcDbCircle
 10
192.29834
 20
346.898727
 40
32.999996
100
AcDbArc
 50
163.0504
 51
172.622164
  0
ARC
  5
1DF
100
AcDbEntity
  8
M1
  6
CONTINUOUS
370
25
 62
     7
100
AcDbCircle
 10
162.644958
 20
355.936234
 40
2.000031
100
AcDbArc
 50
60.000507
 51
163.052982
  0
ARC
  5
1E0
100
AcDbEntity
  8
M1
  6
CONTINUOUS
370
25
 62
     7
100
AcDbCircle
 10
161.554932
 20
350.879532
 40
2.000074
100
AcDbArc
 50
172.623413
 51
270.0
  0
ARC
  5
1E1
100
AcDbEntity
  8
M1
  6
CONTINUOUS
370
25
 62
     7
100
AcDbCircle
 10
169.137939
 20
350.879532
 40
2.0
100
AcDbArc
 50
270.0
 51
350.247063
  0
ARC
  5
1E2
100
AcDbEntity
  8
M1
  6
CONTINUOUS
370
25
 62
     7
100
AcDbCircle
 10
169.370667
 20
352.053131
 40
2.000003
100
AcDbArc
 50
347.32901
 51
420.00074
  0
ARC
  5
1E3
100
AcDbEntity
  8
M1
  6
CONTINUOUS
370
25
 62
     7
100
AcDbCircle
 10
192.29834
 20
346.898727
 40
21.499914
100
AcDbArc
 50
167.329987
 51
192.670021
  0
ARC
  5
1E4
100
AcDbEntity
  8
M1
  6
CONTINUOUS
370
25
 62
     7
100
AcDbCircle
 10
161.55957
 20
342.882324
 40
2.0
100
AcDbArc
 50
90.0
 51
187.443398
  0
ARC
  5
1E5
100
AcDbEntity
  8
M1
  6
CONTINUOUS
370
25
 62
     7
100
AcDbCircle
 10
192.29834
 20
346.898727
 40
33.000065
100
AcDbArc
 50
187.444183
 51
196.949924
  0
ARC
  5
1E6
100
AcDbEntity
  8
M1
  6
CONTINUOUS
370
25
 62
     7
100
AcDbCircle
 10
162.644958
 20
337.861221
 40
2.000034
100
AcDbArc
 50
196.950455
 51
299.999268
  0
ARC
  5
1E7
100
AcDbEntity
  8
M1
  6
CONTINUOUS
370
25
 62
     7
100
AcDbCircle
 10
169.144043
 20
342.882324
 40
2.000022
100
AcDbArc
 50
9.843057
 51
90.0
  0
ARC
  5
1E8
100
AcDbEntity
  8
M1
  6
CONTINUOUS
370
25
 62
     7
100
AcDbCircle
 10
169.370667
 20
341.744324
 40
2.000044
100
AcDbArc
 50
299.999268
 51
372.670998
  0
ARC
  5
1E9
100
AcDbEntity
  8
M1
  6
CONTINUOUS
370
25
 62
     7
100
AcDbCircle
 10
172.37616
 20
309.35733
 40
4.99999
100
AcDbArc
 50
242.045959
 51
422.045883
  0
ARC
  5
1EA
100
AcDbEntity
  8
M1
  6
CONTINUOUS
370
25
 62
     7
100
AcDbCircle
 10
192.29834
 20
346.898727
 40
47.499989
100
AcDbArc
 50
237.970245
 51
242.046309
  0
ARC
  5
1EB
100
AcDbEntity
  8
M1
  6
CONTINUOUS
370
25
 62
     7
100
AcDbCircle
 10
169.758057
 20
310.868423
 40
5.000034
100
AcDbArc
 50
57.970539
 51
237.969883
  0
ARC
  5
1EC
100
AcDbEntity
  8
M1
  6
CONTINUOUS
370
25
 62
     7
100
AcDbCircle
 10
192.29834
 20
346.898727
 40
37.499996
100
AcDbArc
 50
237.970016
 51
242.046409
  0
ARC
  5
1ED
100
AcDbEntity
  8
M1
  6
CONTINUOUS
370
25
 62
     7
100
AcDbCircle
 10
192.29834
 20
346.898727
 40
33.000072
100
AcDbArc
 50
223.050369
 51
232.622037
  0
ARC
  5
1EE
100
AcDbEntity
  8
M1
  6
CONTINUOUS
370
25
 62
     7
100
AcDbCircle
 10
169.644958
 20
325.736832
 40
2.000044
100
AcDbArc
 50
119.999275
 51
223.050186
  0
ARC
  5
1EF
100
AcDbEntity
  8
M1
  6
CONTINUOUS
370
25
 62
     7
100
AcDbCircle
 10
173.479126
 20
322.264526
 40
1.999945
100
AcDbArc
 50
232.61969
 51
329.999199
  0
ARC
  5
1F0
100
AcDbEntity
  8
M1
  6
CONTINUOUS
370
25
 62
     7
100
AcDbCircle
 10
177.27063
 20
328.831635
 40
1.999951
100
AcDbArc
 50
329.999207
 51
410.247276
  0
ARC
  5
1F1
100
AcDbEntity
  8
M1
  6
CONTINUOUS
370
25
 62
     7
100
AcDbCircle
 10
176.370667
 20
329.619934
 40
1.999991
100
AcDbArc
 50
47.328167
 51
119.999493
  0
ARC
  5
1F2
100
AcDbEntity
  8
M1
  6
CONTINUOUS
370
25
 62
     7
100
AcDbCircle
 10
192.29834
 20
346.898727
 40
21.499954
100
AcDbArc
 50
227.330154
 51
252.670015
  0
ARC
  5
1F3
100
AcDbEntity
  8
M1
  6
CONTINUOUS
370
25
 62
     7
100
AcDbCircle
 10
180.407227
 20
318.269928
 40
2.000057
100
AcDbArc
 50
150.000946
 51
247.442848
  0
ARC
  5
1F4
100
AcDbEntity
  8
M1
  6
CONTINUOUS
370
25
 62
     7
100
AcDbCircle
 10
192.29834
 20
346.898727
 40
33.000031
100
AcDbArc
 50
247.444061
 51
256.949935
  0
ARC
  5
1F5
100
AcDbEntity
  8
M1
  6
CONTINUOUS
370
25
 62
     7
100
AcDbCircle
 10
185.29834
 20
316.699326
 40
2.000046
100
AcDbArc
 50
256.950409
 51
360.0
  0
ARC
  5
1F6
100
AcDbEntity
  8
M1
  6
CONTINUOUS
370
25
 62
     7
100
AcDbCircle
 10
184.199463
 20
324.838333
 40
1.999971
100
AcDbArc
 50
69.843903
 51
149.999199
  0
ARC
  5
1F7
100
AcDbEntity
  8
M1
  6
CONTINUOUS
370
25
 62
     7
100
AcDbCircle
 10
185.29834
 20
324.46553
 40
2.0
100
AcDbArc
 50
0.0
 51
72.671143
  0
ARC
  5
1F8
100
AcDbEntity
  8
M1
  6
CONTINUOUS
370
25
 62
     7
100
AcDbCircle
 10
214.84906
 20
310.874832
 40
4.999887
100
AcDbArc
 50
302.046204
 51
482.045685
  0
ARC
  5
1F9
100
AcDbEntity
  8
M1
  6
CONTINUOUS
370
25
 62
     7
100
AcDbCircle
 10
192.29834
 20
346.898727
 40
47.499992
100
AcDbArc
 50
297.970184
 51
302.046273
  0
ARC
  5
1FA
100
AcDbEntity
  8
M1
  6
CONTINUOUS
370
25
 62
     7
100
AcDbCircle
 10
212.231323
 20
309.363129
 40
5.000052
100
AcDbArc
 50
117.970291
 51
297.970779
  0
ARC
  5
1FB
100
AcDbEntity
  8
M1
  6
CONTINUOUS
370
25
 62
     7
100
AcDbCircle
 10
192.29834
 20
346.898727
 40
37.499985
100
AcDbArc
 50
297.970093
 51
302.046376
  0
ARC
  5
1FC
100
AcDbEntity
  8
M1
  6
CONTINUOUS
370
25
 62
     7
100
AcDbCircle
 10
192.29834
 20
346.898727
 40
33.000046
100
AcDbArc
 50
283.050476
 51
292.622104
  0
ARC
  5
1FD
100
AcDbEntity
  8
M1
  6
CONTINUOUS
370
25
 62
     7
100
AcDbCircle
 10
199.29834
 20
316.699326
 40
2.0
100
AcDbArc
 50
180.0
 51
283.053596
  0
ARC
  5
1FE
100
AcDbEntity
  8
M1
  6
CONTINUOUS
370
25
 62
     7
100
AcDbCircle
 10
204.222534
 20
318.283722
 40
1.999972
100
AcDbArc
 50
292.621948
 51
390.000801
  0
ARC
  5
1FF
100
AcDbEntity
  8
M1
  6
CONTINUOUS
370
25
 62
     7
100
AcDbCircle
 10
200.43103
 20
324.85083
 40
1.999951
100
AcDbArc
 50
30.000805
 51
110.245586
  0
ARC
  5
200
100
AcDbEntity
  8
M1
  6
CONTINUOUS
370
25
 62
     7
100
AcDbCircle
 10
199.29834
 20
324.46553
 40
1.999972
100
AcDbArc
 50
107.328857
 51
180.0
  0
ARC
  5
201
100
AcDbEntity
  8
M1
  6
CONTINUOUS
370
25
 62
     7
100
AcDbCircle
 10
192.29834
 20
346.898727
 40
21.499992
100
AcDbArc
 50
287.329987
 51
312.669847
  0
ARC
  5
202
100
AcDbEntity
  8
M1
  6
CONTINUOUS
370
25
 62
     7
100
AcDbCircle
 10
211.146057
 20
322.286331
 40
2.000057
100
AcDbArc
 50
209.999054
 51
307.441772
  0
ARC
  5
203
100
AcDbEntity
  8
M1
  6
CONTINUOUS
370
25
 62
     7
100
AcDbCircle
 10
192.29834
 20
346.898727
 40
32.999973
100
AcDbArc
 50
307.444183
 51
316.949829
  0
ARC
  5
204
100
AcDbEntity
  8
M1
  6
CONTINUOUS
370
25
 62
     7
100
AcDbCircle
 10
214.951721
 20
325.736832
 40
2.000021
100
AcDbArc
 50
316.953247
 51
420.000725
  0
ARC
  5
205
100
AcDbEntity
  8
M1
  6
CONTINUOUS
370
25
 62
     7
100
AcDbCircle
 10
207.35376
 20
328.854721
 40
1.999955
100
AcDbArc
 50
129.841782
 51
210.003075
  0
ARC
  5
206
100
AcDbEntity
  8
M1
  6
CONTINUOUS
370
25
 62
     7
100
AcDbCircle
 10
208.226013
 20
329.619934
 40
2.000031
100
AcDbArc
 50
60.000507
 51
132.671833
  0
ARC
  5
207
100
AcDbEntity
  8
M1
  6
CONTINUOUS
370
25
 62
     7
100
AcDbCircle
 10
234.77124
 20
348.416229
 40
4.999987
100
AcDbArc
 50
2.047093
 51
182.045873
  0
ARC
  5
208
100
AcDbEntity
  8
M1
  6
CONTINUOUS
370
25
 62
     7
100
AcDbCircle
 10
192.29834
 20
346.898727
 40
47.500019
100
AcDbArc
 50
357.970215
 51
362.046323
  0
ARC
  5
209
100
AcDbEntity
  8
M1
  6
CONTINUOUS
370
25
 62
     7
100
AcDbCircle
 10
234.771637
 20
345.393433
 40
5.000024
100
AcDbArc
 50
177.970245
 51
357.970032
  0
ARC
  5
20A
100
AcDbEntity
  8
M1
  6
CONTINUOUS
370
25
 62
     7
100
AcDbCircle
 10
192.29834
 20
346.898727
 40
37.500034
100
AcDbArc
 50
357.970062
 51
362.046412
  0
ARC
  5
20B
100
AcDbEntity
  8
M1
  6
CONTINUOUS
370
25
 62
     7
100
AcDbCircle
 10
192.29834
 20
346.898727
 40
32.999966
100
AcDbArc
 50
343.050385
 51
352.622164
  0
ARC
  5
20C
100
AcDbEntity
  8
M1
  6
CONTINUOUS
370
25
 62
     7
100
AcDbCircle
 10
221.951721
 20
337.861221
 40
2.000044
100
AcDbArc
 50
240.000732
 51
343.050056
  0
ARC
  5
20D
100
AcDbEntity
  8
M1
  6
CONTINUOUS
370
25
 62
     7
100
AcDbCircle
 10
223.041748
 20
342.917923
 40
1.999966
100
AcDbArc
 50
352.619934
 51
450.0
  0
ARC
  5
20E
100
AcDbEntity
  8
M1
  6
CONTINUOUS
370
25
 62
     7
100
AcDbCircle
 10
215.45874
 20
342.917923
 40
2.0
100
AcDbArc
 50
90.0
 51
170.247063
  0
ARC
  5
20F
100
AcDbEntity
  8
M1
  6
CONTINUOUS
370
25
 62
     7
100
AcDbCircle
 10
215.226013
 20
341.744324
 40
2.000003
100
AcDbArc
 50
167.328995
 51
240.000725
  0
ARC
  5
210
100
AcDbEntity
  8
M1
  6
CONTINUOUS
370
25
 62
     7
100
AcDbCircle
 10
192.29834
 20
346.898727
 40
21.499914
100
AcDbArc
 50
347.329987
 51
372.670021
  0
ARC
  5
211
100
AcDbEntity
  8
M1
  6
CONTINUOUS
370
25
 62
     7
100
AcDbCircle
 10
223.03714
 20
350.915131
 40
2.0
100
AcDbArc
 50
270.0
 51
367.443619
  0
ARC
  5
212
100
AcDbEntity
  8
M1
  6
CONTINUOUS
370
25
 62
     7
100
AcDbCircle
 10
192.29834
 20
346.898727
 40
33.000034
100
AcDbArc
 50
7.44419
 51
16.949788
  0
ARC
  5
213
100
AcDbEntity
  8
M1
  6
CONTINUOUS
370
25
 62
     7
100
AcDbCircle
 10
221.951721
 20
355.936234
 40
2.000093
100
AcDbArc
 50
16.949949
 51
119.999495
  0
ARC
  5
214
100
AcDbEntity
  8
M1
  6
CONTINUOUS
370
25
 62
     7
100
AcDbCircle
 10
215.452637
 20
350.915131
 40
2.000022
100
AcDbArc
 50
189.843063
 51
270.0
  0
ARC
  5
215
100
AcDbEntity
  8
M1
  6
CONTINUOUS
370
25
 62
     7
100
AcDbCircle
 10
215.226013
 20
352.053131
 40
2.000044
100
AcDbArc
 50
119.999275
 51
192.671005
  0
ARC
  5
216
100
AcDbEntity
  8
M1
  6
CONTINUOUS
370
13
 62
     7
100
AcDbCircle
 10
192.29834
 20
346.898727
 40
31.999943
100
AcDbArc
 50
22.428812
 51
37.395185
  0
ARC
  5
217
100
AcDbEntity
  8
M1
  6
CONTINUOUS
370
13
 62
     7
100
AcDbCircle
 10
192.29834
 20
346.898727
 40
31.999981
100
AcDbArc
 50
82.565941
 51
97.240358
  0
ARC
  5
218
100
AcDbEntity
  8
M1
  6
CONTINUOUS
370
13
 62
     7
100
AcDbCircle
 10
192.29834
 20
346.898727
 40
32.000061
100
AcDbArc
 50
323.098389
 51
337.182896
  0
ARC
  5
219
100
AcDbEntity
  8
M1
  6
CONTINUOUS
370
13
 62
     7
100
AcDbCircle
 10
192.29834
 20
346.898727
 40
32.000046
100
AcDbArc
 50
143.661224
 51
156.87777
  0
ARC
  5
21A
100
AcDbEntity
  8
M1
  6
CONTINUOUS
370
13
 62
     7
100
AcDbCircle
 10
192.29834
 20
346.898727
 40
32.000027
100
AcDbArc
 50
262.90802
 51
277.889139
  0
ARC
  5
21B
100
AcDbEntity
  8
M1
  6
CONTINUOUS
370
13
 62
     7
100
AcDbCircle
 10
192.29834
 20
346.898727
 40
32.000027
100
AcDbArc
 50
203.702255
 51
216.650104
  0
ARC
  5
21C
100
AcDbEntity
  8
M1
  6
CONTINUOUS
370
25
 62
     7
100
AcDbCircle
 10
192.29834
 20
346.898727
 40
6.000063
100
AcDbArc
 50
19.471006
 51
340.52899
  0
ARC
  5
21D
100
AcDbEntity
  8
M1
  6
CONTINUOUS
370
25
 62
     7
100
AcDbCircle
 10
383.016144
 20
403.470718
 40
5.000075
100
AcDbArc
 50
187.72377
 51
204.56423
  0
ARC
  5
21E
100
AcDbEntity
  8
M1
  6
CONTINUOUS
370
25
 62
     7
100
AcDbCircle
 10
383.016144
 20
394.326736
 40
5.000041
100
AcDbArc
 50
155.43576
 51
172.27622
  0
ARC
  5
21F
100
AcDbEntity
  8
M1
  6
CONTINUOUS
370
25
 62
     7
100
AcDbCircle
 10
383.86145
 20
289.898727
 40
1.0
100
AcDbArc
 50
180.0
 51
270.0
  0
ARC
  5
220
100
AcDbEntity
  8
M1
  6
CONTINUOUS
370
25
 62
     7
100
AcDbCircle
 10
378.86145
 20
305.898727
 40
4.0
100
AcDbArc
 50
0.0
 51
90.0
  0
ARC
  5
221
100
AcDbEntity
  8
M1
  6
CONTINUOUS
370
25
 62
     7
100
AcDbCircle
 10
383.016144
 20
316.326721
 40
5.000053
100
AcDbArc
 50
155.43544
 51
172.276045
  0
ARC
  5
222
100
AcDbEntity
  8
M1
  6
CONTINUOUS
370
25
 62
     7
100
AcDbCircle
 10
383.016144
 20
325.470734
 40
5.000077
100
AcDbArc
 50
187.723953
 51
204.564558
  0
ARC
  5
223
100
AcDbEntity
  8
M1
  6
CONTINUOUS
370
25
 62
     7
100
AcDbCircle
 10
355.36145
 20
346.898727
 40
2.0
100
AcDbArc
 50
270.0
 51
360.0
  0
ARC
  5
224
100
AcDbEntity
  8
M1
  6
CONTINUOUS
370
25
 62
     7
100
AcDbCircle
 10
383.016144
 20
290.326721
 40
5.000053
100
AcDbArc
 50
155.43544
 51
172.276045
  0
ARC
  5
225
100
AcDbEntity
  8
M1
  6
CONTINUOUS
370
25
 62
     7
100
AcDbCircle
 10
383.016144
 20
299.470734
 40
5.000077
100
AcDbArc
 50
187.723953
 51
204.564558
  0
ARC
  5
226
100
AcDbEntity
  8
M1
  6
CONTINUOUS
370
25
 62
     7
100
AcDbCircle
 10
153.049866
 20
437.282913
 40
8.960054
100
AcDbArc
 50
150.000122
 51
210.001289
  0
ARC
  5
227
100
AcDbEntity
  8
M1
  6
CONTINUOUS
370
25
 62
     7
100
AcDbCircle
 10
153.049866
 20
437.282913
 40
11.199931
100
AcDbArc
 50
149.999756
 51
209.998661
  0
ARC
  5
228
100
AcDbEntity
  8
M1
  6
CONTINUOUS
370
25
 62
     7
100
AcDbCircle
 10
133.650818
 20
426.08284
 40
8.960502
100
AcDbArc
 50
30.000935
 51
90.0
  0
ARC
  5
229
100
AcDbEntity
  8
M1
  6
CONTINUOUS
370
25
 62
     7
100
AcDbCircle
 10
133.650818
 20
426.08284
 40
11.200484
100
AcDbArc
 50
30.000769
 51
90.0
  0
ARC
  5
22A
100
AcDbEntity
  8
M1
  6
CONTINUOUS
370
25
 62
     7
100
AcDbCircle
 10
449.813446
 20
429.513626
 40
11.199959
100
AcDbArc
 50
120.001419
 51
180.0
  0
ARC
  5
22B
100
AcDbEntity
  8
M1
  6
CONTINUOUS
370
25
 62
     7
100
AcDbCircle
 10
432.812531
 20
412.513626
 40
5.799988
100
AcDbArc
 50
270.0
 51
360.0
  0
ARC
  5
22C
100
AcDbEntity
  8
M1
  6
CONTINUOUS
370
25
 62
     7
100
AcDbCircle
 10
432.812531
 20
412.513626
 40
3.0
100
AcDbArc
 50
270.0
 51
360.0
  0
ARC
  5
22D
100
AcDbEntity
  8
M1
  6
CONTINUOUS
370
25
 62
     7
100
AcDbCircle
 10
437.86145
 20
403.898727
 40
1.0
100
AcDbArc
 50
0.0
 51
90.0
  0
ARC
  5
22E
100
AcDbEntity
  8
M1
  6
CONTINUOUS
370
25
 62
     7
100
AcDbCircle
 10
442.86145
 20
387.898727
 40
4.0
100
AcDbArc
 50
180.0
 51
270.0
  0
ARC
  5
22F
100
AcDbEntity
  8
M1
  6
CONTINUOUS
370
25
 62
     7
100
AcDbCircle
 10
438.706726
 20
377.470734
 40
5.000053
100
AcDbArc
 50
335.435455
 51
352.27606
  0
ARC
  5
230
100
AcDbEntity
  8
M1
  6
CONTINUOUS
370
25
 62
     7
100
AcDbCircle
 10
438.706726
 20
368.326721
 40
5.000077
100
AcDbArc
 50
7.723949
 51
24.564554
  0
ARC
  5
231
100
AcDbEntity
  8
M1
  6
CONTINUOUS
370
25
 62
     7
100
AcDbCircle
 10
466.36145
 20
346.898727
 40
2.0
100
AcDbArc
 50
90.0
 51
180.0
  0
ARC
  5
232
100
AcDbEntity
  8
M1
  6
CONTINUOUS
370
25
 62
     7
100
AcDbCircle
 10
438.706726
 20
403.470718
 40
5.000041
100
AcDbArc
 50
335.43576
 51
352.27622
  0
ARC
  5
233
100
AcDbEntity
  8
M1
  6
CONTINUOUS
370
25
 62
     7
100
AcDbCircle
 10
438.706726
 20
394.326736
 40
5.000075
100
AcDbArc
 50
7.723776
 51
24.564236
  0
ARC
  5
234
100
AcDbEntity
  8
M1
  6
CONTINUOUS
370
25
 62
     7
100
AcDbCircle
 10
437.86145
 20
289.898727
 40
1.0
100
AcDbArc
 50
270.0
 51
360.0
  0
ARC
  5
235
100
AcDbEntity
  8
M1
  6
CONTINUOUS
370
25
 62
     7
100
AcDbCircle
 10
442.86145
 20
305.898727
 40
4.0
100
AcDbArc
 50
90.0
 51
180.0
  0
ARC
  5
236
100
AcDbEntity
  8
M1
  6
CONTINUOUS
370
25
 62
     7
100
AcDbCircle
 10
438.706726
 20
316.326721
 40
5.000077
100
AcDbArc
 50
7.723949
 51
24.564554
  0
ARC
  5
237
100
AcDbEntity
  8
M1
  6
CONTINUOUS
370
25
 62
     7
100
AcDbCircle
 10
438.706726
 20
325.470734
 40
5.000053
100
AcDbArc
 50
335.435455
 51
352.27606
  0
ARC
  5
238
100
AcDbEntity
  8
M1
  6
CONTINUOUS
370
25
 62
     7
100
AcDbCircle
 10
466.36145
 20
346.898727
 40
2.0
100
AcDbArc
 50
180.0
 51
270.0
  0
ARC
  5
239
100
AcDbEntity
  8
M1
  6
CONTINUOUS
370
25
 62
     7
100
AcDbCircle
 10
438.706726
 20
290.326721
 40
5.000077
100
AcDbArc
 50
7.723949
 51
24.564554
  0
ARC
  5
23A
100
AcDbEntity
  8
M1
  6
CONTINUOUS
370
25
 62
     7
100
AcDbCircle
 10
438.706726
 20
299.470734
 40
5.000053
100
AcDbArc
 50
335.435455
 51
352.27606
  0
ARC
  5
23B
100
AcDbEntity
  8
M1
  6
CONTINUOUS
370
25
 62
     7
100
AcDbCircle
 10
449.813446
 20
429.513626
 40
13.999791
100
AcDbArc
 50
120.000496
 51
180.000004
  0
ARC
  5
23C
100
AcDbEntity
  8
M1
  6
CONTINUOUS
370
25
 62
     7
100
AcDbCircle
 10
424.613525
 20
429.513626
 40
11.199615
100
AcDbArc
 50
0.0
 51
59.998745
  0
ARC
  5
23D
100
AcDbEntity
  8
M1
  6
CONTINUOUS
370
25
 62
     7
100
AcDbCircle
 10
424.613525
 20
429.513626
 40
13.999679
100
AcDbArc
 50
25.840021
 51
59.999258
  0
ARC
  5
23E
100
AcDbEntity
  8
M1
  6
CONTINUOUS
370
25
 62
     7
100
AcDbCircle
 10
639.424561
 20
346.898727
 40
67.0
100
AcDbArc
 50
0.0
 51
58.086349
  0
CIRCLE
  5
23F
100
AcDbEntity
  8
M1
  6
CONTINUOUS
370
25
 62
     7
100
AcDbCircle
 10
639.424561
 20
346.898727
 40
58.0
  0
CIRCLE
  5
240
100
AcDbEntity
  8
M1
  6
CONTINUOUS
370
25
 62
     7
100
AcDbCircle
 10
639.424561
 20
346.898727
 40
21.0
  0
CIRCLE
  5
241
100
AcDbEntity
  8
M1
  6
CONTINUOUS
370
25
 62
     7
100
AcDbCircle
 10
639.424561
 20
346.898727
 40
16.0
  0
ARC
  5
242
100
AcDbEntity
  8
M1
  6
CONTINUOUS
370
25
 62
     7
100
AcDbCircle
 10
639.424561
 20
346.898727
 40
21.5
100
AcDbArc
 50
107.330032
 51
132.669909
  0
CIRCLE
  5
243
100
AcDbEntity
  8
M1
  6
CONTINUOUS
370
25
 62
     7
100
AcDbCircle
 10
594.391235
 20
372.898727
 40
4.0
  0
ARC
  5
244
100
AcDbEntity
  8
M1
  6
CONTINUOUS
370
25
 62
     7
100
AcDbCircle
 10
611.711838
 20
362.898727
 40
4.999921
100
AcDbArc
 50
60.000793
 51
240.000427
  0
CIRCLE
  5
245
100
AcDbEntity
  8
M1
  6
CONTINUOUS
370
13
 62
     7
100
AcDbCircle
 10
611.711838
 20
362.898727
 40
2.5
  0
CIRCLE
  5
246
100
AcDbEntity
  8
M1
  6
CONTINUOUS
370
25
 62
     7
100
AcDbCircle
 10
611.711838
 20
362.898727
 40
2.067001
  0
CIRCLE
  5
247
100
AcDbEntity
  8
M1
  6
CONTINUOUS
370
13
 62
     7
100
AcDbCircle
 10
639.424561
 20
378.898727
 40
2.5
  0
CIRCLE
  5
248
100
AcDbEntity
  8
M1
  6
CONTINUOUS
370
25
 62
     7
100
AcDbCircle
 10
639.424561
 20
378.898727
 40
2.067001
  0
CIRCLE
  5
249
100
AcDbEntity
  8
M1
  6
CONTINUOUS
370
25
 62
     7
100
AcDbCircle
 10
639.424561
 20
398.898727
 40
4.0
  0
ARC
  5
24A
100
AcDbEntity
  8
M1
  6
CONTINUOUS
370
25
 62
     7
100
AcDbCircle
 10
639.424561
 20
378.898727
 40
5.0
100
AcDbArc
 50
0.0
 51
180.0
  0
CIRCLE
  5
24B
100
AcDbEntity
  8
M1
  6
CONTINUOUS
370
13
 62
     7
100
AcDbCircle
 10
667.137329
 20
362.898727
 40
2.5
  0
CIRCLE
  5
24C
100
AcDbEntity
  8
M1
  6
CONTINUOUS
370
25
 62
     7
100
AcDbCircle
 10
667.137329
 20
362.898727
 40
2.067001
  0
CIRCLE
  5
24D
100
AcDbEntity
  8
M1
  6
CONTINUOUS
370
25
 62
     7
100
AcDbCircle
 10
684.45789
 20
372.898727
 40
4.0
  0
ARC
  5
24E
100
AcDbEntity
  8
M1
  6
CONTINUOUS
370
25
 62
     7
100
AcDbCircle
 10
667.137329
 20
362.898727
 40
4.999975
100
AcDbArc
 50
300.000275
 51
480.000198
  0
CIRCLE
  5
24F
100
AcDbEntity
  8
M1
  6
CONTINUOUS
370
13
 62
     7
100
AcDbCircle
 10
667.137329
 20
362.898727
 40
2.5
  0
CIRCLE
  5
250
100
AcDbEntity
  8
M1
  6
CONTINUOUS
370
25
 62
     7
100
AcDbCircle
 10
667.137329
 20
362.898727
 40
2.067001
  0
CIRCLE
  5
251
100
AcDbEntity
  8
M1
  6
CONTINUOUS
370
25
 62
     7
100
AcDbCircle
 10
684.45789
 20
372.898727
 40
4.0
  0
ARC
  5
252
100
AcDbEntity
  8
M1
  6
CONTINUOUS
370
25
 62
     7
100
AcDbCircle
 10
667.137329
 20
362.898727
 40
4.999975
100
AcDbArc
 50
300.000275
 51
480.000198
  0
CIRCLE
  5
253
100
AcDbEntity
  8
M1
  6
CONTINUOUS
370
13
 62
     7
100
AcDbCircle
 10
667.137329
 20
330.898727
 40
2.5
  0
CIRCLE
  5
254
100
AcDbEntity
  8
M1
  6
CONTINUOUS
370
25
 62
     7
100
AcDbCircle
 10
667.137329
 20
330.898727
 40
2.067001
  0
CIRCLE
  5
255
100
AcDbEntity
  8
M1
  6
CONTINUOUS
370
25
 62
     7
100
AcDbCircle
 10
684.45789
 20
320.898727
 40
4.0
  0
ARC
  5
256
100
AcDbEntity
  8
M1
  6
CONTINUOUS
370
25
 62
     7
100
AcDbCircle
 10
667.137329
 20
330.898727
 40
4.999967
100
AcDbArc
 50
239.999878
 51
420.000412
  0
CIRCLE
  5
257
100
AcDbEntity
  8
M1
  6
CONTINUOUS
370
13
 62
     7
100
AcDbCircle
 10
639.424561
 20
314.898834
 40
2.5
  0
CIRCLE
  5
258
100
AcDbEntity
  8
M1
  6
CONTINUOUS
370
25
 62
     7
100
AcDbCircle
 10
639.424561
 20
314.898834
 40
2.067001
  0
CIRCLE
  5
259
100
AcDbEntity
  8
M1
  6
CONTINUOUS
370
25
 62
     7
100
AcDbCircle
 10
639.424561
 20
294.898727
 40
4.0
  0
ARC
  5
25A
100
AcDbEntity
  8
M1
  6
CONTINUOUS
370
25
 62
     7
100
AcDbCircle
 10
639.424561
 20
314.898834
 40
5.0
100
AcDbArc
 50
180.001221
 51
360.0
  0
CIRCLE
  5
25B
100
AcDbEntity
  8
M1
  6
CONTINUOUS
370
13
 62
     7
100
AcDbCircle
 10
611.711838
 20
330.898727
 40
2.5
  0
CIRCLE
  5
25C
100
AcDbEntity
  8
M1
  6
CONTINUOUS
370
25
 62
     7
100
AcDbCircle
 10
611.711838
 20
330.898727
 40
2.067001
  0
CIRCLE
  5
25D
100
AcDbEntity
  8
M1
  6
CONTINUOUS
370
25
 62
     7
100
AcDbCircle
 10
594.391235
 20
320.898727
 40
4.0
  0
ARC
  5
25E
100
AcDbEntity
  8
M1
  6
CONTINUOUS
370
25
 62
     7
100
AcDbCircle
 10
611.711838
 20
330.898727
 40
5.000113
100
AcDbArc
 50
120.000565
 51
300.000198
  0
ARC
  5
25F
100
AcDbEntity
  8
M1
  6
CONTINUOUS
370
25
 62
     7
100
AcDbCircle
 10
639.424561
 20
346.898727
 40
33.000011
100
AcDbArc
 50
127.377945
 51
136.949497
  0
ARC
  5
260
100
AcDbEntity
  8
M1
  6
CONTINUOUS
370
25
 62
     7
100
AcDbCircle
 10
616.771141
 20
368.060623
 40
2.000015
100
AcDbArc
 50
136.948929
 51
240.000732
  0
ARC
  5
261
100
AcDbEntity
  8
M1
  6
CONTINUOUS
370
25
 62
     7
100
AcDbCircle
 10
620.605339
 20
371.532928
 40
1.999958
100
AcDbArc
 50
30.000696
 51
127.376986
  0
ARC
  5
262
100
AcDbEntity
  8
M1
  6
CONTINUOUS
370
25
 62
     7
100
AcDbCircle
 10
624.396843
 20
364.96582
 40
2.000011
100
AcDbArc
 50
309.754242
 51
389.999374
  0
ARC
  5
263
100
AcDbEntity
  8
M1
  6
CONTINUOUS
370
25
 62
     7
100
AcDbCircle
 10
623.496841
 20
364.177521
 40
2.000044
100
AcDbArc
 50
240.000732
 51
312.672005
  0
ARC
  5
264
100
AcDbEntity
  8
M1
  6
CONTINUOUS
370
25
 62
     7
100
AcDbCircle
 10
639.424561
 20
346.898727
 40
33.000004
100
AcDbArc
 50
103.05014
 51
112.555935
  0
ARC
  5
265
100
AcDbEntity
  8
M1
  6
CONTINUOUS
370
25
 62
     7
100
AcDbCircle
 10
627.53344
 20
375.52742
 40
2.0
100
AcDbArc
 50
112.556747
 51
209.999275
  0
ARC
  5
266
100
AcDbEntity
  8
M1
  6
CONTINUOUS
370
25
 62
     7
100
AcDbCircle
 10
632.424538
 20
377.098129
 40
2.000023
100
AcDbArc
 50
0.0
 51
103.049591
  0
ARC
  5
267
100
AcDbEntity
  8
M1
  6
CONTINUOUS
370
25
 62
     7
100
AcDbCircle
 10
631.325638
 20
368.959122
 40
1.999951
100
AcDbArc
 50
210.000809
 51
290.16021
  0
ARC
  5
268
100
AcDbEntity
  8
M1
  6
CONTINUOUS
370
25
 62
     7
100
AcDbCircle
 10
632.424538
 20
369.331924
 40
1.999972
100
AcDbArc
 50
287.328857
 51
360.0
  0
ARC
  5
269
100
AcDbEntity
  8
M1
  6
CONTINUOUS
370
25
 62
     7
100
AcDbCircle
 10
639.424561
 20
346.898727
 40
47.499989
100
AcDbArc
 50
117.953735
 51
122.029805
  0
ARC
  5
26A
100
AcDbEntity
  8
M1
  6
CONTINUOUS
370
25
 62
     7
100
AcDbCircle
 10
639.424561
 20
346.898727
 40
37.500046
100
AcDbArc
 50
117.953667
 51
122.029996
  0
ARC
  5
26B
100
AcDbEntity
  8
M1
  6
CONTINUOUS
370
25
 62
     7
100
AcDbCircle
 10
616.884239
 20
382.929031
 40
4.999948
100
AcDbArc
 50
122.030182
 51
302.029526
  0
ARC
  5
26C
100
AcDbEntity
  8
M1
  6
CONTINUOUS
370
25
 62
     7
100
AcDbCircle
 10
619.502342
 20
384.440125
 40
4.999969
100
AcDbArc
 50
297.953979
 51
477.954056
  0
ARC
  5
26D
100
AcDbEntity
  8
M1
  6
CONTINUOUS
370
25
 62
     7
100
AcDbCircle
 10
661.97522
 20
382.922531
 40
4.999972
100
AcDbArc
 50
237.954208
 51
417.9534
  0
ARC
  5
26E
100
AcDbEntity
  8
M1
  6
CONTINUOUS
370
25
 62
     7
100
AcDbCircle
 10
639.424561
 20
346.898727
 40
47.499992
100
AcDbArc
 50
57.953648
 51
62.029814
  0
ARC
  5
26F
100
AcDbEntity
  8
M1
  6
CONTINUOUS
370
25
 62
     7
100
AcDbCircle
 10
659.357544
 20
384.434326
 40
5.000045
100
AcDbArc
 50
62.029861
 51
242.029205
  0
ARC
  5
270
100
AcDbEntity
  8
M1
  6
CONTINUOUS
370
25
 62
     7
100
AcDbCircle
 10
639.424561
 20
346.898727
 40
37.499985
100
AcDbArc
 50
57.953655
 51
62.029899
  0
ARC
  5
271
100
AcDbEntity
  8
M1
  6
CONTINUOUS
370
25
 62
     7
100
AcDbCircle
 10
639.424561
 20
346.898727
 40
32.999958
100
AcDbArc
 50
67.377869
 51
76.949624
  0
ARC
  5
272
100
AcDbEntity
  8
M1
  6
CONTINUOUS
370
25
 62
     7
100
AcDbCircle
 10
646.424561
 20
377.098022
 40
2.000075
100
AcDbArc
 50
76.948799
 51
180.0
  0
ARC
  5
273
100
AcDbEntity
  8
M1
  6
CONTINUOUS
370
25
 62
     7
100
AcDbCircle
 10
651.348747
 20
375.513626
 40
1.999964
100
AcDbArc
 50
330.00293
 51
427.379021
  0
ARC
  5
274
100
AcDbEntity
  8
M1
  6
CONTINUOUS
370
25
 62
     7
100
AcDbCircle
 10
647.557251
 20
368.946625
 40
1.999984
100
AcDbArc
 50
249.752975
 51
330.000069
  0
ARC
  5
275
100
AcDbEntity
  8
M1
  6
CONTINUOUS
370
25
 62
     7
100
AcDbCircle
 10
646.424561
 20
369.331924
 40
2.0
100
AcDbArc
 50
180.0
 51
252.671143
  0
ARC
  5
276
100
AcDbEntity
  8
M1
  6
CONTINUOUS
370
25
 62
     7
100
AcDbCircle
 10
639.424561
 20
346.898727
 40
21.500011
100
AcDbArc
 50
47.329998
 51
72.670023
  0
ARC
  5
277
100
AcDbEntity
  8
M1
  6
CONTINUOUS
370
25
 62
     7
100
AcDbCircle
 10
658.272217
 20
371.511032
 40
1.999983
100
AcDbArc
 50
52.556396
 51
149.997475
  0
ARC
  5
278
100
AcDbEntity
  8
M1
  6
CONTINUOUS
370
25
 62
     7
100
AcDbCircle
 10
639.424561
 20
346.898727
 40
33.000023
100
AcDbArc
 50
43.050201
 51
52.555811
  0
ARC
  5
279
100
AcDbEntity
  8
M1
  6
CONTINUOUS
370
25
 62
     7
100
AcDbCircle
 10
662.078003
 20
368.060532
 40
1.999972
100
AcDbArc
 50
300.000977
 51
403.050026
  0
ARC
  5
27A
100
AcDbEntity
  8
M1
  6
CONTINUOUS
370
25
 62
     7
100
AcDbCircle
 10
654.47998
 20
364.942734
 40
1.999991
100
AcDbArc
 50
149.999847
 51
230.15799
  0
ARC
  5
27B
100
AcDbEntity
  8
M1
  6
CONTINUOUS
370
25
 62
     7
100
AcDbCircle
 10
655.352287
 20
364.177521
 40
1.999981
100
AcDbArc
 50
227.328491
 51
299.999275
  0
ARC
  5
27C
100
AcDbEntity
  8
M1
  6
CONTINUOUS
370
25
 62
     7
100
AcDbCircle
 10
681.897461
 20
345.381226
 40
4.999998
100
AcDbArc
 50
177.954132
 51
357.952911
  0
ARC
  5
27D
100
AcDbEntity
  8
M1
  6
CONTINUOUS
370
25
 62
     7
100
AcDbCircle
 10
639.424561
 20
346.898727
 40
47.500004
100
AcDbArc
 50
357.953674
 51
362.029783
  0
ARC
  5
27E
100
AcDbEntity
  8
M1
  6
CONTINUOUS
370
25
 62
     7
100
AcDbCircle
 10
681.897831
 20
348.404022
 40
4.999998
100
AcDbArc
 50
2.029942
 51
182.028722
  0
ARC
  5
27F
100
AcDbEntity
  8
M1
  6
CONTINUOUS
370
25
 62
     7
100
AcDbCircle
 10
639.424561
 20
346.898727
 40
37.500004
100
AcDbArc
 50
357.953705
 51
362.029894
  0
ARC
  5
280
100
AcDbEntity
  8
M1
  6
CONTINUOUS
370
25
 62
     7
100
AcDbCircle
 10
639.424561
 20
346.898727
 40
32.999989
100
AcDbArc
 50
7.377837
 51
16.949595
  0
ARC
  5
281
100
AcDbEntity
  8
M1
  6
CONTINUOUS
370
25
 62
     7
100
AcDbCircle
 10
669.078003
 20
355.936234
 40
1.999992
100
AcDbArc
 50
16.947628
 51
119.999493
  0
ARC
  5
282
100
AcDbEntity
  8
M1
  6
CONTINUOUS
370
25
 62
     7
100
AcDbCircle
 10
670.167969
 20
350.879532
 40
2.0
100
AcDbArc
 50
270.0
 51
367.376892
  0
ARC
  5
283
100
AcDbEntity
  8
M1
  6
CONTINUOUS
370
25
 62
     7
100
AcDbCircle
 10
662.584961
 20
350.879532
 40
1.999999
100
AcDbArc
 50
189.753128
 51
270.0
  0
ARC
  5
284
100
AcDbEntity
  8
M1
  6
CONTINUOUS
370
25
 62
     7
100
AcDbCircle
 10
662.352287
 20
352.053131
 40
2.000044
100
AcDbArc
 50
119.999275
 51
192.671097
  0
ARC
  5
285
100
AcDbEntity
  8
M1
  6
CONTINUOUS
370
25
 62
     7
100
AcDbCircle
 10
639.424561
 20
346.898727
 40
21.499996
100
AcDbArc
 50
347.330017
 51
372.669954
  0
ARC
  5
286
100
AcDbEntity
  8
M1
  6
CONTINUOUS
370
25
 62
     7
100
AcDbCircle
 10
670.16333
 20
342.882324
 40
2.000004
100
AcDbArc
 50
352.55658
 51
450.0
  0
ARC
  5
287
100
AcDbEntity
  8
M1
  6
CONTINUOUS
370
25
 62
     7
100
AcDbCircle
 10
639.424561
 20
346.898727
 40
32.999989
100
AcDbArc
 50
343.050201
 51
352.555798
  0
ARC
  5
288
100
AcDbEntity
  8
M1
  6
CONTINUOUS
370
25
 62
     7
100
AcDbCircle
 10
669.078003
 20
337.861221
 40
2.000036
100
AcDbArc
 50
240.001099
 51
343.049278
  0
ARC
  5
289
100
AcDbEntity
  8
M1
  6
CONTINUOUS
370
25
 62
     7
100
AcDbCircle
 10
662.578857
 20
342.882324
 40
2.0
100
AcDbArc
 50
90.0
 51
170.156868
  0
ARC
  5
28A
100
AcDbEntity
  8
M1
  6
CONTINUOUS
370
25
 62
     7
100
AcDbCircle
 10
662.352287
 20
341.744324
 40
1.999988
100
AcDbArc
 50
167.328903
 51
240.000725
  0
ARC
  5
28B
100
AcDbEntity
  8
M1
  6
CONTINUOUS
370
25
 62
     7
100
AcDbCircle
 10
659.346802
 20
309.35733
 40
4.999991
100
AcDbArc
 50
117.95443
 51
297.953575
  0
ARC
  5
28C
100
AcDbEntity
  8
M1
  6
CONTINUOUS
370
25
 62
     7
100
AcDbCircle
 10
639.424561
 20
346.898727
 40
47.499989
100
AcDbArc
 50
297.953705
 51
302.029831
  0
ARC
  5
28D
100
AcDbEntity
  8
M1
  6
CONTINUOUS
370
25
 62
     7
100
AcDbCircle
 10
661.964844
 20
310.868423
 40
4.99994
100
AcDbArc
 50
302.030029
 51
482.029373
  0
ARC
  5
28E
100
AcDbEntity
  8
M1
  6
CONTINUOUS
370
25
 62
     7
100
AcDbCircle
 10
639.424561
 20
346.898727
 40
37.500034
100
AcDbArc
 50
297.953644
 51
302.029945
  0
ARC
  5
28F
100
AcDbEntity
  8
M1
  6
CONTINUOUS
370
25
 62
     7
100
AcDbCircle
 10
639.424561
 20
346.898727
 40
33.0
100
AcDbArc
 50
307.37793
 51
316.949575
  0
ARC
  5
290
100
AcDbEntity
  8
M1
  6
CONTINUOUS
370
25
 62
     7
100
AcDbCircle
 10
662.078003
 20
325.736832
 40
1.999999
100
AcDbArc
 50
316.948486
 51
420.00074
  0
ARC
  5
291
100
AcDbEntity
  8
M1
  6
CONTINUOUS
370
25
 62
     7
100
AcDbCircle
 10
658.243767
 20
322.264526
 40
1.999978
100
AcDbArc
 50
210.000366
 51
307.379967
  0
ARC
  5
292
100
AcDbEntity
  8
M1
  6
CONTINUOUS
370
25
 62
     7
100
AcDbCircle
 10
654.452271
 20
328.831635
 40
1.999987
100
AcDbArc
 50
129.753403
 51
210.000038
  0
ARC
  5
293
100
AcDbEntity
  8
M1
  6
CONTINUOUS
370
25
 62
     7
100
AcDbCircle
 10
655.352287
 20
329.619934
 40
2.000031
100
AcDbArc
 50
60.000507
 51
132.671513
  0
ARC
  5
294
100
AcDbEntity
  8
M1
  6
CONTINUOUS
370
25
 62
     7
100
AcDbCircle
 10
639.424561
 20
346.898727
 40
21.499992
100
AcDbArc
 50
287.329987
 51
312.670012
  0
ARC
  5
295
100
AcDbEntity
  8
M1
  6
CONTINUOUS
370
25
 62
     7
100
AcDbCircle
 10
651.315674
 20
318.269928
 40
1.999997
100
AcDbArc
 50
292.556549
 51
389.999825
  0
ARC
  5
296
100
AcDbEntity
  8
M1
  6
CONTINUOUS
370
25
 62
     7
100
AcDbCircle
 10
639.424561
 20
346.898727
 40
33.000008
100
AcDbArc
 50
283.050201
 51
292.555861
  0
ARC
  5
297
100
AcDbEntity
  8
M1
  6
CONTINUOUS
370
25
 62
     7
100
AcDbCircle
 10
646.424561
 20
316.699326
 40
2.0
100
AcDbArc
 50
180.0
 51
283.048958
  0
ARC
  5
298
100
AcDbEntity
  8
M1
  6
CONTINUOUS
370
25
 62
     7
100
AcDbCircle
 10
647.523438
 20
324.838333
 40
2.000011
100
AcDbArc
 50
29.999821
 51
110.158154
  0
ARC
  5
299
100
AcDbEntity
  8
M1
  6
CONTINUOUS
370
25
 62
     7
100
AcDbCircle
 10
646.424561
 20
324.46553
 40
1.999974
100
AcDbArc
 50
107.329071
 51
180.0
  0
ARC
  5
29A
100
AcDbEntity
  8
M1
  6
CONTINUOUS
370
25
 62
     7
100
AcDbCircle
 10
616.87394
 20
310.874832
 40
5.000013
100
AcDbArc
 50
57.955437
 51
237.9524
  0
ARC
  5
29B
100
AcDbEntity
  8
M1
  6
CONTINUOUS
370
25
 62
     7
100
AcDbCircle
 10
639.424561
 20
346.898727
 40
47.499981
100
AcDbArc
 50
237.953674
 51
242.029867
  0
ARC
  5
29C
100
AcDbEntity
  8
M1
  6
CONTINUOUS
370
25
 62
     7
100
AcDbCircle
 10
619.491539
 20
309.363129
 40
4.999928
100
AcDbArc
 50
242.030136
 51
422.029617
  0
ARC
  5
29D
100
AcDbEntity
  8
M1
  6
CONTINUOUS
370
25
 62
     7
100
AcDbCircle
 10
639.424561
 20
346.898727
 40
37.500004
100
AcDbArc
 50
237.953598
 51
242.02986
  0
ARC
  5
29E
100
AcDbEntity
  8
M1
  6
CONTINUOUS
370
25
 62
     7
100
AcDbCircle
 10
639.424561
 20
346.898727
 40
32.999969
100
AcDbArc
 50
247.377838
 51
256.949695
  0
ARC
  5
29F
100
AcDbEntity
  8
M1
  6
CONTINUOUS
370
25
 62
     7
100
AcDbCircle
 10
632.424538
 20
316.699326
 40
1.999957
100
AcDbArc
 50
256.949799
 51
359.999985
  0
ARC
  5
2A0
100
AcDbEntity
  8
M1
  6
CONTINUOUS
370
25
 62
     7
100
AcDbCircle
 10
627.500343
 20
318.283722
 40
1.999958
100
AcDbArc
 50
149.999298
 51
247.37764
  0
ARC
  5
2A1
100
AcDbEntity
  8
M1
  6
CONTINUOUS
370
25
 62
     7
100
AcDbCircle
 10
631.29184
 20
324.85083
 40
2.000008
100
AcDbArc
 50
69.751137
 51
149.999306
  0
ARC
  5
2A2
100
AcDbEntity
  8
M1
  6
CONTINUOUS
370
25
 62
     7
100
AcDbCircle
 10
632.424538
 20
324.46553
 40
2.000023
100
AcDbArc
 50
0.0
 51
72.671143
  0
ARC
  5
2A3
100
AcDbEntity
  8
M1
  6
CONTINUOUS
370
25
 62
     7
100
AcDbCircle
 10
639.424561
 20
346.898727
 40
21.499981
100
AcDbArc
 50
227.330093
 51
252.66997
  0
ARC
  5
2A4
100
AcDbEntity
  8
M1
  6
CONTINUOUS
370
25
 62
     7
100
AcDbCircle
 10
620.576942
 20
322.286331
 40
2.000027
100
AcDbArc
 50
232.55545
 51
329.999199
  0
ARC
  5
2A5
100
AcDbEntity
  8
M1
  6
CONTINUOUS
370
25
 62
     7
100
AcDbCircle
 10
639.424561
 20
346.898727
 40
32.999996
100
AcDbArc
 50
223.050247
 51
232.555779
  0
ARC
  5
2A6
100
AcDbEntity
  8
M1
  6
CONTINUOUS
370
25
 62
     7
100
AcDbCircle
 10
616.771141
 20
325.736832
 40
2.000044
100
AcDbArc
 50
119.999275
 51
223.046906
  0
ARC
  5
2A7
100
AcDbEntity
  8
M1
  6
CONTINUOUS
370
25
 62
     7
100
AcDbCircle
 10
624.369141
 20
328.854721
 40
2.000004
100
AcDbArc
 50
329.99704
 51
410.158394
  0
ARC
  5
2A8
100
AcDbEntity
  8
M1
  6
CONTINUOUS
370
25
 62
     7
100
AcDbCircle
 10
623.496841
 20
329.619934
 40
1.999997
100
AcDbArc
 50
47.328007
 51
119.999493
  0
ARC
  5
2A9
100
AcDbEntity
  8
M1
  6
CONTINUOUS
370
25
 62
     7
100
AcDbCircle
 10
596.951645
 20
348.416229
 40
4.999979
100
AcDbArc
 50
357.95517
 51
537.952911
  0
ARC
  5
2AA
100
AcDbEntity
  8
M1
  6
CONTINUOUS
370
25
 62
     7
100
AcDbCircle
 10
639.424561
 20
346.898727
 40
47.500019
100
AcDbArc
 50
177.953674
 51
182.029781
  0
ARC
  5
2AB
100
AcDbEntity
  8
M1
  6
CONTINUOUS
370
25
 62
     7
100
AcDbCircle
 10
596.95134
 20
345.393433
 40
5.00004
100
AcDbArc
 50
182.029922
 51
362.029785
  0
ARC
  5
2AC
100
AcDbEntity
  8
M1
  6
CONTINUOUS
370
25
 62
     7
100
AcDbCircle
 10
639.424561
 20
346.898727
 40
37.500038
100
AcDbArc
 50
177.953583
 51
182.029931
  0
ARC
  5
2AD
100
AcDbEntity
  8
M1
  6
CONTINUOUS
370
25
 62
     7
100
AcDbCircle
 10
639.424561
 20
346.898727
 40
33.000046
100
AcDbArc
 50
187.378006
 51
196.949594
  0
ARC
  5
2AE
100
AcDbEntity
  8
M1
  6
CONTINUOUS
370
25
 62
     7
100
AcDbCircle
 10
609.771141
 20
337.861221
 40
2.000085
100
AcDbArc
 50
196.950012
 51
299.999275
  0
ARC
  5
2AF
100
AcDbEntity
  8
M1
  6
CONTINUOUS
370
25
 62
     7
100
AcDbCircle
 10
608.681137
 20
342.917923
 40
2.0
100
AcDbArc
 50
90.0
 51
187.380074
  0
ARC
  5
2B0
100
AcDbEntity
  8
M1
  6
CONTINUOUS
370
25
 62
     7
100
AcDbCircle
 10
616.264137
 20
342.917923
 40
2.000006
100
AcDbArc
 50
9.753084
 51
90.0
  0
ARC
  5
2B1
100
AcDbEntity
  8
M1
  6
CONTINUOUS
370
25
 62
     7
100
AcDbCircle
 10
616.496841
 20
341.744324
 40
2.000044
100
AcDbArc
 50
299.999268
 51
372.670944
  0
ARC
  5
2B2
100
AcDbEntity
  8
M1
  6
CONTINUOUS
370
25
 62
     7
100
AcDbCircle
 10
639.424561
 20
346.898727
 40
21.49995
100
AcDbArc
 50
167.330002
 51
192.669992
  0
ARC
  5
2B3
100
AcDbEntity
  8
M1
  6
CONTINUOUS
370
25
 62
     7
100
AcDbCircle
 10
608.685837
 20
350.915131
 40
2.000053
100
AcDbArc
 50
172.556778
 51
270.0
  0
ARC
  5
2B4
100
AcDbEntity
  8
M1
  6
CONTINUOUS
370
25
 62
     7
100
AcDbCircle
 10
639.424561
 20
346.898727
 40
33.000019
100
AcDbArc
 50
163.050217
 51
172.555786
  0
ARC
  5
2B5
100
AcDbEntity
  8
M1
  6
CONTINUOUS
370
25
 62
     7
100
AcDbCircle
 10
609.771141
 20
355.936234
 40
2.000031
100
AcDbArc
 50
60.000507
 51
163.04916
  0
ARC
  5
2B6
100
AcDbEntity
  8
M1
  6
CONTINUOUS
370
25
 62
     7
100
AcDbCircle
 10
616.270241
 20
350.915131
 40
2.0
100
AcDbArc
 50
270.0
 51
350.157021
  0
ARC
  5
2B7
100
AcDbEntity
  8
M1
  6
CONTINUOUS
370
25
 62
     7
100
AcDbCircle
 10
616.496841
 20
352.053131
 40
2.00001
100
AcDbArc
 50
347.329041
 51
420.000717
  0
ARC
  5
2B8
100
AcDbEntity
  8
M1
  6
CONTINUOUS
370
13
 62
     7
100
AcDbCircle
 10
639.424561
 20
346.898727
 40
31.999941
100
AcDbArc
 50
142.604721
 51
157.571218
  0
ARC
  5
2B9
100
AcDbEntity
  8
M1
  6
CONTINUOUS
370
13
 62
     7
100
AcDbCircle
 10
639.424561
 20
346.898727
 40
31.99995
100
AcDbArc
 50
82.75975
 51
97.433979
  0
ARC
  5
2BA
100
AcDbEntity
  8
M1
  6
CONTINUOUS
370
13
 62
     7
100
AcDbCircle
 10
639.424561
 20
346.898727
 40
32.0
100
AcDbArc
 50
202.817093
 51
216.901711
  0
ARC
  5
2BB
100
AcDbEntity
  8
M1
  6
CONTINUOUS
370
13
 62
     7
100
AcDbCircle
 10
639.424561
 20
346.898727
 40
31.999979
100
AcDbArc
 50
23.122219
 51
36.338849
  0
ARC
  5
2BC
100
AcDbEntity
  8
M1
  6
CONTINUOUS
370
13
 62
     7
100
AcDbCircle
 10
639.424561
 20
346.898727
 40
31.999958
100
AcDbArc
 50
262.110901
 51
277.092033
  0
ARC
  5
2BD
100
AcDbEntity
  8
M1
  6
CONTINUOUS
370
13
 62
     7
100
AcDbCircle
 10
639.424561
 20
346.898727
 40
32.000031
100
AcDbArc
 50
323.349823
 51
336.29769
  0
ARC
  5
2BE
100
AcDbEntity
  8
M1
  6
CONTINUOUS
370
25
 62
     7
100
AcDbCircle
 10
639.424561
 20
346.898727
 40
5.99997
100
AcDbArc
 50
199.471329
 51
520.528671
  0
ARC
  5
2BF
100
AcDbEntity
  8
M1
  6
CONTINUOUS
370
25
 62
     7
100
AcDbCircle
 10
678.673019
 20
437.282913
 40
8.96003
100
AcDbArc
 50
329.998688
 51
390.000027
  0
ARC
  5
2C0
100
AcDbEntity
  8
M1
  6
CONTINUOUS
370
25
 62
     7
100
AcDbCircle
 10
678.673019
 20
437.282913
 40
11.200013
100
AcDbArc
 50
330.001251
 51
390.0
  0
ARC
  5
2C1
100
AcDbEntity
  8
M1
  6
CONTINUOUS
370
25
 62
     7
100
AcDbCircle
 10
670.430279
 20
400.605728
 40
4.000074
100
AcDbArc
 50
94.069168
 51
385.942856
  0
ARC
  5
2C2
100
AcDbEntity
  8
M1
  6
CONTINUOUS
370
25
 62
     7
100
AcDbCircle
 10
698.072041
 20
426.08284
 40
8.960388
100
AcDbArc
 50
90.0
 51
149.998623
  0
ARC
  5
2C3
100
AcDbEntity
  8
M1
  6
CONTINUOUS
370
25
 62
     7
100
AcDbCircle
 10
698.072041
 20
426.08284
 40
11.2005
100
AcDbArc
 50
90.0
 51
149.999027
  0
ARC
  5
2C4
100
AcDbEntity
  8
M1
  6
CONTINUOUS
370
25
 62
     7
100
AcDbCircle
 10
639.424561
 20
346.898727
 40
67.000031
100
AcDbArc
 50
61.917759
 51
360.000004
  0
SPLINE
  5
2C5
100
AcDbEntity
  8
M1
  6
CONTINUOUS
370
25
 62
     7
100
AcDbSpline
210
0.0
220
0.0
230
-1.0
 70
     8
 71
     3
 72
    11
 73
     7
 43
0.0000001
 40
0.0
 40
0.0
 40
0.0
 40
0.0
 40
1.0
 40
1.0
 40
1.0
 40
2.0
 40
2.0
 40
2.0
 40
2.0
 10
378.465546
 20
375.398727
 10
378.205841
 20
374.59552
 10
378.061371
 20
373.747116
 10
378.061371
 20
372.898727
 10
378.061432
 20
372.050339
 10
378.205933
 20
371.201935
 10
378.465607
 20
370.398727
  0
SPLINE
  5
2C6
100
AcDbEntity
  8
M1
  6
CONTINUOUS
370
25
 62
     7
100
AcDbSpline
210
0.0
220
0.0
230
-1.0
 70
     8
 71
     3
 72
    11
 73
     7
 43
0.0000001
 40
0.0
 40
0.0
 40
0.0
 40
0.0
 40
1.0
 40
1.0
 40
1.0
 40
2.0
 40
2.0
 40
2.0
 40
2.0
 10
378.465546
 20
401.398727
 10
378.205841
 20
400.595505
 10
378.061371
 20
399.747116
 10
378.061371
 20
398.898727
 10
378.061432
 20
398.050339
 10
378.205933
 20
397.20195
 10
378.465607
 20
396.398727
  0
SPLINE
  5
2C7
100
AcDbEntity
  8
M1
  6
CONTINUOUS
370
25
 62
     7
100
AcDbSpline
210
0.0
220
0.0
230
-1.0
 70
     8
 71
     3
 72
    11
 73
     7
 43
0.0000001
 40
0.0
 40
0.0
 40
0.0
 40
0.0
 40
1.0
 40
1.0
 40
1.0
 40
2.0
 40
2.0
 40
2.0
 40
2.0
 10
378.465546
 20
318.398727
 10
378.205841
 20
319.201935
 10
378.061371
 20
320.050339
 10
378.061371
 20
320.898727
 10
378.061432
 20
321.747116
 10
378.205933
 20
322.59552
 10
378.465607
 20
323.398727
  0
SPLINE
  5
2C8
100
AcDbEntity
  8
M1
  6
CONTINUOUS
370
25
 62
     7
100
AcDbSpline
210
0.0
220
0.0
230
-1.0
 70
     8
 71
     3
 72
    11
 73
     7
 43
0.0000001
 40
0.0
 40
0.0
 40
0.0
 40
0.0
 40
1.0
 40
1.0
 40
1.0
 40
2.0
 40
2.0
 40
2.0
 40
2.0
 10
378.465546
 20
292.398727
 10
378.205841
 20
293.201935
 10
378.061371
 20
294.050339
 10
378.061371
 20
294.898727
 10
378.061432
 20
295.747116
 10
378.205933
 20
296.59552
 10
378.465607
 20
297.398727
  0
SPLINE
  5
2C9
100
AcDbEntity
  8
M1
  6
CONTINUOUS
370
25
 62
     7
100
AcDbSpline
210
0.0
220
0.0
230
-1.0
 70
     8
 71
     3
 72
    11
 73
     7
 43
0.0000001
 40
0.0
 40
0.0
 40
0.0
 40
0.0
 40
1.0
 40
1.0
 40
1.0
 40
2.0
 40
2.0
 40
2.0
 40
2.0
 10
443.257355
 20
318.398727
 10
443.517059
 20
319.201935
 10
443.66153
 20
320.050339
 10
443.66153
 20
320.898727
 10
443.66153
 20
321.747116
 10
443.517029
 20
322.59552
 10
443.257355
 20
323.398727
  0
SPLINE
  5
2CA
100
AcDbEntity
  8
M1
  6
CONTINUOUS
370
25
 62
     7
100
AcDbSpline
210
0.0
220
0.0
230
-1.0
 70
     8
 71
     3
 72
    11
 73
     7
 43
0.0000001
 40
0.0
 40
0.0
 40
0.0
 40
0.0
 40
1.0
 40
1.0
 40
1.0
 40
2.0
 40
2.0
 40
2.0
 40
2.0
 10
443.257355
 20
292.398727
 10
443.517059
 20
293.201935
 10
443.66153
 20
294.050339
 10
443.66153
 20
294.898727
 10
443.66153
 20
295.747116
 10
443.517029
 20
296.59552
 10
443.257355
 20
297.398727
  0
SPLINE
  5
2CB
100
AcDbEntity
  8
M1
  6
CONTINUOUS
370
25
 62
     7
100
AcDbSpline
210
0.0
220
0.0
230
-1.0
 70
     8
 71
     3
 72
    11
 73
     7
 43
0.0000001
 40
0.0
 40
0.0
 40
0.0
 40
0.0
 40
1.0
 40
1.0
 40
1.0
 40
2.0
 40
2.0
 40
2.0
 40
2.0
 10
443.257355
 20
375.398727
 10
443.517059
 20
374.59552
 10
443.66153
 20
373.747116
 10
443.66153
 20
372.898727
 10
443.66153
 20
372.050339
 10
443.517029
 20
371.201935
 10
443.257355
 20
370.398727
  0
SPLINE
  5
2CC
100
AcDbEntity
  8
M1
  6
CONTINUOUS
370
25
 62
     7
100
AcDbSpline
210
0.0
220
0.0
230
-1.0
 70
     8
 71
     3
 72
    11
 73
     7
 43
0.0000001
 40
0.0
 40
0.0
 40
0.0
 40
0.0
 40
1.0
 40
1.0
 40
1.0
 40
2.0
 40
2.0
 40
2.0
 40
2.0
 10
443.257355
 20
401.398727
 10
443.517059
 20
400.595505
 10
443.66153
 20
399.747116
 10
443.66153
 20
398.898727
 10
443.66153
 20
398.050339
 10
443.517029
 20
397.20195
 10
443.257355
 20
396.398727
  0
SPLINE
  5
2CD
100
AcDbEntity
  8
M1
  6
CONTINUOUS
370
25
 62
     7
100
AcDbSpline
210
0.0
220
0.0
230
-1.0
 70
     8
 71
     3
 72
    11
 73
     7
 43
0.0000001
 40
0.0
 40
0.0
 40
0.0
 40
0.0
 40
1.0
 40
1.0
 40
1.0
 40
2.0
 40
2.0
 40
2.0
 40
2.0
 10
670.430279
 20
400.605728
 10
669.922791
 20
400.520493
 10
669.476997
 20
400.465134
 10
669.170502
 20
400.687759
 10
668.83551
 20
400.931168
 10
668.766426
 20
401.516006
 10
668.7314
 20
402.144363
  0
SPLINE
  5
2CE
100
AcDbEntity
  8
M1
  6
CONTINUOUS
370
25
 62
     7
100
AcDbSpline
210
0.0
220
0.0
230
-1.0
 70
     8
 71
     3
 72
    11
 73
     7
 43
0.0000001
 40
0.0
 40
0.0
 40
0.0
 40
0.0
 40
1.0
 40
1.0
 40
1.0
 40
2.0
 40
2.0
 40
2.0
 40
2.0
 10
672.353642
 20
399.456436
 10
671.811657
 20
399.351883
 10
671.300404
 20
399.31752
 10
670.9963
 20
399.535416
 10
670.703953
 20
399.744888
 10
670.569439
 20
400.184494
 10
670.472893
 20
400.679977
  0
LINE
  5
2CF
100
AcDbEntity
  8
M1
  6
CONTINUOUS
370
25
 62
     7
100
AcDbLine
 10
182.533095
 20
350.3814
 11
182.533095
 21
347.748727
  0
ARC
  5
2D0
100
AcDbEntity
  8
M1
  6
CONTINUOUS
370
25
 62
     7
100
AcDbCircle
 10
183.533095
 20
350.3814
 40
1.0
100
AcDbArc
 50
105.0
 51
180.0
  0
LINE
  5
2D1
100
AcDbEntity
  8
M1
  6
CONTINUOUS
370
25
 62
     7
100
AcDbLine
 10
186.210303
 20
352.134032
 11
183.274276
 21
351.347326
  0
ARC
  5
2D2
100
AcDbEntity
  8
M1
  6
CONTINUOUS
370
25
 62
     7
100
AcDbCircle
 10
185.951484
 20
353.099958
 40
1.0
100
AcDbArc
 50
285.0
 51
319.249897
  0
ARC
  5
2D3
100
AcDbEntity
  8
M1
  6
CONTINUOUS
370
25
 62
     7
100
AcDbCircle
 10
193.14834
 20
346.898727
 40
8.5
100
AcDbArc
 50
220.750103
 51
499.249897
  0
CIRCLE
  5
2D4
100
AcDbEntity
  8
M1
  6
CONTINUOUS
370
25
 62
     7
100
AcDbCircle
 10
184.878482
 20
349.636984
 40
0.85
  0
LINE
  5
2D5
100
AcDbEntity
  8
M1
  6
CONTINUOUS
370
25
 62
     7
100
AcDbLine
 10
182.533095
 20
347.748727
 11
186.358789
 21
347.748727
  0
ARC
  5
2D6
100
AcDbEntity
  8
M1
  6
CONTINUOUS
370
25
 62
     7
100
AcDbCircle
 10
185.951484
 20
340.697497
 40
1.0
100
AcDbArc
 50
40.750103
 51
75.0
  0
LINE
  5
2D7
100
AcDbEntity
  8
M1
  6
CONTINUOUS
370
25
 62
     7
100
AcDbLine
 10
186.210303
 20
341.663423
 11
183.274276
 21
342.450129
  0
ARC
  5
2D8
100
AcDbEntity
  8
M1
  6
CONTINUOUS
370
25
 62
     7
100
AcDbCircle
 10
183.533095
 20
343.416054
 40
1.0
100
AcDbArc
 50
180.0
 51
255.0
  0
LINE
  5
2D9
100
AcDbEntity
  8
M1
  6
CONTINUOUS
370
25
 62
     7
100
AcDbLine
 10
182.533095
 20
346.048727
 11
182.533095
 21
343.416054
  0
LINE
  5
2DA
100
AcDbEntity
  8
M1
  6
CONTINUOUS
370
25
 62
     7
100
AcDbLine
 10
182.533095
 20
346.048727
 11
186.358789
 21
346.048727
  0
CIRCLE
  5
2DB
100
AcDbEntity
  8
M1
  6
CONTINUOUS
370
25
 62
     7
100
AcDbCircle
 10
184.878482
 20
344.160471
 40
0.85
  0
ARC
  5
2DC
100
AcDbEntity
  8
M1
  6
CONTINUOUS
370
25
 62
     7
100
AcDbCircle
 10
638.574561
 20
346.902507
 40
8.5
100
AcDbArc
 50
40.750103
 51
319.249897
  0
ARC
  5
2DD
100
AcDbEntity
  8
M1
  6
CONTINUOUS
370
25
 62
     7
100
AcDbCircle
 10
645.771417
 20
353.103737
 40
1.0
100
AcDbArc
 50
220.750103
 51
255.0
  0
LINE
  5
2DE
100
AcDbEntity
  8
M1
  6
CONTINUOUS
370
25
 62
     7
100
AcDbLine
 10
645.512598
 20
352.137811
 11
648.448624
 21
351.351106
  0
ARC
  5
2DF
100
AcDbEntity
  8
M1
  6
CONTINUOUS
370
25
 62
     7
100
AcDbCircle
 10
648.189805
 20
350.38518
 40
1.0
100
AcDbArc
 50
0.0
 51
75.0
  0
LINE
  5
2E0
100
AcDbEntity
  8
M1
  6
CONTINUOUS
370
25
 62
     7
100
AcDbLine
 10
649.189805
 20
350.38518
 11
649.189805
 21
347.752507
  0
LINE
  5
2E1
100
AcDbEntity
  8
M1
  6
CONTINUOUS
370
25
 62
     7
100
AcDbLine
 10
649.189805
 20
347.752507
 11
645.364111
 21
347.752507
  0
CIRCLE
  5
2E2
100
AcDbEntity
  8
M1
  6
CONTINUOUS
370
25
 62
     7
100
AcDbCircle
 10
646.844419
 20
349.640763
 40
0.85
  0
CIRCLE
  5
2E3
100
AcDbEntity
  8
M1
  6
CONTINUOUS
370
25
 62
     7
100
AcDbCircle
 10
646.844419
 20
344.164251
 40
0.85
  0
LINE
  5
2E4
100
AcDbEntity
  8
M1
  6
CONTINUOUS
370
25
 62
     7
100
AcDbLine
 10
649.189805
 20
346.052507
 11
645.364111
 21
346.052507
  0
LINE
  5
2E5
100
AcDbEntity
  8
M1
  6
CONTINUOUS
370
25
 62
     7
100
AcDbLine
 10
649.189805
 20
346.052507
 11
649.189805
 21
343.419834
  0
ARC
  5
2E6
100
AcDbEntity
  8
M1
  6
CONTINUOUS
370
25
 62
     7
100
AcDbCircle
 10
648.189805
 20
343.419834
 40
1.0
100
AcDbArc
 50
285.0
 51
360.0
  0
LINE
  5
2E7
100
AcDbEntity
  8
M1
  6
CONTINUOUS
370
25
 62
     7
100
AcDbLine
 10
645.512598
 20
341.667202
 11
648.448624
 21
342.453908
  0
ARC
  5
2E8
100
AcDbEntity
  8
M1
  6
CONTINUOUS
370
25
 62
     7
100
AcDbCircle
 10
645.771417
 20
340.701276
 40
1.0
100
AcDbArc
 50
105.0
 51
139.249897
  0
LINE
  5
2E9
100
AcDbEntity
  8
M1
  6
CONTINUOUS
370
25
 62
     7
100
AcDbLine
 10
364.86145
 20
357.548727
 11
365.86145
 21
357.548727
  0
LINE
  5
2EA
100
AcDbEntity
  8
M1
  6
CONTINUOUS
370
25
 62
     7
100
AcDbLine
 10
364.86145
 20
357.548727
 11
364.86145
 21
336.248727
  0
LINE
  5
2EB
100
AcDbEntity
  8
M1
  6
CONTINUOUS
370
25
 62
     7
100
AcDbLine
 10
359.36145
 20
354.398727
 11
364.86145
 21
354.398727
  0
LINE
  5
2EC
100
AcDbEntity
  8
M1
  6
CONTINUOUS
370
25
 62
     7
100
AcDbLine
 10
364.86145
 20
336.248727
 11
365.86145
 21
336.248727
  0
LINE
  5
2ED
100
AcDbEntity
  8
M1
  6
CONTINUOUS
370
25
 62
     7
100
AcDbLine
 10
359.36145
 20
339.398727
 11
364.86145
 21
339.398727
  0
LINE
  5
2EE
100
AcDbEntity
  8
M1
  6
CONTINUOUS
370
25
 62
     7
100
AcDbLine
 10
456.86145
 20
357.548727
 11
456.86145
 21
336.248727
  0
LINE
  5
2EF
100
AcDbEntity
  8
M1
  6
CONTINUOUS
370
25
 62
     7
100
AcDbLine
 10
456.86145
 20
357.548727
 11
455.86145
 21
357.548727
  0
LINE
  5
2F0
100
AcDbEntity
  8
M1
  6
CONTINUOUS
370
25
 62
     7
100
AcDbLine
 10
456.86145
 20
336.248727
 11
455.86145
 21
336.248727
  0
LINE
  5
2F1
100
AcDbEntity
  8
M1
  6
CONTINUOUS
370
25
 62
     7
100
AcDbLine
 10
462.36145
 20
339.398727
 11
456.86145
 21
339.398727
  0
LINE
  5
2F2
100
AcDbEntity
  8
M1
  6
CONTINUOUS
370
25
 62
     7
100
AcDbLine
 10
462.36145
 20
354.398727
 11
456.86145
 21
354.398727
  0
TEXT
  5
2F3
100
AcDbEntity
  8
M2
100
AcDbText
 10
656.053894
 20
159.894028
 40
9.0
  1
ＰＯＣ－０．６
 41
0.713889
  7
STANDARD
100
AcDbText
  0
TEXT
  5
2F4
100
AcDbEntity
  8
M2
100
AcDbText
 10
179.241882
 20
231.442123
 40
9.0
  1
Ｄ１
 41
0.713889
  7
STANDARD
100
AcDbText
  0
TEXT
  5
2F5
100
AcDbEntity
  8
M2
100
AcDbText
 10
400.9039
 20
236.783325
 40
9.0
  1
Ｄ２
 41
0.713889
  7
STANDARD
100
AcDbText
  0
TEXT
  5
2F6
100
AcDbEntity
  8
M2
100
AcDbText
 10
630.576904
 20
235.00293
 40
9.0
  1
Ｄ３
 41
0.713889
  7
STANDARD
100
AcDbText
  0
TEXT
  5
2F7
100
AcDbEntity
  8
M2
100
AcDbText
 10
646.487244
 20
146.827393
 40
9.0
  1
（ＳＤＫ６０２２）
 41
0.713889
  7
STANDARD
100
AcDbText
  0
ENDSEC
  0
SECTION
  2
OBJECTS
  0
DICTIONARY
  5
C
100
AcDbDictionary
  3
ACAD_GROUP
350
D
  3
ACAD_MLINESTYLE
350
E
  0
DICTIONARY
  5
D
102
{ACAD_REACTORS
330
C
102
}
100
AcDbDictionary
  0
DICTIONARY
  5
E
102
{ACAD_REACTORS
330
C
102
}
100
AcDbDictionary
  3
STANDARD
350
13
  0
MLINESTYLE
  5
13
102
{ACAD_REACTORS
330
E
102
}
100
AcDbMlineStyle
  2
STANDARD
 70
     0
  3

 62
     0
 51
90.0
 52
90.0
 71
     2
 49
0.5
 62
   256
  6
BYLAYER
 49
-0.5
 62
   256
  6
BYLAYER
  0
ENDSEC
  0
EOF
