  0
SECTION
  2
HEADER
  9
$ACADVER
  1
AC1015
  9
$INSBASE
 10
0.0
 20
0.0
  9
$VIEWCTR
 10
7.531722
 20
4.5
  9
$VIEWSIZE
 40
9.0
  9
$SNAPMODE
 70
     0
  9
$SNAPUNIT
 10
1.0
 20
1.0
  9
$SNAPBASE
 10
0.0
 20
0.0
  9
$SNAPANG
 50
0.0
  9
$SNAPSTYLE
 70
     0
  9
$SNAPISOPAIR
 70
     0
  9
$GRIDMODE
 70
     0
  9
$GRIDUNIT
 10
0.0
 20
0.0
  9
$ORTHOMODE
 70
     0
  9
$REGENMODE
 70
     1
  9
$FILLMODE
 70
     1
  9
$QTEXTMODE
 70
     0
  9
$DRAGMODE
 70
     2
  9
$LTSCALE
 40
1.0
  9
$OSMODE
 70
     0
  9
$ATTMODE
 70
     1
  9
$TEXTSIZE
 40
0.2
  9
$TRACEWID
 40
0.05
  9
$TEXTSTYLE
  7
STANDARD
  9
$CELTYPE
  6
BYLAYER
  9
$CECOLOR
 62
   256
  9
$DIMSCALE
 40
1.0
  9
$DIMASZ
 40
0.18
  9
$DIMEXO
 40
0.0625
  9
$DIMDLI
 40
0.38
  9
$DIMRND
 40
0.0
  9
$DIMDLE
 40
0.0
  9
$DIMEXE
 40
0.18
  9
$DIMTP
 40
0.0
  9
$DIMTM
 40
0.0
  9
$DIMTXT
 40
0.18
  9
$DIMCEN
 40
0.09
  9
$DIMTSZ
 40
0.0
  9
$DIMADEC
 70
     0
  9
$DIMALTRND
 40
0.000000
  9
$DIMAZIN
 70
     0
  9
$DIMDSEP
 70
    46
  9
$DIMATFIT
 70
     3
  9
$DIMFRAC
 70
     0
  9
$DIMLDRBLK
  1

  9
$DIMLUNIT
 70
     2
  9
$DIMLWD
 70
   13
  9
$DIMLWE
 70
   13
  9
$DIMTMOVE
 70
     0
  9
$CELWEIGHT
370
    25
  9
$LWDISPLAY
290
    1
  9
$EXTNAMES
290
    1
  9
$DIMTOL
 70
     0
  9
$DIMLIM
 70
     0
  9
$DIMTIH
 70
     1
  9
$DIMTOH
 70
     1
  9
$DIMSE1
 70
     0
  9
$DIMSE2
 70
     0
  9
$DIMTAD
 70
     0
  9
$DIMZIN
 70
     0
  9
$DIMBLK
  1

  9
$LUNITS
 70
     2
  9
$LUPREC
 70
     4
  9
$AXISMODE
 70
     0
  9
$AXISUNIT
 10
0.0
 20
0.0
  9
$SKETCHINC
 40
0.1
  9
$FILLETRAD
 40
0.0
  9
$AUNITS
 70
     0
  9
$AUPREC
 70
     0
  9
$MENU
  1
ACAD
  9
$ELEVATION
 40
0.0
  9
$THICKNESS
 40
0.0
  9
$VIEWDIR
 10
0.0
 20
0.0
 30
1.0
  9
$LIMCHECK
 70
     0
  9
$BLIPMODE
 70
     1
  9
$CHAMFERA
 40
0.0
  9
$CHAMFERB
 40
0.0
  9
$FASTZOOM
 70
     1
  9
$SKPOLY
 70
     0
  9
$TDCREATE
 40
0000000.0000000000
  9
$TDUPDATE
 40
0000000.0000000000
  9
$TDINDWG
 40
0.0000000000
  9
$TDUSRTIMER
 40
0.0000000000
  9
$USRTIMER
 70
     1
  9
$ANGBASE
 50
0.0
  9
$ANGDIR
 70
     0
  9
$PDMODE
 70
     0
  9
$PDSIZE
 40
0.0
  9
$PLINEWID
 40
0.0
  9
$COORDS
 70
     0
  9
$USERI1
 70
     0
  9
$USERI2
 70
     0
  9
$USERI3
 70
     0
  9
$USERI4
 70
     0
  9
$USERI5
 70
     0
  9
$USERR1
 40
0.0
  9
$USERR2
 40
0.0
  9
$USERR3
 40
0.0
  9
$USERR4
 40
0.0
  9
$USERR5
 40
0.0
  9
$CLAYER
  8
M1
  9
$EXTMIN
 10
0.0
 20
0.0
  9
$EXTMAX
 10
841.0
 20
594.0
  9
$LIMMIN
 10
0.0
 20
0.0
  9
$LIMMAX
 10
841.0
 20
594.0
  9
$HANDSEED
  5
351
  0
ENDSEC
  0
SECTION
  2
CLASSES
  0
ENDSEC
  0
SECTION
  2
TABLES
  0
TABLE
  2
VPORT
  5
8
100
AcDbSymbolTable
 70
     2
  0
VPORT
  5
14
100
AcDbSymbolTableRecord
100
AcDbViewportTableRecord
  2
*ACTIVE
 70
     0
 10
0.0
 20
0.0
 11
1.0
 21
1.0
 12
484.0
 22
297.0
 13
0.0
 23
0.0
 14
1.0
 24
1.0
 15
0.0
 25
0.0
 16
0.0
 26
0.0
 36
1.0
 17
0.0
 27
0.0
 37
0.0
 40
594.0
 41
2.0
 42
50.0
 43
0.0
 44
0.0
 50
0.0
 51
0.0
 71
     0
 72
   100
 73
     1
 74
     1
 75
     0
 76
     0
 77
     0
 78
     0
  0
ENDTAB
  0
TABLE
  2
LTYPE
  5
5
100
AcDbSymbolTable
 70
     5
  0
LTYPE
  5
15
100
AcDbSymbolTableRecord
100
AcDbLinetypeTableRecord
  2
BYBLOCK
 70
     0
  3

 72
    65
 73
     0
 40
0.0
  0
LTYPE
  5
16
100
AcDbSymbolTableRecord
100
AcDbLinetypeTableRecord
  2
BYLAYER
 70
     0
  3

 72
    65
 73
     0
 40
0.0
  0
LTYPE
  5
17
100
AcDbSymbolTableRecord
100
AcDbLinetypeTableRecord
  2
CONTINUOUS
 70
    64
  3
Solid line
 72
    65
 73
     0
 40
0.0
  0
LTYPE
  5
18
100
AcDbSymbolTableRecord
100
AcDbLinetypeTableRecord
  2
DASHED
 70
    64
  3
__ __ __ __ __ __ __ __ __ __ __ __ __ __ __ __
 72
    65
 73
     2
 40
0.75
 49
0.5
 74
     0
 49
-0.25
 74
     0
  0
LTYPE
  5
19
100
AcDbSymbolTableRecord
100
AcDbLinetypeTableRecord
  2
DASHDOT
 70
    64
  3
__ . __ . __ . __ . __ . __ . __ . __ . __ . __
 72
    65
 73
     4
 40
1.0
 49
0.5
 74
     0
 49
-0.25
 74
     0
 49
0.0
 74
     0
 49
-0.25
 74
     0
  0
LTYPE
  5
1A
100
AcDbSymbolTableRecord
100
AcDbLinetypeTableRecord
  2
DIVIDE
 70
    64
  3
____ . . ____ . . ____ . . ____ . . ____ . . __
 72
    65
 73
     6
 40
1.25
 49
0.5
 74
     0
 49
-0.25
 74
     0
 49
0.0
 74
     0
 49
-0.25
 74
     0
 49
0.0
 74
     0
 49
-0.25
 74
     0
  0
LTYPE
  5
1B
100
AcDbSymbolTableRecord
100
AcDbLinetypeTableRecord
  2
DOT
 70
    64
  3
. . . . . . . . . . . . . . . . . . . . . . . .
 72
    65
 73
     2
 40
0.25
 49
0.0
 74
     0
 49
-0.25
 74
     0
  0
ENDTAB
  0
TABLE
  2
LAYER
  5
2
100
AcDbSymbolTable
 70
   102
  0
LAYER
  5
F
100
AcDbSymbolTableRecord
100
AcDbLayerTableRecord
  2
0
 70
     0
 62
     7
  6
CONTINUOUS
370
     -3
390
F
  0
LAYER
  5
1C
100
AcDbSymbolTableRecord
100
AcDbLayerTableRecord
  2
M1
 70
     0
 62
     3
  6
CONTINUOUS
370
     -3
390
F
  0
LAYER
  5
1D
100
AcDbSymbolTableRecord
100
AcDbLayerTableRecord
  2
M2
 70
     0
 62
     2
  6
CONTINUOUS
370
     -3
390
F
  0
ENDTAB
  0
TABLE
  2
STYLE
  5
3
100
AcDbSymbolTable
 70
     2
  0
STYLE
  5
10
100
AcDbSymbolTableRecord
100
AcDbTextStyleTableRecord
  2
STANDARD
 70
     0
 40
0.0
 41
1.0
 50
0.0
 71
     0
 42
0.2
  3
txt
  4
BIGFONT
  0
ENDTAB
  0
TABLE
  2
VIEW
  5
6
100
AcDbSymbolTable
 70
     0
  0
ENDTAB
  0
TABLE
  2
UCS
  5
7
100
AcDbSymbolTable
 70
     0
  0
ENDTAB
  0
TABLE
  2
APPID
  5
9
100
AcDbSymbolTable
 70
     1
  0
APPID
  5
11
100
AcDbSymbolTableRecord
100
AcDbRegAppTableRecord
  2
ACAD
 70
     0
  0
ENDTAB
  0
TABLE
  2
DIMSTYLE
  5
A
100
AcDbSymbolTable
 70
     2
100
AcDbDimStyleTable
 71
     1
  0
DIMSTYLE
105
24
100
AcDbSymbolTableRecord
100
AcDbDimStyleTableRecord
  2
STANDARD
 70
     0
  3

  4

  5

  6
_OPEN
  7
_OPEN
 40
1.0
 41
3.0
 42
0.5
 43
8.0
 44
1.5
 45
0.0
 46
0.0
 47
0.0
 48
0.0
140
3.15
141
0.09
142
0.0
143
0.03937
144
1.0
145
0.0
146
1.0
147
1.0
148
0.000000
 71
     0
 72
     0
 73
     0
 74
     0
 75
     0
 76
     0
 77
     3
 78
     8
170
     0
171
     2
172
     0
173
     1
174
     0
175
     0
176
     0
177
     0
178
     0
270
     2
271
     2
272
     4
273
     2
274
     2
340
10
275
     0
278
    46
280
     0
281
     0
282
     0
283
     1
284
     0
285
     0
286
     0
287
     3
288
     0
371
   13
372
   13
  0
DIMSTYLE
105
25
100
AcDbSymbolTableRecord
100
AcDbDimStyleTableRecord
  2
LEADSTYL
 70
     0
  3

  4

  5

  6
_OPEN
  7
_OPEN
 40
1.0
 41
3.0
 42
0.0625
 43
0.38
 44
0.18
 45
0.0
 46
0.0
 47
0.0
 48
0.0
140
3.15
141
0.09
142
0.0
143
25.4
144
1.0
145
0.0
146
1.0
147
1.0
 71
     0
 72
     0
 73
     1
 74
     1
 75
     0
 76
     0
 77
     0
 78
     0
170
     0
171
     2
172
     0
173
     1
174
     0
175
     0
176
     0
177
     0
178
     0
270
     2
271
     4
272
     4
273
     2
274
     2
340
10
275
     0
280
     0
281
     0
282
     0
283
     1
284
     0
285
     0
286
     0
287
     3
288
     0
  0
ENDTAB
  0
TABLE
  2
BLOCK_RECORD
  5
1
100
AcDbSymbolTable
 70
     6
  0
BLOCK_RECORD
  5
1E
100
AcDbSymbolTableRecord
100
AcDbBlockTableRecord
  2
*MODEL_SPACE
  0
BLOCK_RECORD
  5
21
100
AcDbSymbolTableRecord
100
AcDbBlockTableRecord
  2
*PAPER_SPACE
  0
BLOCK_RECORD
  5
26
100
AcDbSymbolTableRecord
100
AcDbBlockTableRecord
  2
_NONE
  0
BLOCK_RECORD
  5
2A
100
AcDbSymbolTableRecord
100
AcDbBlockTableRecord
  2
_OPEN
  0
BLOCK_RECORD
  5
30
100
AcDbSymbolTableRecord
100
AcDbBlockTableRecord
  2
_CLOSED
  0
BLOCK_RECORD
  5
37
100
AcDbSymbolTableRecord
100
AcDbBlockTableRecord
  2
_ORIGIN
  0
BLOCK_RECORD
  5
3C
100
AcDbSymbolTableRecord
100
AcDbBlockTableRecord
  2
_DOT
  0
BLOCK_RECORD
  5
44
100
AcDbSymbolTableRecord
100
AcDbBlockTableRecord
  2
_OBLIQUE
  0
ENDTAB
  0
ENDSEC
  0
SECTION
  2
BLOCKS
  0
BLOCK
  5
1F
100
AcDbEntity
  8
0
100
AcDbBlockBegin
  2
*MODEL_SPACE
 70
     0
 10
0.0
 20
0.0
 30
0.0
  3
*MODEL_SPACE
  1

  0
ENDBLK
  5
20
100
AcDbEntity
  8
0
100
AcDbBlockEnd
  0
BLOCK
  5
22
100
AcDbEntity
 67
     1
  8
0
100
AcDbBlockBegin
  2
*PAPER_SPACE
 70
     0
 10
0.0
 20
0.0
 30
0.0
  3
*PAPER_SPACE
  1

  0
ENDBLK
  5
23
100
AcDbEntity
 67
     1
  8
0
100
AcDbBlockEnd
  0
BLOCK
  5
27
100
AcDbEntity
  8
0
100
AcDbBlockBegin
  2
_NONE
 70
     0
 10
0.0
 20
0.0
  0
CIRCLE
  5
28
100
AcDbEntity
  8
0
 62
     0
370
13
100
AcDbCircle
 10
0.0
 20
0.0
 40
0.25
  0
ENDBLK
  5
29
100
AcDbEntity
  8
0
100
AcDbBlockEnd
  0
BLOCK
  5
2B
100
AcDbEntity
  8
0
100
AcDbBlockBegin
  2
_OPEN
 70
     0
 10
0.0
 20
0.0
  0
LINE
  5
2C
100
AcDbEntity
  8
0
 62
     0
370
13
100
AcDbLine
 10
-0.965926
 20
0.258819
 11
0.0
 21
0.0
  0
LINE
  5
2D
100
AcDbEntity
  8
0
 62
     0
370
13
100
AcDbLine
 10
0.0
 20
0.0
 11
-0.965926
 21
-0.258819
  0
LINE
  5
2E
100
AcDbEntity
  8
0
 62
     0
370
13
100
AcDbLine
 10
0.0
 20
0.0
 11
-1.0
 21
0.0
  0
ENDBLK
  5
2F
100
AcDbEntity
  8
0
100
AcDbBlockEnd
  0
BLOCK
  5
31
100
AcDbEntity
  8
0
100
AcDbBlockBegin
  2
_CLOSED
 70
     0
 10
0.0
 20
0.0
  0
LINE
  5
32
100
AcDbEntity
  8
0
 62
     0
370
13
100
AcDbLine
 10
-0.965926
 20
0.258819
 11
0.0
 21
0.0
  0
LINE
  5
33
100
AcDbEntity
  8
0
 62
     0
370
13
100
AcDbLine
 10
0.0
 20
0.0
 11
-0.965926
 21
-0.258819
  0
LINE
  5
34
100
AcDbEntity
  8
0
 62
     0
370
13
100
AcDbLine
 10
-0.965926
 20
0.258819
 11
-0.965926
 21
-0.258819
  0
LINE
  5
35
100
AcDbEntity
  8
0
 62
     0
370
13
100
AcDbLine
 10
0.0
 20
0.0
 11
-1.0
 21
0.0
  0
ENDBLK
  5
36
100
AcDbEntity
  8
0
100
AcDbBlockEnd
  0
BLOCK
  5
38
100
AcDbEntity
  8
0
100
AcDbBlockBegin
  2
_ORIGIN
 70
     0
 10
0.0
 20
0.0
  0
CIRCLE
  5
39
100
AcDbEntity
  8
0
 62
     0
370
13
100
AcDbCircle
 10
0.0
 20
0.0
 40
0.5
  0
LINE
  5
3A
100
AcDbEntity
  8
0
 62
     0
370
13
100
AcDbLine
 10
0.0
 20
0.0
 11
-1.0
 21
0.0
  0
ENDBLK
  5
3B
100
AcDbEntity
  8
0
100
AcDbBlockEnd
  0
BLOCK
  5
3D
100
AcDbEntity
  8
0
100
AcDbBlockBegin
  2
_DOT
 70
     0
 10
0.0
 20
0.0
  0
POLYLINE
  5
3E
100
AcDbEntity
  8
0
 62
     0
100
AcDb2dPolyline
 66
     1
 70
     1
 40
0.5
 41
0.5
  0
VERTEX
  5
3F
100
AcDbEntity
  8
0
 62
     0
100
AcDbVertex
100
AcDb2dVertex
 10
-0.25
 20
0.0
 42
1.0
  0
VERTEX
  5
40
100
AcDbEntity
  8
0
 62
     0
100
AcDbVertex
100
AcDb2dVertex
 10
0.25
 20
0.0
 42
1.0
  0
SEQEND
  5
41
100
AcDbEntity
  8
0
 62
     0
  0
LINE
  5
42
100
AcDbEntity
  8
0
 62
     0
370
13
100
AcDbLine
 10
-0.5
 20
0.0
 11
-1.0
 21
0.0
  0
ENDBLK
  5
43
100
AcDbEntity
  8
0
100
AcDbBlockEnd
  0
BLOCK
  5
45
100
AcDbEntity
  8
0
100
AcDbBlockBegin
  2
_OBLIQUE
 70
     0
 10
0.0
 20
0.0
  0
LINE
  5
46
100
AcDbEntity
  8
0
 62
     0
370
13
100
AcDbLine
 10
-0.353553
 20
-0.353553
 11
0.353553
 21
0.353553
  0
ENDBLK
  5
47
100
AcDbEntity
  8
0
100
AcDbBlockEnd
  0
ENDSEC
  0
SECTION
  2
ENTITIES
  0
LINE
  5
48
100
AcDbEntity
  8
M1
  6
CONTINUOUS
370
13
 62
     7
100
AcDbLine
 10
167.235291
 20
339.611084
 11
159.208069
 21
339.611084
  0
LINE
  5
49
100
AcDbEntity
  8
M1
  6
CONTINUOUS
370
13
 62
     7
100
AcDbLine
 10
163.22168
 20
335.597473
 11
163.22168
 21
343.62468
  0
LINE
  5
4A
100
AcDbEntity
  8
M1
  6
CONTINUOUS
370
25
 62
     7
100
AcDbLine
 10
157.22168
 20
364.691071
 11
157.22168
 21
403.486084
  0
LINE
  5
4B
100
AcDbEntity
  8
M1
  6
CONTINUOUS
370
25
 62
     7
100
AcDbLine
 10
169.22168
 20
364.691071
 11
169.22168
 21
403.486084
  0
LINE
  5
4C
100
AcDbEntity
  8
M1
  6
CONTINUOUS
370
13
 62
     7
100
AcDbLine
 10
163.22168
 20
376.611084
 11
163.22168
 21
366.611084
  0
LINE
  5
4D
100
AcDbEntity
  8
M1
  6
CONTINUOUS
370
25
 62
     7
100
AcDbLine
 10
181.941772
 20
357.347076
 11
215.538757
 21
376.745071
  0
LINE
  5
4E
100
AcDbEntity
  8
M1
  6
CONTINUOUS
370
25
 62
     7
100
AcDbLine
 10
187.941772
 20
346.955078
 11
221.538757
 21
366.352081
  0
LINE
  5
4F
100
AcDbEntity
  8
M1
  6
CONTINUOUS
370
25
 62
     7
100
AcDbLine
 10
187.941589
 20
332.267075
 11
221.538574
 21
312.870071
  0
LINE
  5
50
100
AcDbEntity
  8
M1
  6
CONTINUOUS
370
25
 62
     7
100
AcDbLine
 10
181.941589
 20
321.875076
 11
215.538696
 21
302.478073
  0
LINE
  5
51
100
AcDbEntity
  8
M1
  6
CONTINUOUS
370
25
 62
     7
100
AcDbLine
 10
169.22168
 20
314.531082
 11
169.22168
 21
275.736084
  0
LINE
  5
52
100
AcDbEntity
  8
M1
  6
CONTINUOUS
370
25
 62
     7
100
AcDbLine
 10
157.22168
 20
314.531082
 11
157.22168
 21
275.736084
  0
LINE
  5
53
100
AcDbEntity
  8
M1
  6
CONTINUOUS
370
13
 62
     7
100
AcDbLine
 10
163.22168
 20
302.611084
 11
163.22168
 21
312.611084
  0
LINE
  5
54
100
AcDbEntity
  8
M1
  6
CONTINUOUS
370
25
 62
     7
100
AcDbLine
 10
144.501648
 20
321.875076
 11
110.903748
 21
302.478073
  0
LINE
  5
55
100
AcDbEntity
  8
M1
  6
CONTINUOUS
370
25
 62
     7
100
AcDbLine
 10
138.501648
 20
332.267075
 11
104.903687
 21
312.870071
  0
LINE
  5
56
100
AcDbEntity
  8
M1
  6
CONTINUOUS
370
25
 62
     7
100
AcDbLine
 10
138.501648
 20
346.955078
 11
104.903687
 21
366.352081
  0
LINE
  5
57
100
AcDbEntity
  8
M1
  6
CONTINUOUS
370
25
 62
     7
100
AcDbLine
 10
144.501648
 20
357.347076
 11
110.903748
 21
376.745071
  0
LINE
  5
58
100
AcDbEntity
  8
M1
  6
CONTINUOUS
370
25
 62
     7
100
AcDbLine
 10
181.332764
 20
366.97908
 11
177.292786
 21
359.982071
  0
LINE
  5
59
100
AcDbEntity
  8
M1
  6
CONTINUOUS
370
25
 62
     7
100
AcDbLine
 10
177.868896
 20
368.978973
 11
173.828796
 21
361.982971
  0
LINE
  5
5A
100
AcDbEntity
  8
M1
  6
CONTINUOUS
370
25
 62
     7
100
AcDbLine
 10
195.977661
 20
337.610077
 11
187.899658
 21
337.610077
  0
LINE
  5
5B
100
AcDbEntity
  8
M1
  6
CONTINUOUS
370
25
 62
     7
100
AcDbLine
 10
195.978699
 20
341.611084
 11
187.899658
 21
341.611084
  0
LINE
  5
5C
100
AcDbEntity
  8
M1
  6
CONTINUOUS
370
25
 62
     7
100
AcDbLine
 10
177.866699
 20
310.243073
 11
173.827698
 21
317.239075
  0
LINE
  5
5D
100
AcDbEntity
  8
M1
  6
CONTINUOUS
370
25
 62
     7
100
AcDbLine
 10
181.331787
 20
312.243073
 11
177.291687
 21
319.239075
  0
LINE
  5
5E
100
AcDbEntity
  8
M1
  6
CONTINUOUS
370
25
 62
     7
100
AcDbLine
 10
145.109802
 20
312.24408
 11
149.14978
 21
319.240082
  0
LINE
  5
5F
100
AcDbEntity
  8
M1
  6
CONTINUOUS
370
25
 62
     7
100
AcDbLine
 10
148.574402
 20
310.243179
 11
152.613464
 21
317.240173
  0
LINE
  5
60
100
AcDbEntity
  8
M1
  6
CONTINUOUS
370
25
 62
     7
100
AcDbLine
 10
130.464661
 20
341.612076
 11
138.543701
 21
341.612076
  0
LINE
  5
61
100
AcDbEntity
  8
M1
  6
CONTINUOUS
370
25
 62
     7
100
AcDbLine
 10
130.464661
 20
337.612076
 11
138.543701
 21
337.612076
  0
LINE
  5
62
100
AcDbEntity
  8
M1
  6
CONTINUOUS
370
25
 62
     7
100
AcDbLine
 10
148.5755
 20
368.980072
 11
152.615601
 21
361.983078
  0
LINE
  5
63
100
AcDbEntity
  8
M1
  6
CONTINUOUS
370
25
 62
     7
100
AcDbLine
 10
145.111572
 20
366.97998
 11
149.150574
 21
359.983078
  0
LINE
  5
64
100
AcDbEntity
  8
M1
  6
CONTINUOUS
370
25
 62
     7
100
AcDbLine
 10
168.22168
 20
401.998077
 11
163.221802
 21
404.884979
  0
LINE
  5
65
100
AcDbEntity
  8
M1
  6
CONTINUOUS
370
25
 62
     7
100
AcDbLine
 10
168.22168
 20
396.224091
 11
168.22168
 21
401.998077
  0
LINE
  5
66
100
AcDbEntity
  8
M1
  6
CONTINUOUS
370
25
 62
     7
100
AcDbLine
 10
163.221802
 20
393.337982
 11
168.221802
 21
396.223969
  0
LINE
  5
67
100
AcDbEntity
  8
M1
  6
CONTINUOUS
370
25
 62
     7
100
AcDbLine
 10
158.22168
 20
396.224091
 11
163.22168
 21
393.338074
  0
LINE
  5
68
100
AcDbEntity
  8
M1
  6
CONTINUOUS
370
25
 62
     7
100
AcDbLine
 10
158.22168
 20
401.998077
 11
158.22168
 21
396.224091
  0
LINE
  5
69
100
AcDbEntity
  8
M1
  6
CONTINUOUS
370
25
 62
     7
100
AcDbLine
 10
163.221802
 20
404.884888
 11
158.221802
 21
401.997864
  0
LINE
  5
6A
100
AcDbEntity
  8
M1
  6
CONTINUOUS
370
25
 62
     7
100
AcDbLine
 10
219.749695
 20
366.474075
 11
219.749695
 21
372.248077
  0
LINE
  5
6B
100
AcDbEntity
  8
M1
  6
CONTINUOUS
370
25
 62
     7
100
AcDbLine
 10
214.749756
 20
363.587982
 11
219.749756
 21
366.473984
  0
LINE
  5
6C
100
AcDbEntity
  8
M1
  6
CONTINUOUS
370
25
 62
     7
100
AcDbLine
 10
209.749695
 20
366.474075
 11
214.749695
 21
363.588074
  0
LINE
  5
6D
100
AcDbEntity
  8
M1
  6
CONTINUOUS
370
25
 62
     7
100
AcDbLine
 10
209.749695
 20
372.248077
 11
209.749695
 21
366.474075
  0
LINE
  5
6E
100
AcDbEntity
  8
M1
  6
CONTINUOUS
370
25
 62
     7
100
AcDbLine
 10
214.749756
 20
375.134872
 11
209.749756
 21
372.247879
  0
LINE
  5
6F
100
AcDbEntity
  8
M1
  6
CONTINUOUS
370
25
 62
     7
100
AcDbLine
 10
219.749695
 20
372.247971
 11
214.749695
 21
375.134979
  0
LINE
  5
70
100
AcDbEntity
  8
M1
  6
CONTINUOUS
370
25
 62
     7
100
AcDbLine
 10
214.749756
 20
304.088074
 11
219.749756
 21
306.974075
  0
LINE
  5
71
100
AcDbEntity
  8
M1
  6
CONTINUOUS
370
25
 62
     7
100
AcDbLine
 10
209.749756
 20
306.974075
 11
214.749756
 21
304.088074
  0
LINE
  5
72
100
AcDbEntity
  8
M1
  6
CONTINUOUS
370
25
 62
     7
100
AcDbLine
 10
209.749695
 20
312.748077
 11
209.749695
 21
306.974075
  0
LINE
  5
73
100
AcDbEntity
  8
M1
  6
CONTINUOUS
370
25
 62
     7
100
AcDbLine
 10
214.749756
 20
315.634872
 11
209.749756
 21
312.747879
  0
LINE
  5
74
100
AcDbEntity
  8
M1
  6
CONTINUOUS
370
25
 62
     7
100
AcDbLine
 10
219.749695
 20
312.747971
 11
214.749695
 21
315.634979
  0
LINE
  5
75
100
AcDbEntity
  8
M1
  6
CONTINUOUS
370
25
 62
     7
100
AcDbLine
 10
219.749695
 20
306.974075
 11
219.749695
 21
312.748077
  0
LINE
  5
76
100
AcDbEntity
  8
M1
  6
CONTINUOUS
370
25
 62
     7
100
AcDbLine
 10
158.22168
 20
277.224075
 11
163.221802
 21
274.338074
  0
LINE
  5
77
100
AcDbEntity
  8
M1
  6
CONTINUOUS
370
25
 62
     7
100
AcDbLine
 10
158.22168
 20
282.998077
 11
158.22168
 21
277.224075
  0
LINE
  5
78
100
AcDbEntity
  8
M1
  6
CONTINUOUS
370
25
 62
     7
100
AcDbLine
 10
163.221802
 20
285.884872
 11
158.221802
 21
282.997971
  0
LINE
  5
79
100
AcDbEntity
  8
M1
  6
CONTINUOUS
370
25
 62
     7
100
AcDbLine
 10
168.221802
 20
282.998077
 11
163.22168
 21
285.885071
  0
LINE
  5
7A
100
AcDbEntity
  8
M1
  6
CONTINUOUS
370
25
 62
     7
100
AcDbLine
 10
168.22168
 20
277.224075
 11
168.22168
 21
282.998077
  0
LINE
  5
7B
100
AcDbEntity
  8
M1
  6
CONTINUOUS
370
25
 62
     7
100
AcDbLine
 10
163.221802
 20
274.337982
 11
168.221802
 21
277.223984
  0
LINE
  5
7C
100
AcDbEntity
  8
M1
  6
CONTINUOUS
370
25
 62
     7
100
AcDbLine
 10
106.692688
 20
312.748077
 11
106.692688
 21
306.974075
  0
LINE
  5
7D
100
AcDbEntity
  8
M1
  6
CONTINUOUS
370
25
 62
     7
100
AcDbLine
 10
111.692871
 20
315.634872
 11
106.692871
 21
312.747879
  0
LINE
  5
7E
100
AcDbEntity
  8
M1
  6
CONTINUOUS
370
25
 62
     7
100
AcDbLine
 10
116.692749
 20
312.748077
 11
111.692749
 21
315.635071
  0
LINE
  5
7F
100
AcDbEntity
  8
M1
  6
CONTINUOUS
370
25
 62
     7
100
AcDbLine
 10
116.692688
 20
306.974075
 11
116.692688
 21
312.748077
  0
LINE
  5
80
100
AcDbEntity
  8
M1
  6
CONTINUOUS
370
25
 62
     7
100
AcDbLine
 10
111.692749
 20
304.088074
 11
116.692749
 21
306.974075
  0
LINE
  5
81
100
AcDbEntity
  8
M1
  6
CONTINUOUS
370
25
 62
     7
100
AcDbLine
 10
106.692688
 20
306.974075
 11
111.692688
 21
304.088074
  0
LINE
  5
82
100
AcDbEntity
  8
M1
  6
CONTINUOUS
370
25
 62
     7
100
AcDbLine
 10
111.692871
 20
375.134872
 11
106.692871
 21
372.247879
  0
LINE
  5
83
100
AcDbEntity
  8
M1
  6
CONTINUOUS
370
25
 62
     7
100
AcDbLine
 10
116.692688
 20
372.248077
 11
111.692749
 21
375.134979
  0
LINE
  5
84
100
AcDbEntity
  8
M1
  6
CONTINUOUS
370
25
 62
     7
100
AcDbLine
 10
116.692688
 20
366.474075
 11
116.692688
 21
372.248077
  0
LINE
  5
85
100
AcDbEntity
  8
M1
  6
CONTINUOUS
370
25
 62
     7
100
AcDbLine
 10
111.692749
 20
363.587982
 11
116.692749
 21
366.473984
  0
LINE
  5
86
100
AcDbEntity
  8
M1
  6
CONTINUOUS
370
25
 62
     7
100
AcDbLine
 10
106.692688
 20
366.474075
 11
111.692688
 21
363.587982
  0
LINE
  5
87
100
AcDbEntity
  8
M1
  6
CONTINUOUS
370
25
 62
     7
100
AcDbLine
 10
106.692688
 20
372.248077
 11
106.692688
 21
366.474075
  0
LINE
  5
88
100
AcDbEntity
  8
M1
  6
CONTINUOUS
370
25
 62
     7
100
AcDbLine
 10
126.966675
 20
406.406067
 11
113.613647
 21
429.533081
  0
LINE
  5
89
100
AcDbEntity
  8
M1
  6
CONTINUOUS
370
25
 62
     7
100
AcDbLine
 10
123.501648
 20
404.406067
 11
109.790649
 21
428.156067
  0
LINE
  5
8A
100
AcDbEntity
  8
M1
  6
CONTINUOUS
370
25
 62
     7
100
AcDbLine
 10
107.455688
 20
446.199188
 11
109.187561
 21
445.199188
  0
LINE
  5
8B
100
AcDbEntity
  8
M1
  6
CONTINUOUS
370
25
 62
     7
100
AcDbLine
 10
98.795654
 20
441.199066
 11
98.795654
 21
439.199066
  0
LINE
  5
8C
100
AcDbEntity
  8
M1
  6
CONTINUOUS
370
25
 62
     7
100
AcDbLine
 10
108.32135
 20
445.699188
 11
110.82135
 21
450.029266
  0
LINE
  5
8D
100
AcDbEntity
  8
M1
  6
CONTINUOUS
370
25
 62
     7
100
AcDbLine
 10
98.795654
 20
440.199066
 11
93.795654
 21
440.199066
  0
LINE
  5
8E
100
AcDbEntity
  8
M1
  6
CONTINUOUS
370
25
 62
     7
100
AcDbLine
 10
107.455261
 20
436.199463
 11
110.281555
 21
431.304077
  0
LINE
  5
8F
100
AcDbEntity
  8
M1
  6
CONTINUOUS
370
25
 62
     7
100
AcDbLine
 10
108.320679
 20
430.70108
 11
105.723694
 21
435.199066
  0
LINE
  5
90
100
AcDbEntity
  8
M1
  6
CONTINUOUS
370
25
 62
     7
100
AcDbLine
 10
112.243591
 20
431.907166
 11
109.187561
 21
437.199188
  0
LINE
  5
91
100
AcDbEntity
  8
M1
  6
CONTINUOUS
370
25
 62
     7
100
AcDbLine
 10
108.320862
 20
430.700775
 11
112.243896
 21
431.906769
  0
LINE
  5
92
100
AcDbEntity
  8
M1
  6
CONTINUOUS
370
25
 62
     7
100
AcDbLine
 10
109.790649
 20
428.156189
 11
113.613647
 21
429.533173
  0
LINE
  5
93
100
AcDbEntity
  8
M1
  6
CONTINUOUS
370
25
 62
     7
100
AcDbLine
 10
111.70166
 20
428.844086
 11
125.220703
 21
405.429077
  0
LINE
  5
94
100
AcDbEntity
  8
M1
  6
CONTINUOUS
370
13
 62
     7
100
AcDbLine
 10
131.17865
 20
358.111084
 11
139.838684
 21
353.111084
  0
LINE
  5
95
100
AcDbEntity
  8
M1
  6
CONTINUOUS
370
13
 62
     7
100
AcDbLine
 10
131.17865
 20
321.111084
 11
139.838745
 21
326.111084
  0
LINE
  5
96
100
AcDbEntity
  8
M1
  6
CONTINUOUS
370
13
 62
     7
100
AcDbLine
 10
195.264648
 20
321.112076
 11
186.603699
 21
326.112076
  0
LINE
  5
97
100
AcDbEntity
  8
M1
  6
CONTINUOUS
370
13
 62
     7
100
AcDbLine
 10
195.263794
 20
358.111084
 11
186.603699
 21
353.111084
  0
LINE
  5
98
100
AcDbEntity
  8
M1
  6
CONTINUOUS
370
25
 62
     7
100
AcDbLine
 10
325.379669
 20
342.111084
 11
355.379669
 21
342.111084
  0
LINE
  5
99
100
AcDbEntity
  8
M1
  6
CONTINUOUS
370
25
 62
     7
100
AcDbLine
 10
325.379669
 20
337.111084
 11
355.379669
 21
337.111084
  0
LINE
  5
9A
100
AcDbEntity
  8
M1
  6
CONTINUOUS
370
25
 62
     7
100
AcDbLine
 10
352.379669
 20
342.111084
 11
352.379669
 21
337.111084
  0
LINE
  5
9B
100
AcDbEntity
  8
M1
  6
CONTINUOUS
370
25
 62
     7
100
AcDbLine
 10
483.379669
 20
342.111084
 11
513.379669
 21
342.111084
  0
LINE
  5
9C
100
AcDbEntity
  8
M1
  6
CONTINUOUS
370
25
 62
     7
100
AcDbLine
 10
483.378662
 20
337.111084
 11
513.378662
 21
337.111084
  0
LINE
  5
9D
100
AcDbEntity
  8
M1
  6
CONTINUOUS
370
25
 62
     7
100
AcDbLine
 10
486.379578
 20
342.111084
 11
486.378571
 21
341.370071
  0
LINE
  5
9E
100
AcDbEntity
  8
M1
  6
CONTINUOUS
370
25
 62
     7
100
AcDbLine
 10
478.879669
 20
348.111084
 11
478.878662
 21
341.414078
  0
LINE
  5
9F
100
AcDbEntity
  8
M1
  6
CONTINUOUS
370
25
 62
     7
100
AcDbLine
 10
359.879669
 20
348.111084
 11
359.879669
 21
342.102081
  0
LINE
  5
A0
100
AcDbEntity
  8
M1
  6
CONTINUOUS
370
25
 62
     7
100
AcDbLine
 10
479.879669
 20
347.111084
 11
513.379669
 21
347.111084
  0
LINE
  5
A1
100
AcDbEntity
  8
M1
  6
CONTINUOUS
370
13
 62
     7
100
AcDbLine
 10
316.568665
 20
339.611084
 11
328.164276
 21
339.611084
  0
LINE
  5
A2
100
AcDbEntity
  8
M1
  6
CONTINUOUS
370
25
 62
     7
100
AcDbLine
 10
513.379669
 20
339.611084
 11
513.379669
 21
332.111084
  0
LINE
  5
A3
100
AcDbEntity
  8
M1
  6
CONTINUOUS
370
25
 62
     7
100
AcDbLine
 10
478.879669
 20
331.111084
 11
478.879669
 21
339.611084
  0
LINE
  5
A4
100
AcDbEntity
  8
M1
  6
CONTINUOUS
370
25
 62
     7
100
AcDbLine
 10
479.879669
 20
332.111084
 11
513.379669
 21
332.111084
  0
LINE
  5
A5
100
AcDbEntity
  8
M1
  6
CONTINUOUS
370
25
 62
     7
100
AcDbLine
 10
472.379669
 20
357.111084
 11
472.379669
 21
360.611084
  0
LINE
  5
A6
100
AcDbEntity
  8
M1
  6
CONTINUOUS
370
25
 62
     7
100
AcDbLine
 10
449.379669
 20
405.611084
 11
440.879669
 21
405.611084
  0
LINE
  5
A7
100
AcDbEntity
  8
M1
  6
CONTINUOUS
370
25
 62
     7
100
AcDbLine
 10
454.379669
 20
377.611084
 11
459.379669
 21
377.611084
  0
LINE
  5
A8
100
AcDbEntity
  8
M1
  6
CONTINUOUS
370
25
 62
     7
100
AcDbLine
 10
459.379669
 20
360.611084
 11
472.379669
 21
360.611084
  0
LINE
  5
A9
100
AcDbEntity
  8
M1
  6
CONTINUOUS
370
25
 62
     7
100
AcDbLine
 10
459.379669
 20
377.611084
 11
459.379669
 21
360.611084
  0
LINE
  5
AA
100
AcDbEntity
  8
M1
  6
CONTINUOUS
370
25
 62
     7
100
AcDbLine
 10
450.379669
 20
404.611084
 11
450.379669
 21
381.611084
  0
LINE
  5
AB
100
AcDbEntity
  8
M1
  6
CONTINUOUS
370
25
 62
     7
100
AcDbLine
 10
452.378662
 20
405.21109
 11
450.379669
 21
405.21109
  0
LINE
  5
AC
100
AcDbEntity
  8
M1
  6
CONTINUOUS
370
25
 62
     7
100
AcDbLine
 10
450.379669
 20
405.21109
 11
450.378662
 21
393.011078
  0
LINE
  5
AD
100
AcDbEntity
  8
M1
  6
CONTINUOUS
370
25
 62
     7
100
AcDbLine
 10
450.378662
 20
393.011078
 11
452.378662
 21
393.011078
  0
LINE
  5
AE
100
AcDbEntity
  8
M1
  6
CONTINUOUS
370
25
 62
     7
100
AcDbLine
 10
452.378662
 20
393.011078
 11
452.379669
 21
405.21109
  0
LINE
  5
AF
100
AcDbEntity
  8
M1
  6
CONTINUOUS
370
25
 62
     7
100
AcDbLine
 10
452.378662
 20
399.411072
 11
450.378662
 21
397.411072
  0
LINE
  5
B0
100
AcDbEntity
  8
M1
  6
CONTINUOUS
370
25
 62
     7
100
AcDbLine
 10
452.378662
 20
401.311066
 11
450.378662
 21
399.311066
  0
LINE
  5
B1
100
AcDbEntity
  8
M1
  6
CONTINUOUS
370
25
 62
     7
100
AcDbLine
 10
455.842682
 20
404.884064
 11
452.378662
 21
404.884064
  0
LINE
  5
B2
100
AcDbEntity
  8
M1
  6
CONTINUOUS
370
25
 62
     7
100
AcDbLine
 10
452.378662
 20
404.884064
 11
452.378662
 21
393.338074
  0
LINE
  5
B3
100
AcDbEntity
  8
M1
  6
CONTINUOUS
370
25
 62
     7
100
AcDbLine
 10
452.378662
 20
393.338074
 11
455.842682
 21
393.338074
  0
LINE
  5
B4
100
AcDbEntity
  8
M1
  6
CONTINUOUS
370
25
 62
     7
100
AcDbLine
 10
456.378662
 20
394.724091
 11
456.378662
 21
403.498077
  0
LINE
  5
B5
100
AcDbEntity
  8
M1
  6
CONTINUOUS
370
25
 62
     7
100
AcDbLine
 10
455.842682
 20
402.111084
 11
452.378662
 21
402.111084
  0
LINE
  5
B6
100
AcDbEntity
  8
M1
  6
CONTINUOUS
370
25
 62
     7
100
AcDbLine
 10
452.378662
 20
396.111084
 11
455.842682
 21
396.111084
  0
LINE
  5
B7
100
AcDbEntity
  8
M1
  6
CONTINUOUS
370
25
 62
     7
100
AcDbLine
 10
472.379669
 20
322.111084
 11
472.379669
 21
318.611084
  0
LINE
  5
B8
100
AcDbEntity
  8
M1
  6
CONTINUOUS
370
25
 62
     7
100
AcDbLine
 10
449.379669
 20
273.611084
 11
440.379669
 21
273.611084
  0
LINE
  5
B9
100
AcDbEntity
  8
M1
  6
CONTINUOUS
370
25
 62
     7
100
AcDbLine
 10
454.379669
 20
301.611084
 11
459.379669
 21
301.611084
  0
LINE
  5
BA
100
AcDbEntity
  8
M1
  6
CONTINUOUS
370
25
 62
     7
100
AcDbLine
 10
459.379669
 20
318.611084
 11
472.379669
 21
318.611084
  0
LINE
  5
BB
100
AcDbEntity
  8
M1
  6
CONTINUOUS
370
25
 62
     7
100
AcDbLine
 10
459.379669
 20
301.611084
 11
459.379669
 21
318.611084
  0
LINE
  5
BC
100
AcDbEntity
  8
M1
  6
CONTINUOUS
370
25
 62
     7
100
AcDbLine
 10
450.379669
 20
274.611084
 11
450.379669
 21
300.611084
  0
LINE
  5
BD
100
AcDbEntity
  8
M1
  6
CONTINUOUS
370
25
 62
     7
100
AcDbLine
 10
459.379669
 20
318.611084
 11
459.379669
 21
339.611084
  0
LINE
  5
BE
100
AcDbEntity
  8
M1
  6
CONTINUOUS
370
25
 62
     7
100
AcDbLine
 10
472.379669
 20
322.111084
 11
472.379669
 21
360.611084
  0
LINE
  5
BF
100
AcDbEntity
  8
M1
  6
CONTINUOUS
370
25
 62
     7
100
AcDbLine
 10
450.379669
 20
300.611084
 11
450.379669
 21
339.611084
  0
LINE
  5
C0
100
AcDbEntity
  8
M1
  6
CONTINUOUS
370
25
 62
     7
100
AcDbLine
 10
440.379669
 20
273.611084
 11
440.379669
 21
339.611084
  0
LINE
  5
C1
100
AcDbEntity
  8
M1
  6
CONTINUOUS
370
25
 62
     7
100
AcDbLine
 10
439.379669
 20
415.611084
 11
399.379669
 21
415.611084
  0
LINE
  5
C2
100
AcDbEntity
  8
M1
  6
CONTINUOUS
370
25
 62
     7
100
AcDbLine
 10
440.379669
 20
264.611076
 11
440.379669
 21
274.093079
  0
LINE
  5
C3
100
AcDbEntity
  8
M1
  6
CONTINUOUS
370
25
 62
     7
100
AcDbLine
 10
399.379669
 20
263.611076
 11
439.379669
 21
263.611076
  0
LINE
  5
C4
100
AcDbEntity
  8
M1
  6
CONTINUOUS
370
25
 62
     7
100
AcDbLine
 10
398.379669
 20
264.611076
 11
398.379669
 21
274.679077
  0
LINE
  5
C5
100
AcDbEntity
  8
M1
  6
CONTINUOUS
370
25
 62
     7
100
AcDbLine
 10
325.379669
 20
347.111084
 11
325.379669
 21
342.302078
  0
LINE
  5
C6
100
AcDbEntity
  8
M1
  6
CONTINUOUS
370
25
 62
     7
100
AcDbLine
 10
325.379669
 20
347.111084
 11
358.879669
 21
347.111084
  0
LINE
  5
C7
100
AcDbEntity
  8
M1
  6
CONTINUOUS
370
25
 62
     7
100
AcDbLine
 10
325.379669
 20
332.111084
 11
325.379669
 21
339.611084
  0
LINE
  5
C8
100
AcDbEntity
  8
M1
  6
CONTINUOUS
370
25
 62
     7
100
AcDbLine
 10
325.379669
 20
332.111084
 11
358.879669
 21
332.111084
  0
LINE
  5
C9
100
AcDbEntity
  8
M1
  6
CONTINUOUS
370
25
 62
     7
100
AcDbLine
 10
366.379669
 20
357.111084
 11
366.379669
 21
360.611084
  0
LINE
  5
CA
100
AcDbEntity
  8
M1
  6
CONTINUOUS
370
25
 62
     7
100
AcDbLine
 10
389.379669
 20
405.611084
 11
397.879669
 21
405.611084
  0
LINE
  5
CB
100
AcDbEntity
  8
M1
  6
CONTINUOUS
370
25
 62
     7
100
AcDbLine
 10
384.379669
 20
377.611084
 11
379.379669
 21
377.611084
  0
LINE
  5
CC
100
AcDbEntity
  8
M1
  6
CONTINUOUS
370
25
 62
     7
100
AcDbLine
 10
379.379669
 20
360.611084
 11
366.379669
 21
360.611084
  0
LINE
  5
CD
100
AcDbEntity
  8
M1
  6
CONTINUOUS
370
25
 62
     7
100
AcDbLine
 10
379.379669
 20
377.611084
 11
379.379669
 21
360.611084
  0
LINE
  5
CE
100
AcDbEntity
  8
M1
  6
CONTINUOUS
370
25
 62
     7
100
AcDbLine
 10
388.379669
 20
404.611084
 11
388.379669
 21
381.611084
  0
LINE
  5
CF
100
AcDbEntity
  8
M1
  6
CONTINUOUS
370
25
 62
     7
100
AcDbLine
 10
386.379669
 20
405.21109
 11
388.379669
 21
405.21109
  0
LINE
  5
D0
100
AcDbEntity
  8
M1
  6
CONTINUOUS
370
25
 62
     7
100
AcDbLine
 10
388.379669
 20
405.21109
 11
388.379669
 21
393.011078
  0
LINE
  5
D1
100
AcDbEntity
  8
M1
  6
CONTINUOUS
370
25
 62
     7
100
AcDbLine
 10
388.379669
 20
393.011078
 11
386.379669
 21
393.011078
  0
LINE
  5
D2
100
AcDbEntity
  8
M1
  6
CONTINUOUS
370
25
 62
     7
100
AcDbLine
 10
386.379669
 20
393.011078
 11
386.379669
 21
405.21109
  0
LINE
  5
D3
100
AcDbEntity
  8
M1
  6
CONTINUOUS
370
25
 62
     7
100
AcDbLine
 10
382.916687
 20
404.884064
 11
386.379669
 21
404.884064
  0
LINE
  5
D4
100
AcDbEntity
  8
M1
  6
CONTINUOUS
370
25
 62
     7
100
AcDbLine
 10
386.379669
 20
404.884064
 11
386.379669
 21
393.338074
  0
LINE
  5
D5
100
AcDbEntity
  8
M1
  6
CONTINUOUS
370
25
 62
     7
100
AcDbLine
 10
386.379669
 20
393.338074
 11
382.916687
 21
393.338074
  0
LINE
  5
D6
100
AcDbEntity
  8
M1
  6
CONTINUOUS
370
25
 62
     7
100
AcDbLine
 10
382.379669
 20
394.724091
 11
382.379669
 21
403.498077
  0
LINE
  5
D7
100
AcDbEntity
  8
M1
  6
CONTINUOUS
370
25
 62
     7
100
AcDbLine
 10
382.916687
 20
402.111084
 11
386.379669
 21
402.111084
  0
LINE
  5
D8
100
AcDbEntity
  8
M1
  6
CONTINUOUS
370
25
 62
     7
100
AcDbLine
 10
386.379669
 20
396.111084
 11
382.916687
 21
396.111084
  0
LINE
  5
D9
100
AcDbEntity
  8
M1
  6
CONTINUOUS
370
25
 62
     7
100
AcDbLine
 10
366.379669
 20
322.111084
 11
366.379669
 21
318.611084
  0
LINE
  5
DA
100
AcDbEntity
  8
M1
  6
CONTINUOUS
370
25
 62
     7
100
AcDbLine
 10
389.379669
 20
273.611084
 11
398.379669
 21
273.611084
  0
LINE
  5
DB
100
AcDbEntity
  8
M1
  6
CONTINUOUS
370
25
 62
     7
100
AcDbLine
 10
384.379669
 20
301.611084
 11
379.379669
 21
301.611084
  0
LINE
  5
DC
100
AcDbEntity
  8
M1
  6
CONTINUOUS
370
25
 62
     7
100
AcDbLine
 10
379.379669
 20
318.611084
 11
366.379669
 21
318.611084
  0
LINE
  5
DD
100
AcDbEntity
  8
M1
  6
CONTINUOUS
370
25
 62
     7
100
AcDbLine
 10
379.379669
 20
301.611084
 11
379.379669
 21
318.611084
  0
LINE
  5
DE
100
AcDbEntity
  8
M1
  6
CONTINUOUS
370
25
 62
     7
100
AcDbLine
 10
388.379669
 20
274.611084
 11
388.379669
 21
300.611084
  0
LINE
  5
DF
100
AcDbEntity
  8
M1
  6
CONTINUOUS
370
25
 62
     7
100
AcDbLine
 10
379.379669
 20
318.611084
 11
379.379669
 21
339.611084
  0
LINE
  5
E0
100
AcDbEntity
  8
M1
  6
CONTINUOUS
370
25
 62
     7
100
AcDbLine
 10
366.379669
 20
322.111084
 11
366.379669
 21
339.611084
  0
LINE
  5
E1
100
AcDbEntity
  8
M1
  6
CONTINUOUS
370
25
 62
     7
100
AcDbLine
 10
388.379669
 20
300.611084
 11
388.379669
 21
339.611084
  0
LINE
  5
E2
100
AcDbEntity
  8
M1
  6
CONTINUOUS
370
25
 62
     7
100
AcDbLine
 10
398.379669
 20
273.611084
 11
398.379669
 21
339.611084
  0
LINE
  5
E3
100
AcDbEntity
  8
M1
  6
CONTINUOUS
370
25
 62
     7
100
AcDbLine
 10
398.379669
 20
300.036072
 11
398.379669
 21
305.936081
  0
LINE
  5
E4
100
AcDbEntity
  8
M1
  6
CONTINUOUS
370
25
 62
     7
100
AcDbLine
 10
386.379669
 20
303.761078
 11
388.379669
 21
303.761078
  0
LINE
  5
E5
100
AcDbEntity
  8
M1
  6
CONTINUOUS
370
25
 62
     7
100
AcDbLine
 10
388.379669
 20
303.761078
 11
388.379669
 21
315.961075
  0
LINE
  5
E6
100
AcDbEntity
  8
M1
  6
CONTINUOUS
370
25
 62
     7
100
AcDbLine
 10
388.379669
 20
315.961075
 11
386.379669
 21
315.961075
  0
LINE
  5
E7
100
AcDbEntity
  8
M1
  6
CONTINUOUS
370
25
 62
     7
100
AcDbLine
 10
386.379669
 20
315.961075
 11
386.379669
 21
303.761078
  0
LINE
  5
E8
100
AcDbEntity
  8
M1
  6
CONTINUOUS
370
25
 62
     7
100
AcDbLine
 10
382.91568
 20
304.088074
 11
386.379669
 21
304.088074
  0
LINE
  5
E9
100
AcDbEntity
  8
M1
  6
CONTINUOUS
370
25
 62
     7
100
AcDbLine
 10
386.379669
 20
304.088074
 11
386.379669
 21
315.635071
  0
LINE
  5
EA
100
AcDbEntity
  8
M1
  6
CONTINUOUS
370
25
 62
     7
100
AcDbLine
 10
386.379669
 20
315.635071
 11
382.91568
 21
315.635071
  0
LINE
  5
EB
100
AcDbEntity
  8
M1
  6
CONTINUOUS
370
25
 62
     7
100
AcDbLine
 10
382.379669
 20
314.248077
 11
382.379669
 21
305.475082
  0
LINE
  5
EC
100
AcDbEntity
  8
M1
  6
CONTINUOUS
370
25
 62
     7
100
AcDbLine
 10
382.91568
 20
306.861084
 11
386.379669
 21
306.861084
  0
LINE
  5
ED
100
AcDbEntity
  8
M1
  6
CONTINUOUS
370
25
 62
     7
100
AcDbLine
 10
386.379669
 20
312.861084
 11
382.91568
 21
312.861084
  0
LINE
  5
EE
100
AcDbEntity
  8
M1
  6
CONTINUOUS
370
25
 62
     7
100
AcDbLine
 10
386.379669
 20
309.561081
 11
388.379669
 21
311.561081
  0
LINE
  5
EF
100
AcDbEntity
  8
M1
  6
CONTINUOUS
370
25
 62
     7
100
AcDbLine
 10
386.379669
 20
307.661072
 11
388.379669
 21
309.661072
  0
LINE
  5
F0
100
AcDbEntity
  8
M1
  6
CONTINUOUS
370
25
 62
     7
100
AcDbLine
 10
452.379669
 20
303.761078
 11
450.379669
 21
303.761078
  0
LINE
  5
F1
100
AcDbEntity
  8
M1
  6
CONTINUOUS
370
25
 62
     7
100
AcDbLine
 10
450.379669
 20
303.761078
 11
450.379669
 21
315.961075
  0
LINE
  5
F2
100
AcDbEntity
  8
M1
  6
CONTINUOUS
370
25
 62
     7
100
AcDbLine
 10
450.379669
 20
315.961075
 11
452.379669
 21
315.961075
  0
LINE
  5
F3
100
AcDbEntity
  8
M1
  6
CONTINUOUS
370
25
 62
     7
100
AcDbLine
 10
452.379669
 20
315.961075
 11
452.379669
 21
303.761078
  0
LINE
  5
F4
100
AcDbEntity
  8
M1
  6
CONTINUOUS
370
25
 62
     7
100
AcDbLine
 10
455.843689
 20
304.088074
 11
452.379669
 21
304.088074
  0
LINE
  5
F5
100
AcDbEntity
  8
M1
  6
CONTINUOUS
370
25
 62
     7
100
AcDbLine
 10
452.379669
 20
304.088074
 11
452.379669
 21
315.635071
  0
LINE
  5
F6
100
AcDbEntity
  8
M1
  6
CONTINUOUS
370
25
 62
     7
100
AcDbLine
 10
452.379669
 20
315.635071
 11
455.843689
 21
315.635071
  0
LINE
  5
F7
100
AcDbEntity
  8
M1
  6
CONTINUOUS
370
25
 62
     7
100
AcDbLine
 10
456.379669
 20
314.248077
 11
456.379669
 21
305.474075
  0
LINE
  5
F8
100
AcDbEntity
  8
M1
  6
CONTINUOUS
370
25
 62
     7
100
AcDbLine
 10
455.843689
 20
306.861084
 11
452.379669
 21
306.861084
  0
LINE
  5
F9
100
AcDbEntity
  8
M1
  6
CONTINUOUS
370
25
 62
     7
100
AcDbLine
 10
452.379669
 20
312.861084
 11
455.843689
 21
312.861084
  0
LINE
  5
FA
100
AcDbEntity
  8
M1
  6
CONTINUOUS
370
25
 62
     7
100
AcDbLine
 10
440.379669
 20
407.611084
 11
441.783661
 21
407.611084
  0
LINE
  5
FB
100
AcDbEntity
  8
M1
  6
CONTINUOUS
370
25
 62
     7
100
AcDbLine
 10
440.379669
 20
410.411072
 11
441.884674
 21
410.411072
  0
LINE
  5
FC
100
AcDbEntity
  8
M1
  6
CONTINUOUS
370
25
 62
     7
100
AcDbLine
 10
386.379669
 20
398.811066
 11
388.379669
 21
400.811066
  0
LINE
  5
FD
100
AcDbEntity
  8
M1
  6
CONTINUOUS
370
25
 62
     7
100
AcDbLine
 10
386.379669
 20
396.911072
 11
388.379669
 21
398.911072
  0
LINE
  5
FE
100
AcDbEntity
  8
M1
  6
CONTINUOUS
370
25
 62
     7
100
AcDbLine
 10
452.379669
 20
310.161072
 11
450.379669
 21
308.161072
  0
LINE
  5
FF
100
AcDbEntity
  8
M1
  6
CONTINUOUS
370
25
 62
     7
100
AcDbLine
 10
452.379761
 20
312.061081
 11
450.379761
 21
310.061081
  0
LINE
  5
100
100
AcDbEntity
  8
M1
  6
CONTINUOUS
370
25
 62
     7
100
AcDbLine
 10
446.977661
 20
413.335083
 11
446.977661
 21
422.889069
  0
LINE
  5
101
100
AcDbEntity
  8
M1
  6
CONTINUOUS
370
25
 62
     7
100
AcDbLine
 10
449.777679
 20
413.295074
 11
449.777679
 21
421.01709
  0
LINE
  5
102
100
AcDbEntity
  8
M1
  6
CONTINUOUS
370
25
 62
     7
100
AcDbLine
 10
446.977661
 20
426.562073
 11
446.977661
 21
434.075073
  0
LINE
  5
103
100
AcDbEntity
  8
M1
  6
CONTINUOUS
370
25
 62
     7
100
AcDbLine
 10
449.777679
 20
424.519073
 11
449.777679
 21
434.075073
  0
LINE
  5
104
100
AcDbEntity
  8
M1
  6
CONTINUOUS
370
25
 62
     7
100
AcDbLine
 10
446.977661
 20
426.561981
 11
449.777679
 21
424.518982
  0
LINE
  5
105
100
AcDbEntity
  8
M1
  6
CONTINUOUS
370
25
 62
     7
100
AcDbLine
 10
446.977661
 20
422.889069
 11
449.777679
 21
421.01709
  0
LINE
  5
106
100
AcDbEntity
  8
M1
  6
CONTINUOUS
370
25
 62
     7
100
AcDbLine
 10
442.777679
 20
446.199066
 11
441.377686
 21
443.774078
  0
LINE
  5
107
100
AcDbEntity
  8
M1
  6
CONTINUOUS
370
25
 62
     7
100
AcDbLine
 10
442.077667
 20
444.985962
 11
436.015686
 21
448.485962
  0
LINE
  5
108
100
AcDbEntity
  8
M1
  6
CONTINUOUS
370
25
 62
     7
100
AcDbLine
 10
453.977661
 20
446.199066
 11
455.377777
 21
443.774078
  0
LINE
  5
109
100
AcDbEntity
  8
M1
  6
CONTINUOUS
370
25
 62
     7
100
AcDbLine
 10
454.677673
 20
444.987091
 11
460.739563
 21
448.486084
  0
LINE
  5
10A
100
AcDbEntity
  8
M1
  6
CONTINUOUS
370
25
 62
     7
100
AcDbLine
 10
379.379669
 20
374.611084
 11
379.379669
 21
368.611084
  0
LINE
  5
10B
100
AcDbEntity
  8
M1
  6
CONTINUOUS
370
25
 62
     7
100
AcDbLine
 10
459.378662
 20
374.611084
 11
459.378662
 21
368.611084
  0
LINE
  5
10C
100
AcDbEntity
  8
M1
  6
CONTINUOUS
370
25
 62
     7
100
AcDbLine
 10
440.379669
 20
407.609985
 11
443.978668
 21
407.610962
  0
LINE
  5
10D
100
AcDbEntity
  8
M1
  6
CONTINUOUS
370
25
 62
     7
100
AcDbLine
 10
440.379669
 20
410.409973
 11
443.978668
 21
410.41098
  0
LINE
  5
10E
100
AcDbEntity
  8
M1
  6
CONTINUOUS
370
25
 62
     7
100
AcDbLine
 10
486.378662
 20
342.111084
 11
486.378662
 21
337.111084
  0
LINE
  5
10F
100
AcDbEntity
  8
M1
  6
CONTINUOUS
370
25
 62
     7
100
AcDbLine
 10
359.879669
 20
348.111084
 11
359.879669
 21
331.111084
  0
LINE
  5
110
100
AcDbEntity
  8
M1
  6
CONTINUOUS
370
25
 62
     7
100
AcDbLine
 10
513.378662
 20
341.214081
 11
513.379669
 21
347.111084
  0
LINE
  5
111
100
AcDbEntity
  8
M1
  6
CONTINUOUS
370
25
 62
     7
100
AcDbLine
 10
325.379669
 20
342.302078
 11
325.379669
 21
339.611084
  0
LINE
  5
112
100
AcDbEntity
  8
M1
  6
CONTINUOUS
370
25
 62
     7
100
AcDbLine
 10
513.379669
 20
339.611084
 11
513.379669
 21
347.111084
  0
LINE
  5
113
100
AcDbEntity
  8
M1
  6
CONTINUOUS
370
25
 62
     7
100
AcDbLine
 10
479.879669
 20
347.111084
 11
513.379669
 21
347.111084
  0
LINE
  5
114
100
AcDbEntity
  8
M1
  6
CONTINUOUS
370
25
 62
     7
100
AcDbLine
 10
483.378662
 20
342.111084
 11
513.378662
 21
342.111084
  0
LINE
  5
115
100
AcDbEntity
  8
M1
  6
CONTINUOUS
370
25
 62
     7
100
AcDbLine
 10
478.879669
 20
348.111084
 11
478.879669
 21
339.611084
  0
LINE
  5
116
100
AcDbEntity
  8
M1
  6
CONTINUOUS
370
25
 62
     7
100
AcDbLine
 10
459.379669
 20
360.611084
 11
472.379669
 21
360.611084
  0
LINE
  5
117
100
AcDbEntity
  8
M1
  6
CONTINUOUS
370
25
 62
     7
100
AcDbLine
 10
459.379669
 20
377.611084
 11
459.379669
 21
360.611084
  0
LINE
  5
118
100
AcDbEntity
  8
M1
  6
CONTINUOUS
370
25
 62
     7
100
AcDbLine
 10
454.379669
 20
377.611084
 11
459.379669
 21
377.611084
  0
LINE
  5
119
100
AcDbEntity
  8
M1
  6
CONTINUOUS
370
25
 62
     7
100
AcDbLine
 10
459.379669
 20
360.611084
 11
459.379669
 21
339.611084
  0
LINE
  5
11A
100
AcDbEntity
  8
M1
  6
CONTINUOUS
370
25
 62
     7
100
AcDbLine
 10
450.379669
 20
404.611084
 11
450.379669
 21
339.611084
  0
LINE
  5
11B
100
AcDbEntity
  8
M1
  6
CONTINUOUS
370
25
 62
     7
100
AcDbLine
 10
440.379669
 20
405.611084
 11
440.379669
 21
339.611084
  0
LINE
  5
11C
100
AcDbEntity
  8
M1
  6
CONTINUOUS
370
25
 62
     7
100
AcDbLine
 10
449.379669
 20
405.611084
 11
440.379669
 21
405.611084
  0
LINE
  5
11D
100
AcDbEntity
  8
M1
  6
CONTINUOUS
370
25
 62
     7
100
AcDbLine
 10
440.379669
 20
414.611084
 11
440.379669
 21
405.129089
  0
LINE
  5
11E
100
AcDbEntity
  8
M1
  6
CONTINUOUS
370
25
 62
     7
100
AcDbLine
 10
398.379669
 20
414.611084
 11
398.379669
 21
404.543091
  0
LINE
  5
11F
100
AcDbEntity
  8
M1
  6
CONTINUOUS
370
25
 62
     7
100
AcDbLine
 10
398.379669
 20
405.611084
 11
398.379669
 21
339.611084
  0
LINE
  5
120
100
AcDbEntity
  8
M1
  6
CONTINUOUS
370
25
 62
     7
100
AcDbLine
 10
389.379669
 20
405.611084
 11
398.379669
 21
405.611084
  0
LINE
  5
121
100
AcDbEntity
  8
M1
  6
CONTINUOUS
370
25
 62
     7
100
AcDbLine
 10
388.379669
 20
404.611084
 11
388.379669
 21
339.611084
  0
LINE
  5
122
100
AcDbEntity
  8
M1
  6
CONTINUOUS
370
25
 62
     7
100
AcDbLine
 10
384.379669
 20
377.611084
 11
379.379669
 21
377.611084
  0
LINE
  5
123
100
AcDbEntity
  8
M1
  6
CONTINUOUS
370
25
 62
     7
100
AcDbLine
 10
379.379669
 20
377.611084
 11
379.379669
 21
360.611084
  0
LINE
  5
124
100
AcDbEntity
  8
M1
  6
CONTINUOUS
370
25
 62
     7
100
AcDbLine
 10
379.379669
 20
360.611084
 11
366.379669
 21
360.611084
  0
LINE
  5
125
100
AcDbEntity
  8
M1
  6
CONTINUOUS
370
25
 62
     7
100
AcDbLine
 10
379.379669
 20
360.611084
 11
379.379669
 21
339.611084
  0
LINE
  5
126
100
AcDbEntity
  8
M1
  6
CONTINUOUS
370
25
 62
     7
100
AcDbLine
 10
366.379669
 20
357.111084
 11
366.379669
 21
360.611084
  0
LINE
  5
127
100
AcDbEntity
  8
M1
  6
CONTINUOUS
370
25
 62
     7
100
AcDbLine
 10
366.379669
 20
357.111084
 11
366.379669
 21
339.611084
  0
LINE
  5
128
100
AcDbEntity
  8
M1
  6
CONTINUOUS
370
25
 62
     7
100
AcDbLine
 10
325.379669
 20
347.111084
 11
358.879669
 21
347.111084
  0
LINE
  5
129
100
AcDbEntity
  8
M1
  6
CONTINUOUS
370
25
 62
     7
100
AcDbLine
 10
325.379669
 20
347.111084
 11
325.379669
 21
339.611084
  0
LINE
  5
12A
100
AcDbEntity
  8
M1
  6
CONTINUOUS
370
13
 62
     7
100
AcDbLine
 10
673.550598
 20
339.611084
 11
680.724792
 21
339.611084
  0
LINE
  5
12B
100
AcDbEntity
  8
M1
  6
CONTINUOUS
370
13
 62
     7
100
AcDbLine
 10
677.137695
 20
336.023972
 11
677.137695
 21
343.198181
  0
LINE
  5
12C
100
AcDbEntity
  8
M1
  6
CONTINUOUS
370
25
 62
     7
100
AcDbLine
 10
683.137695
 20
364.691071
 11
683.137695
 21
403.486084
  0
LINE
  5
12D
100
AcDbEntity
  8
M1
  6
CONTINUOUS
370
25
 62
     7
100
AcDbLine
 10
671.137695
 20
364.691071
 11
671.137695
 21
403.486084
  0
LINE
  5
12E
100
AcDbEntity
  8
M1
  6
CONTINUOUS
370
13
 62
     7
100
AcDbLine
 10
677.137695
 20
376.611084
 11
677.137695
 21
366.611084
  0
LINE
  5
12F
100
AcDbEntity
  8
M1
  6
CONTINUOUS
370
25
 62
     7
100
AcDbLine
 10
658.417572
 20
357.346878
 11
624.820572
 21
376.744873
  0
LINE
  5
130
100
AcDbEntity
  8
M1
  6
CONTINUOUS
370
25
 62
     7
100
AcDbLine
 10
652.417572
 20
346.954971
 11
618.820572
 21
366.351974
  0
LINE
  5
131
100
AcDbEntity
  8
M1
  6
CONTINUOUS
370
25
 62
     7
100
AcDbLine
 10
652.417679
 20
332.267075
 11
618.82077
 21
312.870071
  0
LINE
  5
132
100
AcDbEntity
  8
M1
  6
CONTINUOUS
370
25
 62
     7
100
AcDbLine
 10
658.417679
 20
321.875076
 11
624.820679
 21
302.477982
  0
LINE
  5
133
100
AcDbEntity
  8
M1
  6
CONTINUOUS
370
25
 62
     7
100
AcDbLine
 10
671.137695
 20
314.531082
 11
671.137695
 21
275.736084
  0
LINE
  5
134
100
AcDbEntity
  8
M1
  6
CONTINUOUS
370
25
 62
     7
100
AcDbLine
 10
683.137695
 20
314.531082
 11
683.137695
 21
275.736084
  0
LINE
  5
135
100
AcDbEntity
  8
M1
  6
CONTINUOUS
370
13
 62
     7
100
AcDbLine
 10
677.137695
 20
302.611084
 11
677.137695
 21
312.611084
  0
LINE
  5
136
100
AcDbEntity
  8
M1
  6
CONTINUOUS
370
25
 62
     7
100
AcDbLine
 10
695.857658
 20
321.874985
 11
729.454636
 21
302.477982
  0
LINE
  5
137
100
AcDbEntity
  8
M1
  6
CONTINUOUS
370
25
 62
     7
100
AcDbLine
 10
701.857643
 20
332.266983
 11
735.454624
 21
312.86998
  0
LINE
  5
138
100
AcDbEntity
  8
M1
  6
CONTINUOUS
370
25
 62
     7
100
AcDbLine
 10
701.857674
 20
346.954971
 11
735.454685
 21
366.352081
  0
LINE
  5
139
100
AcDbEntity
  8
M1
  6
CONTINUOUS
370
25
 62
     7
100
AcDbLine
 10
695.857742
 20
357.34697
 11
729.454735
 21
376.74498
  0
LINE
  5
13A
100
AcDbEntity
  8
M1
  6
CONTINUOUS
370
25
 62
     7
100
AcDbLine
 10
659.026772
 20
366.979172
 11
663.065773
 21
359.982178
  0
LINE
  5
13B
100
AcDbEntity
  8
M1
  6
CONTINUOUS
370
25
 62
     7
100
AcDbLine
 10
662.490677
 20
368.97908
 11
666.530777
 21
361.983078
  0
LINE
  5
13C
100
AcDbEntity
  8
M1
  6
CONTINUOUS
370
25
 62
     7
100
AcDbLine
 10
644.380676
 20
337.610077
 11
652.459679
 21
337.610077
  0
LINE
  5
13D
100
AcDbEntity
  8
M1
  6
CONTINUOUS
370
25
 62
     7
100
AcDbLine
 10
644.380676
 20
341.610077
 11
652.459679
 21
341.611084
  0
LINE
  5
13E
100
AcDbEntity
  8
M1
  6
CONTINUOUS
370
25
 62
     7
100
AcDbLine
 10
662.491776
 20
310.243073
 11
666.531677
 21
317.239075
  0
LINE
  5
13F
100
AcDbEntity
  8
M1
  6
CONTINUOUS
370
25
 62
     7
100
AcDbLine
 10
659.027672
 20
312.243073
 11
663.066673
 21
319.239075
  0
LINE
  5
140
100
AcDbEntity
  8
M1
  6
CONTINUOUS
370
25
 62
     7
100
AcDbLine
 10
695.248619
 20
312.24408
 11
691.209602
 21
319.240082
  0
LINE
  5
141
100
AcDbEntity
  8
M1
  6
CONTINUOUS
370
25
 62
     7
100
AcDbLine
 10
691.784752
 20
310.243179
 11
687.745758
 21
317.240173
  0
LINE
  5
142
100
AcDbEntity
  8
M1
  6
CONTINUOUS
370
25
 62
     7
100
AcDbLine
 10
709.894657
 20
341.612076
 11
701.815674
 21
341.612076
  0
LINE
  5
143
100
AcDbEntity
  8
M1
  6
CONTINUOUS
370
25
 62
     7
100
AcDbLine
 10
709.894657
 20
337.612076
 11
701.815674
 21
337.612076
  0
LINE
  5
144
100
AcDbEntity
  8
M1
  6
CONTINUOUS
370
25
 62
     7
100
AcDbLine
 10
691.783653
 20
368.980072
 11
687.743622
 21
361.983078
  0
LINE
  5
145
100
AcDbEntity
  8
M1
  6
CONTINUOUS
370
25
 62
     7
100
AcDbLine
 10
695.247643
 20
366.980072
 11
691.208649
 21
359.983078
  0
LINE
  5
146
100
AcDbEntity
  8
M1
  6
CONTINUOUS
370
25
 62
     7
100
AcDbLine
 10
672.137749
 20
401.997986
 11
677.137764
 21
404.883972
  0
LINE
  5
147
100
AcDbEntity
  8
M1
  6
CONTINUOUS
370
25
 62
     7
100
AcDbLine
 10
672.137695
 20
396.224091
 11
672.137695
 21
401.998077
  0
LINE
  5
148
100
AcDbEntity
  8
M1
  6
CONTINUOUS
370
25
 62
     7
100
AcDbLine
 10
677.137703
 20
393.337982
 11
672.137703
 21
396.224091
  0
LINE
  5
149
100
AcDbEntity
  8
M1
  6
CONTINUOUS
370
25
 62
     7
100
AcDbLine
 10
682.137718
 20
396.224091
 11
677.137718
 21
393.338074
  0
LINE
  5
14A
100
AcDbEntity
  8
M1
  6
CONTINUOUS
370
25
 62
     7
100
AcDbLine
 10
682.137695
 20
401.998077
 11
682.137695
 21
396.224091
  0
LINE
  5
14B
100
AcDbEntity
  8
M1
  6
CONTINUOUS
370
25
 62
     7
100
AcDbLine
 10
677.137619
 20
404.883881
 11
682.137627
 21
401.997864
  0
LINE
  5
14C
100
AcDbEntity
  8
M1
  6
CONTINUOUS
370
25
 62
     7
100
AcDbLine
 10
620.60968
 20
366.474075
 11
620.60968
 21
372.248077
  0
LINE
  5
14D
100
AcDbEntity
  8
M1
  6
CONTINUOUS
370
25
 62
     7
100
AcDbLine
 10
625.609573
 20
363.587982
 11
620.609573
 21
366.474075
  0
LINE
  5
14E
100
AcDbEntity
  8
M1
  6
CONTINUOUS
370
25
 62
     7
100
AcDbLine
 10
630.609772
 20
366.474075
 11
625.609772
 21
363.588074
  0
LINE
  5
14F
100
AcDbEntity
  8
M1
  6
CONTINUOUS
370
25
 62
     7
100
AcDbLine
 10
630.60968
 20
372.248077
 11
630.60968
 21
366.474075
  0
LINE
  5
150
100
AcDbEntity
  8
M1
  6
CONTINUOUS
370
25
 62
     7
100
AcDbLine
 10
625.609573
 20
375.134979
 11
630.609573
 21
372.247971
  0
LINE
  5
151
100
AcDbEntity
  8
M1
  6
CONTINUOUS
370
25
 62
     7
100
AcDbLine
 10
620.609772
 20
372.247971
 11
625.609772
 21
375.134979
  0
LINE
  5
152
100
AcDbEntity
  8
M1
  6
CONTINUOUS
370
25
 62
     7
100
AcDbLine
 10
625.609573
 20
304.087982
 11
620.609573
 21
306.973984
  0
LINE
  5
153
100
AcDbEntity
  8
M1
  6
CONTINUOUS
370
25
 62
     7
100
AcDbLine
 10
630.60968
 20
306.974075
 11
625.60968
 21
304.088074
  0
LINE
  5
154
100
AcDbEntity
  8
M1
  6
CONTINUOUS
370
25
 62
     7
100
AcDbLine
 10
630.60968
 20
312.748077
 11
630.60968
 21
306.974075
  0
LINE
  5
155
100
AcDbEntity
  8
M1
  6
CONTINUOUS
370
25
 62
     7
100
AcDbLine
 10
625.609573
 20
315.634979
 11
630.609573
 21
312.747971
  0
LINE
  5
156
100
AcDbEntity
  8
M1
  6
CONTINUOUS
370
25
 62
     7
100
AcDbLine
 10
620.609772
 20
312.747971
 11
625.609772
 21
315.634979
  0
LINE
  5
157
100
AcDbEntity
  8
M1
  6
CONTINUOUS
370
25
 62
     7
100
AcDbLine
 10
620.60968
 20
306.974075
 11
620.60968
 21
312.748077
  0
LINE
  5
158
100
AcDbEntity
  8
M1
  6
CONTINUOUS
370
25
 62
     7
100
AcDbLine
 10
682.137718
 20
277.224075
 11
677.137718
 21
274.338074
  0
LINE
  5
159
100
AcDbEntity
  8
M1
  6
CONTINUOUS
370
25
 62
     7
100
AcDbLine
 10
682.137695
 20
282.998077
 11
682.137695
 21
277.224075
  0
LINE
  5
15A
100
AcDbEntity
  8
M1
  6
CONTINUOUS
370
25
 62
     7
100
AcDbLine
 10
677.137604
 20
285.884872
 11
682.137604
 21
282.997879
  0
LINE
  5
15B
100
AcDbEntity
  8
M1
  6
CONTINUOUS
370
25
 62
     7
100
AcDbLine
 10
672.137749
 20
282.997971
 11
677.137749
 21
285.884979
  0
LINE
  5
15C
100
AcDbEntity
  8
M1
  6
CONTINUOUS
370
25
 62
     7
100
AcDbLine
 10
672.137695
 20
277.224075
 11
672.137695
 21
282.998077
  0
LINE
  5
15D
100
AcDbEntity
  8
M1
  6
CONTINUOUS
370
25
 62
     7
100
AcDbLine
 10
677.137703
 20
274.337982
 11
672.137695
 21
277.223984
  0
LINE
  5
15E
100
AcDbEntity
  8
M1
  6
CONTINUOUS
370
25
 62
     7
100
AcDbLine
 10
733.665646
 20
312.748077
 11
733.665646
 21
306.974075
  0
LINE
  5
15F
100
AcDbEntity
  8
M1
  6
CONTINUOUS
370
25
 62
     7
100
AcDbLine
 10
728.666626
 20
315.635071
 11
733.665596
 21
312.748077
  0
LINE
  5
160
100
AcDbEntity
  8
M1
  6
CONTINUOUS
370
25
 62
     7
100
AcDbLine
 10
723.666725
 20
312.747971
 11
728.666725
 21
315.634979
  0
LINE
  5
161
100
AcDbEntity
  8
M1
  6
CONTINUOUS
370
25
 62
     7
100
AcDbLine
 10
723.666687
 20
306.974075
 11
723.666687
 21
312.748077
  0
LINE
  5
162
100
AcDbEntity
  8
M1
  6
CONTINUOUS
370
25
 62
     7
100
AcDbLine
 10
728.666656
 20
304.087982
 11
723.666664
 21
306.973984
  0
LINE
  5
163
100
AcDbEntity
  8
M1
  6
CONTINUOUS
370
25
 62
     7
100
AcDbLine
 10
733.665646
 20
306.974075
 11
728.666706
 21
304.088074
  0
LINE
  5
164
100
AcDbEntity
  8
M1
  6
CONTINUOUS
370
25
 62
     7
100
AcDbLine
 10
728.666687
 20
375.135178
 11
733.665665
 21
372.248184
  0
LINE
  5
165
100
AcDbEntity
  8
M1
  6
CONTINUOUS
370
25
 62
     7
100
AcDbLine
 10
723.666695
 20
372.247971
 11
728.666695
 21
375.134979
  0
LINE
  5
166
100
AcDbEntity
  8
M1
  6
CONTINUOUS
370
25
 62
     7
100
AcDbLine
 10
723.666687
 20
366.474075
 11
723.666687
 21
372.248077
  0
LINE
  5
167
100
AcDbEntity
  8
M1
  6
CONTINUOUS
370
25
 62
     7
100
AcDbLine
 10
728.666664
 20
363.587982
 11
723.666664
 21
366.474075
  0
LINE
  5
168
100
AcDbEntity
  8
M1
  6
CONTINUOUS
370
25
 62
     7
100
AcDbLine
 10
733.665627
 20
366.474075
 11
728.666687
 21
363.588074
  0
LINE
  5
169
100
AcDbEntity
  8
M1
  6
CONTINUOUS
370
25
 62
     7
100
AcDbLine
 10
733.665646
 20
372.248077
 11
733.665646
 21
366.474075
  0
LINE
  5
16A
100
AcDbEntity
  8
M1
  6
CONTINUOUS
370
25
 62
     7
100
AcDbLine
 10
710.266705
 20
400.993073
 11
726.745705
 21
429.533081
  0
LINE
  5
16B
100
AcDbEntity
  8
M1
  6
CONTINUOUS
370
25
 62
     7
100
AcDbLine
 10
713.763706
 20
399.049072
 11
730.568714
 21
428.156067
  0
LINE
  5
16C
100
AcDbEntity
  8
M1
  6
CONTINUOUS
370
25
 62
     7
100
AcDbLine
 10
732.903675
 20
446.198975
 11
731.171684
 21
445.198975
  0
LINE
  5
16D
100
AcDbEntity
  8
M1
  6
CONTINUOUS
370
25
 62
     7
100
AcDbLine
 10
741.563656
 20
441.199066
 11
741.563656
 21
439.199066
  0
LINE
  5
16E
100
AcDbEntity
  8
M1
  6
CONTINUOUS
370
25
 62
     7
100
AcDbLine
 10
732.037796
 20
445.699188
 11
729.537804
 21
450.029175
  0
LINE
  5
16F
100
AcDbEntity
  8
M1
  6
CONTINUOUS
370
25
 62
     7
100
AcDbLine
 10
741.563656
 20
440.199066
 11
746.563656
 21
440.199066
  0
LINE
  5
170
100
AcDbEntity
  8
M1
  6
CONTINUOUS
370
25
 62
     7
100
AcDbLine
 10
732.903675
 20
436.199066
 11
730.076645
 21
431.304077
  0
LINE
  5
171
100
AcDbEntity
  8
M1
  6
CONTINUOUS
370
25
 62
     7
100
AcDbLine
 10
732.038673
 20
430.700989
 11
734.635685
 21
435.199066
  0
LINE
  5
172
100
AcDbEntity
  8
M1
  6
CONTINUOUS
370
25
 62
     7
100
AcDbLine
 10
728.115646
 20
431.906067
 11
731.171665
 21
437.199066
  0
LINE
  5
173
100
AcDbEntity
  8
M1
  6
CONTINUOUS
370
25
 62
     7
100
AcDbLine
 10
732.038704
 20
430.70108
 11
728.115654
 21
431.906067
  0
LINE
  5
174
100
AcDbEntity
  8
M1
  6
CONTINUOUS
370
25
 62
     7
100
AcDbLine
 10
730.568615
 20
428.155975
 11
726.745625
 21
429.53299
  0
LINE
  5
175
100
AcDbEntity
  8
M1
  6
CONTINUOUS
370
25
 62
     7
100
AcDbLine
 10
728.656666
 20
428.844086
 11
712.010666
 21
400.013092
  0
LINE
  5
176
100
AcDbEntity
  8
M1
  6
CONTINUOUS
370
25
 62
     7
100
AcDbLine
 10
672.637695
 20
342.111084
 11
672.637695
 21
337.111084
  0
LINE
  5
177
100
AcDbEntity
  8
M1
  6
CONTINUOUS
370
25
 62
     7
100
AcDbLine
 10
667.637672
 20
342.111084
 11
667.637672
 21
337.111084
  0
LINE
  5
178
100
AcDbEntity
  8
M1
  6
CONTINUOUS
370
25
 62
     7
100
AcDbLine
 10
667.637672
 20
342.111084
 11
672.637695
 21
342.111084
  0
LINE
  5
179
100
AcDbEntity
  8
M1
  6
CONTINUOUS
370
25
 62
     7
100
AcDbLine
 10
672.637695
 20
337.111084
 11
667.637672
 21
337.111084
  0
LINE
  5
17A
100
AcDbEntity
  8
M1
  6
CONTINUOUS
370
13
 62
     7
100
AcDbLine
 10
645.094772
 20
358.111282
 11
653.754776
 21
353.111282
  0
LINE
  5
17B
100
AcDbEntity
  8
M1
  6
CONTINUOUS
370
13
 62
     7
100
AcDbLine
 10
645.094673
 20
321.111176
 11
653.755676
 21
326.111084
  0
LINE
  5
17C
100
AcDbEntity
  8
M1
  6
CONTINUOUS
370
13
 62
     7
100
AcDbLine
 10
709.180576
 20
321.111984
 11
700.520592
 21
326.111984
  0
LINE
  5
17D
100
AcDbEntity
  8
M1
  6
CONTINUOUS
370
13
 62
     7
100
AcDbLine
 10
709.180656
 20
358.111084
 11
700.519684
 21
353.111176
  0
LINE
  5
17E
100
AcDbEntity
  8
M1
  6
CONTINUOUS
370
25
 62
     7
100
AcDbLine
 10
167.72168
 20
342.111084
 11
167.72168
 21
337.111084
  0
LINE
  5
17F
100
AcDbEntity
  8
M1
  6
CONTINUOUS
370
25
 62
     7
100
AcDbLine
 10
172.72168
 20
342.111084
 11
167.72168
 21
342.111084
  0
LINE
  5
180
100
AcDbEntity
  8
M1
  6
CONTINUOUS
370
25
 62
     7
100
AcDbLine
 10
172.72168
 20
342.111084
 11
172.72168
 21
337.111084
  0
LINE
  5
181
100
AcDbEntity
  8
M1
  6
CONTINUOUS
370
25
 62
     7
100
AcDbLine
 10
167.72168
 20
337.111084
 11
172.72168
 21
337.111084
  0
LINE
  5
182
100
AcDbEntity
  8
M1
  6
CONTINUOUS
370
25
 62
     7
100
AcDbLine
 10
388.379669
 20
274.011078
 11
388.379669
 21
286.211075
  0
LINE
  5
183
100
AcDbEntity
  8
M1
  6
CONTINUOUS
370
25
 62
     7
100
AcDbLine
 10
386.379669
 20
274.011078
 11
388.379669
 21
274.011078
  0
LINE
  5
184
100
AcDbEntity
  8
M1
  6
CONTINUOUS
370
25
 62
     7
100
AcDbLine
 10
386.379669
 20
286.211075
 11
386.379669
 21
274.011078
  0
LINE
  5
185
100
AcDbEntity
  8
M1
  6
CONTINUOUS
370
25
 62
     7
100
AcDbLine
 10
382.91568
 20
274.338074
 11
386.379669
 21
274.338074
  0
LINE
  5
186
100
AcDbEntity
  8
M1
  6
CONTINUOUS
370
25
 62
     7
100
AcDbLine
 10
382.91568
 20
277.111084
 11
386.379669
 21
277.111084
  0
LINE
  5
187
100
AcDbEntity
  8
M1
  6
CONTINUOUS
370
25
 62
     7
100
AcDbLine
 10
382.379669
 20
284.498077
 11
382.379669
 21
275.725082
  0
LINE
  5
188
100
AcDbEntity
  8
M1
  6
CONTINUOUS
370
25
 62
     7
100
AcDbLine
 10
386.379669
 20
285.885071
 11
382.91568
 21
285.885071
  0
LINE
  5
189
100
AcDbEntity
  8
M1
  6
CONTINUOUS
370
25
 62
     7
100
AcDbLine
 10
386.379669
 20
283.111084
 11
382.91568
 21
283.111084
  0
LINE
  5
18A
100
AcDbEntity
  8
M1
  6
CONTINUOUS
370
25
 62
     7
100
AcDbLine
 10
386.379669
 20
274.338074
 11
386.379669
 21
285.885071
  0
LINE
  5
18B
100
AcDbEntity
  8
M1
  6
CONTINUOUS
370
25
 62
     7
100
AcDbLine
 10
388.379669
 20
286.211075
 11
386.379669
 21
286.211075
  0
LINE
  5
18C
100
AcDbEntity
  8
M1
  6
CONTINUOUS
370
25
 62
     7
100
AcDbLine
 10
386.379669
 20
279.811081
 11
388.379669
 21
281.811081
  0
LINE
  5
18D
100
AcDbEntity
  8
M1
  6
CONTINUOUS
370
25
 62
     7
100
AcDbLine
 10
386.379761
 20
277.912079
 11
388.379761
 21
279.911072
  0
LINE
  5
18E
100
AcDbEntity
  8
M1
  6
CONTINUOUS
370
25
 62
     7
100
AcDbLine
 10
388.379669
 20
363.261078
 11
388.379669
 21
375.461075
  0
LINE
  5
18F
100
AcDbEntity
  8
M1
  6
CONTINUOUS
370
25
 62
     7
100
AcDbLine
 10
386.379669
 20
363.261078
 11
388.379669
 21
363.261078
  0
LINE
  5
190
100
AcDbEntity
  8
M1
  6
CONTINUOUS
370
25
 62
     7
100
AcDbLine
 10
386.379669
 20
375.461075
 11
386.379669
 21
363.261078
  0
LINE
  5
191
100
AcDbEntity
  8
M1
  6
CONTINUOUS
370
25
 62
     7
100
AcDbLine
 10
382.91568
 20
363.587082
 11
386.379669
 21
363.587082
  0
LINE
  5
192
100
AcDbEntity
  8
M1
  6
CONTINUOUS
370
25
 62
     7
100
AcDbLine
 10
382.91568
 20
366.361084
 11
386.379669
 21
366.361084
  0
LINE
  5
193
100
AcDbEntity
  8
M1
  6
CONTINUOUS
370
25
 62
     7
100
AcDbLine
 10
382.379669
 20
373.74707
 11
382.379669
 21
364.974075
  0
LINE
  5
194
100
AcDbEntity
  8
M1
  6
CONTINUOUS
370
25
 62
     7
100
AcDbLine
 10
386.379669
 20
375.134079
 11
382.91568
 21
375.134079
  0
LINE
  5
195
100
AcDbEntity
  8
M1
  6
CONTINUOUS
370
25
 62
     7
100
AcDbLine
 10
386.379669
 20
372.361084
 11
382.91568
 21
372.361084
  0
LINE
  5
196
100
AcDbEntity
  8
M1
  6
CONTINUOUS
370
25
 62
     7
100
AcDbLine
 10
386.379669
 20
363.587082
 11
386.379669
 21
375.134079
  0
LINE
  5
197
100
AcDbEntity
  8
M1
  6
CONTINUOUS
370
25
 62
     7
100
AcDbLine
 10
388.379669
 20
375.461075
 11
386.379669
 21
375.461075
  0
LINE
  5
198
100
AcDbEntity
  8
M1
  6
CONTINUOUS
370
25
 62
     7
100
AcDbLine
 10
386.379761
 20
369.061081
 11
388.379761
 21
371.061081
  0
LINE
  5
199
100
AcDbEntity
  8
M1
  6
CONTINUOUS
370
25
 62
     7
100
AcDbLine
 10
386.379669
 20
367.161072
 11
388.379669
 21
369.161072
  0
LINE
  5
19A
100
AcDbEntity
  8
M1
  6
CONTINUOUS
370
25
 62
     7
100
AcDbLine
 10
388.379669
 20
393.011078
 11
388.379669
 21
405.21109
  0
LINE
  5
19B
100
AcDbEntity
  8
M1
  6
CONTINUOUS
370
25
 62
     7
100
AcDbLine
 10
386.379669
 20
393.011078
 11
388.379669
 21
393.011078
  0
LINE
  5
19C
100
AcDbEntity
  8
M1
  6
CONTINUOUS
370
25
 62
     7
100
AcDbLine
 10
386.379669
 20
405.21109
 11
386.379669
 21
393.011078
  0
LINE
  5
19D
100
AcDbEntity
  8
M1
  6
CONTINUOUS
370
25
 62
     7
100
AcDbLine
 10
382.91568
 20
393.338074
 11
386.379669
 21
393.338074
  0
LINE
  5
19E
100
AcDbEntity
  8
M1
  6
CONTINUOUS
370
25
 62
     7
100
AcDbLine
 10
382.91568
 20
396.111084
 11
386.379669
 21
396.111084
  0
LINE
  5
19F
100
AcDbEntity
  8
M1
  6
CONTINUOUS
370
25
 62
     7
100
AcDbLine
 10
382.379669
 20
403.498077
 11
382.379669
 21
394.724091
  0
LINE
  5
1A0
100
AcDbEntity
  8
M1
  6
CONTINUOUS
370
25
 62
     7
100
AcDbLine
 10
386.379669
 20
404.885071
 11
382.91568
 21
404.885071
  0
LINE
  5
1A1
100
AcDbEntity
  8
M1
  6
CONTINUOUS
370
25
 62
     7
100
AcDbLine
 10
386.379669
 20
402.111084
 11
382.91568
 21
402.111084
  0
LINE
  5
1A2
100
AcDbEntity
  8
M1
  6
CONTINUOUS
370
25
 62
     7
100
AcDbLine
 10
386.379669
 20
393.338074
 11
386.379669
 21
404.885071
  0
LINE
  5
1A3
100
AcDbEntity
  8
M1
  6
CONTINUOUS
370
25
 62
     7
100
AcDbLine
 10
388.379669
 20
405.21109
 11
386.379669
 21
405.21109
  0
LINE
  5
1A4
100
AcDbEntity
  8
M1
  6
CONTINUOUS
370
25
 62
     7
100
AcDbLine
 10
386.379669
 20
398.811066
 11
388.379669
 21
400.811066
  0
LINE
  5
1A5
100
AcDbEntity
  8
M1
  6
CONTINUOUS
370
25
 62
     7
100
AcDbLine
 10
386.379669
 20
396.911072
 11
388.379669
 21
398.911072
  0
LINE
  5
1A6
100
AcDbEntity
  8
M1
  6
CONTINUOUS
370
25
 62
     7
100
AcDbLine
 10
452.378662
 20
274.011078
 11
450.379669
 21
274.011078
  0
LINE
  5
1A7
100
AcDbEntity
  8
M1
  6
CONTINUOUS
370
25
 62
     7
100
AcDbLine
 10
452.378662
 20
286.211075
 11
452.379669
 21
274.011078
  0
LINE
  5
1A8
100
AcDbEntity
  8
M1
  6
CONTINUOUS
370
25
 62
     7
100
AcDbLine
 10
455.842682
 20
274.338074
 11
452.378662
 21
274.338074
  0
LINE
  5
1A9
100
AcDbEntity
  8
M1
  6
CONTINUOUS
370
25
 62
     7
100
AcDbLine
 10
455.842682
 20
277.111084
 11
452.378662
 21
277.111084
  0
LINE
  5
1AA
100
AcDbEntity
  8
M1
  6
CONTINUOUS
370
25
 62
     7
100
AcDbLine
 10
456.378662
 20
284.498077
 11
456.378662
 21
275.724075
  0
LINE
  5
1AB
100
AcDbEntity
  8
M1
  6
CONTINUOUS
370
25
 62
     7
100
AcDbLine
 10
452.378662
 20
283.111084
 11
455.842682
 21
283.111084
  0
LINE
  5
1AC
100
AcDbEntity
  8
M1
  6
CONTINUOUS
370
25
 62
     7
100
AcDbLine
 10
452.378662
 20
285.885071
 11
455.842682
 21
285.885071
  0
LINE
  5
1AD
100
AcDbEntity
  8
M1
  6
CONTINUOUS
370
25
 62
     7
100
AcDbLine
 10
450.378662
 20
286.211075
 11
452.378662
 21
286.211075
  0
LINE
  5
1AE
100
AcDbEntity
  8
M1
  6
CONTINUOUS
370
25
 62
     7
100
AcDbLine
 10
452.378662
 20
282.311081
 11
450.378662
 21
280.311081
  0
LINE
  5
1AF
100
AcDbEntity
  8
M1
  6
CONTINUOUS
370
25
 62
     7
100
AcDbLine
 10
452.378662
 20
280.411072
 11
450.378662
 21
278.411072
  0
LINE
  5
1B0
100
AcDbEntity
  8
M1
  6
CONTINUOUS
370
25
 62
     7
100
AcDbLine
 10
452.378662
 20
274.338074
 11
452.378662
 21
285.885071
  0
LINE
  5
1B1
100
AcDbEntity
  8
M1
  6
CONTINUOUS
370
25
 62
     7
100
AcDbLine
 10
450.379669
 20
274.011078
 11
450.378662
 21
286.211075
  0
LINE
  5
1B2
100
AcDbEntity
  8
M1
  6
CONTINUOUS
370
25
 62
     7
100
AcDbLine
 10
452.379669
 20
363.261078
 11
450.379669
 21
363.261078
  0
LINE
  5
1B3
100
AcDbEntity
  8
M1
  6
CONTINUOUS
370
25
 62
     7
100
AcDbLine
 10
452.379669
 20
375.461075
 11
452.379669
 21
363.261078
  0
LINE
  5
1B4
100
AcDbEntity
  8
M1
  6
CONTINUOUS
370
25
 62
     7
100
AcDbLine
 10
455.842682
 20
363.587082
 11
452.379669
 21
363.587082
  0
LINE
  5
1B5
100
AcDbEntity
  8
M1
  6
CONTINUOUS
370
25
 62
     7
100
AcDbLine
 10
455.842682
 20
366.361084
 11
452.379669
 21
366.361084
  0
LINE
  5
1B6
100
AcDbEntity
  8
M1
  6
CONTINUOUS
370
25
 62
     7
100
AcDbLine
 10
456.378662
 20
373.74707
 11
456.379669
 21
364.974075
  0
LINE
  5
1B7
100
AcDbEntity
  8
M1
  6
CONTINUOUS
370
25
 62
     7
100
AcDbLine
 10
452.378662
 20
372.361084
 11
455.842682
 21
372.361084
  0
LINE
  5
1B8
100
AcDbEntity
  8
M1
  6
CONTINUOUS
370
25
 62
     7
100
AcDbLine
 10
452.378662
 20
375.134079
 11
455.842682
 21
375.134079
  0
LINE
  5
1B9
100
AcDbEntity
  8
M1
  6
CONTINUOUS
370
25
 62
     7
100
AcDbLine
 10
450.379669
 20
375.461075
 11
452.379669
 21
375.461075
  0
LINE
  5
1BA
100
AcDbEntity
  8
M1
  6
CONTINUOUS
370
25
 62
     7
100
AcDbLine
 10
452.379669
 20
371.560074
 11
450.379669
 21
369.561081
  0
LINE
  5
1BB
100
AcDbEntity
  8
M1
  6
CONTINUOUS
370
25
 62
     7
100
AcDbLine
 10
452.379669
 20
369.661072
 11
450.379669
 21
367.661072
  0
LINE
  5
1BC
100
AcDbEntity
  8
M1
  6
CONTINUOUS
370
25
 62
     7
100
AcDbLine
 10
452.379669
 20
363.587082
 11
452.378662
 21
375.134079
  0
LINE
  5
1BD
100
AcDbEntity
  8
M1
  6
CONTINUOUS
370
25
 62
     7
100
AcDbLine
 10
450.379669
 20
363.261078
 11
450.379669
 21
375.461075
  0
LINE
  5
1BE
100
AcDbEntity
  8
M1
  6
CONTINUOUS
370
25
 62
     7
100
AcDbLine
 10
452.379669
 20
393.011078
 11
450.379669
 21
393.011078
  0
LINE
  5
1BF
100
AcDbEntity
  8
M1
  6
CONTINUOUS
370
25
 62
     7
100
AcDbLine
 10
452.379669
 20
405.21109
 11
452.379669
 21
393.011078
  0
LINE
  5
1C0
100
AcDbEntity
  8
M1
  6
CONTINUOUS
370
25
 62
     7
100
AcDbLine
 10
455.842682
 20
393.338074
 11
452.379669
 21
393.338074
  0
LINE
  5
1C1
100
AcDbEntity
  8
M1
  6
CONTINUOUS
370
25
 62
     7
100
AcDbLine
 10
455.842682
 20
396.111084
 11
452.379669
 21
396.111084
  0
LINE
  5
1C2
100
AcDbEntity
  8
M1
  6
CONTINUOUS
370
25
 62
     7
100
AcDbLine
 10
456.378662
 20
403.498077
 11
456.379669
 21
394.724091
  0
LINE
  5
1C3
100
AcDbEntity
  8
M1
  6
CONTINUOUS
370
25
 62
     7
100
AcDbLine
 10
452.378662
 20
402.111084
 11
455.842682
 21
402.111084
  0
LINE
  5
1C4
100
AcDbEntity
  8
M1
  6
CONTINUOUS
370
25
 62
     7
100
AcDbLine
 10
452.378662
 20
404.885071
 11
455.842682
 21
404.885071
  0
LINE
  5
1C5
100
AcDbEntity
  8
M1
  6
CONTINUOUS
370
25
 62
     7
100
AcDbLine
 10
450.379669
 20
405.21109
 11
452.379669
 21
405.21109
  0
LINE
  5
1C6
100
AcDbEntity
  8
M1
  6
CONTINUOUS
370
25
 62
     7
100
AcDbLine
 10
452.379669
 20
401.311066
 11
450.379669
 21
399.311066
  0
LINE
  5
1C7
100
AcDbEntity
  8
M1
  6
CONTINUOUS
370
25
 62
     7
100
AcDbLine
 10
452.379669
 20
399.41098
 11
450.379669
 21
397.41098
  0
LINE
  5
1C8
100
AcDbEntity
  8
M1
  6
CONTINUOUS
370
25
 62
     7
100
AcDbLine
 10
452.379669
 20
393.338074
 11
452.378662
 21
404.885071
  0
LINE
  5
1C9
100
AcDbEntity
  8
M1
  6
CONTINUOUS
370
25
 62
     7
100
AcDbLine
 10
450.379669
 20
393.011078
 11
450.379669
 21
405.21109
  0
LINE
  5
1CA
100
AcDbEntity
  8
M1
  6
CONTINUOUS
370
25
 62
     7
100
AcDbLine
 10
398.379669
 20
414.610962
 11
399.379669
 21
415.611084
  0
LINE
  5
1CB
100
AcDbEntity
  8
M1
  6
CONTINUOUS
370
25
 62
     7
100
AcDbLine
 10
439.379761
 20
415.610962
 11
440.379761
 21
414.611084
  0
LINE
  5
1CC
100
AcDbEntity
  8
M1
  6
CONTINUOUS
370
25
 62
     7
100
AcDbLine
 10
398.379669
 20
264.611076
 11
399.379761
 21
263.611076
  0
LINE
  5
1CD
100
AcDbEntity
  8
M1
  6
CONTINUOUS
370
25
 62
     7
100
AcDbLine
 10
439.379669
 20
263.611076
 11
440.379669
 21
264.611076
  0
LINE
  5
1CE
100
AcDbEntity
  8
M1
  6
CONTINUOUS
370
13
 62
     7
100
AcDbLine
 10
510.617676
 20
339.611084
 11
524.244873
 21
339.611084
  0
CIRCLE
  5
1CF
100
AcDbEntity
  8
M1
  6
CONTINUOUS
370
25
 62
     7
100
AcDbCircle
 10
163.22168
 20
339.611084
 40
75.999023
  0
CIRCLE
  5
1D0
100
AcDbEntity
  8
M1
  6
CONTINUOUS
370
25
 62
     7
100
AcDbCircle
 10
163.22168
 20
339.611084
 40
65.999023
  0
CIRCLE
  5
1D1
100
AcDbEntity
  8
M1
  6
CONTINUOUS
370
25
 62
     7
100
AcDbCircle
 10
163.22168
 20
339.611084
 40
21.0
  0
CIRCLE
  5
1D2
100
AcDbEntity
  8
M1
  6
CONTINUOUS
370
25
 62
     7
100
AcDbCircle
 10
163.22168
 20
339.611084
 40
17.5
  0
ARC
  5
1D3
100
AcDbEntity
  8
M1
  6
CONTINUOUS
370
25
 62
     7
100
AcDbCircle
 10
173.22168
 20
364.691071
 40
4.0
100
AcDbArc
 50
180.0
 51
248.258011
  0
ARC
  5
1D4
100
AcDbEntity
  8
M1
  6
CONTINUOUS
370
25
 62
     7
100
AcDbCircle
 10
153.22168
 20
364.691071
 40
3.999326
100
AcDbArc
 50
291.735168
 51
360.000008
  0
ARC
  5
1D5
100
AcDbEntity
  8
M1
  6
CONTINUOUS
370
25
 62
     7
100
AcDbCircle
 10
163.22168
 20
371.611084
 40
6.0
100
AcDbArc
 50
0.0
 51
180.0
  0
ARC
  5
1D6
100
AcDbEntity
  8
M1
  6
CONTINUOUS
370
25
 62
     7
100
AcDbCircle
 10
167.22168
 20
403.486084
 40
2.0
100
AcDbArc
 50
0.0
 51
86.416687
  0
ARC
  5
1D7
100
AcDbEntity
  8
M1
  6
CONTINUOUS
370
25
 62
     7
100
AcDbCircle
 10
159.22168
 20
403.486084
 40
1.999913
100
AcDbArc
 50
93.583481
 51
180.0
  0
ARC
  5
1D8
100
AcDbEntity
  8
M1
  6
CONTINUOUS
370
25
 62
     7
100
AcDbCircle
 10
189.94165
 20
343.491074
 40
3.999916
100
AcDbArc
 50
120.000694
 51
188.263763
  0
ARC
  5
1D9
100
AcDbEntity
  8
M1
  6
CONTINUOUS
370
25
 62
     7
100
AcDbCircle
 10
179.94165
 20
360.811081
 40
4.00078
100
AcDbArc
 50
231.729797
 51
300.001831
  0
ARC
  5
1DA
100
AcDbEntity
  8
M1
  6
CONTINUOUS
370
25
 62
     7
100
AcDbCircle
 10
190.933655
 20
355.611084
 40
5.99988
100
AcDbArc
 50
300.000671
 51
480.000748
  0
ARC
  5
1DB
100
AcDbEntity
  8
M1
  6
CONTINUOUS
370
25
 62
     7
100
AcDbCircle
 10
220.538696
 20
368.084076
 40
1.999951
100
AcDbArc
 50
300.000793
 51
386.424667
  0
ARC
  5
1DC
100
AcDbEntity
  8
M1
  6
CONTINUOUS
370
25
 62
     7
100
AcDbCircle
 10
216.538696
 20
375.013077
 40
1.999662
100
AcDbArc
 50
33.579601
 51
120.002132
  0
ARC
  5
1DD
100
AcDbEntity
  8
M1
  6
CONTINUOUS
370
25
 62
     7
100
AcDbCircle
 10
179.94165
 20
318.411072
 40
3.999916
100
AcDbArc
 50
59.999306
 51
128.269569
  0
ARC
  5
1DE
100
AcDbEntity
  8
M1
  6
CONTINUOUS
370
25
 62
     7
100
AcDbCircle
 10
189.94165
 20
335.731079
 40
4.000401
100
AcDbArc
 50
171.735977
 51
239.999123
  0
ARC
  5
1DF
100
AcDbEntity
  8
M1
  6
CONTINUOUS
370
25
 62
     7
100
AcDbCircle
 10
190.933655
 20
323.611084
 40
5.99988
100
AcDbArc
 50
239.999344
 51
419.999268
  0
ARC
  5
1E0
100
AcDbEntity
  8
M1
  6
CONTINUOUS
370
25
 62
     7
100
AcDbCircle
 10
216.538696
 20
304.210083
 40
1.999965
100
AcDbArc
 50
239.99942
 51
326.398201
  0
ARC
  5
1E1
100
AcDbEntity
  8
M1
  6
CONTINUOUS
370
25
 62
     7
100
AcDbCircle
 10
220.538696
 20
311.138077
 40
1.999904
100
AcDbArc
 50
333.575317
 51
419.999191
  0
ARC
  5
1E2
100
AcDbEntity
  8
M1
  6
CONTINUOUS
370
25
 62
     7
100
AcDbCircle
 10
153.22168
 20
314.531082
 40
4.0
100
AcDbArc
 50
0.0
 51
68.270187
  0
ARC
  5
1E3
100
AcDbEntity
  8
M1
  6
CONTINUOUS
370
25
 62
     7
100
AcDbCircle
 10
173.22168
 20
314.531082
 40
4.000609
100
AcDbArc
 50
111.742889
 51
180.0
  0
ARC
  5
1E4
100
AcDbEntity
  8
M1
  6
CONTINUOUS
370
25
 62
     7
100
AcDbCircle
 10
163.22168
 20
307.611084
 40
6.0
100
AcDbArc
 50
180.0
 51
360.0
  0
ARC
  5
1E5
100
AcDbEntity
  8
M1
  6
CONTINUOUS
370
25
 62
     7
100
AcDbCircle
 10
159.22168
 20
275.736084
 40
2.0
100
AcDbArc
 50
180.0
 51
266.41671
  0
ARC
  5
1E6
100
AcDbEntity
  8
M1
  6
CONTINUOUS
370
25
 62
     7
100
AcDbCircle
 10
167.22168
 20
275.736084
 40
1.999913
100
AcDbArc
 50
273.583466
 51
359.999985
  0
ARC
  5
1E7
100
AcDbEntity
  8
M1
  6
CONTINUOUS
370
25
 62
     7
100
AcDbCircle
 10
136.501648
 20
335.731079
 40
3.999916
100
AcDbArc
 50
300.000702
 51
368.26516
  0
ARC
  5
1E8
100
AcDbEntity
  8
M1
  6
CONTINUOUS
370
25
 62
     7
100
AcDbCircle
 10
146.501648
 20
318.411072
 40
4.000213
100
AcDbArc
 50
51.740089
 51
120.000031
  0
ARC
  5
1E9
100
AcDbEntity
  8
M1
  6
CONTINUOUS
370
25
 62
     7
100
AcDbCircle
 10
135.508667
 20
323.611084
 40
5.999867
100
AcDbArc
 50
120.000732
 51
300.000656
  0
ARC
  5
1EA
100
AcDbEntity
  8
M1
  6
CONTINUOUS
370
25
 62
     7
100
AcDbCircle
 10
105.903687
 20
311.138077
 40
1.999951
100
AcDbArc
 50
120.000801
 51
206.423897
  0
ARC
  5
1EB
100
AcDbEntity
  8
M1
  6
CONTINUOUS
370
25
 62
     7
100
AcDbCircle
 10
109.903687
 20
304.210083
 40
2.00027
100
AcDbArc
 50
213.602661
 51
299.999252
  0
ARC
  5
1EC
100
AcDbEntity
  8
M1
  6
CONTINUOUS
370
25
 62
     7
100
AcDbCircle
 10
146.501648
 20
360.811081
 40
3.999916
100
AcDbArc
 50
239.999298
 51
308.268616
  0
ARC
  5
1ED
100
AcDbEntity
  8
M1
  6
CONTINUOUS
370
25
 62
     7
100
AcDbCircle
 10
136.501648
 20
343.491074
 40
4.000583
100
AcDbArc
 50
351.736359
 51
419.999786
  0
ARC
  5
1EE
100
AcDbEntity
  8
M1
  6
CONTINUOUS
370
25
 62
     7
100
AcDbCircle
 10
135.508667
 20
355.611084
 40
5.999867
100
AcDbArc
 50
59.999268
 51
239.999344
  0
ARC
  5
1EF
100
AcDbEntity
  8
M1
  6
CONTINUOUS
370
25
 62
     7
100
AcDbCircle
 10
109.903687
 20
375.013077
 40
1.999951
100
AcDbArc
 50
59.999195
 51
146.419537
  0
ARC
  5
1F0
100
AcDbEntity
  8
M1
  6
CONTINUOUS
370
25
 62
     7
100
AcDbCircle
 10
105.903687
 20
368.085083
 40
1.999511
100
AcDbArc
 50
153.601944
 51
240.014549
  0
ARC
  5
1F1
100
AcDbEntity
  8
M1
  6
CONTINUOUS
370
25
 62
     7
100
AcDbCircle
 10
163.22168
 20
339.611084
 40
34.999725
100
AcDbArc
 50
44.029903
 51
53.037773
  0
ARC
  5
1F2
100
AcDbEntity
  8
M1
  6
CONTINUOUS
370
25
 62
     7
100
AcDbCircle
 10
186.947693
 20
362.547073
 40
1.999951
100
AcDbArc
 50
300.000793
 51
404.027817
  0
ARC
  5
1F3
100
AcDbEntity
  8
M1
  6
CONTINUOUS
370
25
 62
     7
100
AcDbCircle
 10
183.064697
 20
365.97908
 40
1.999575
100
AcDbArc
 50
53.050526
 51
150.000622
  0
ARC
  5
1F4
100
AcDbEntity
  8
M1
  6
CONTINUOUS
370
25
 62
     7
100
AcDbCircle
 10
179.024658
 20
358.982071
 40
1.999951
100
AcDbArc
 50
149.999191
 51
230.785271
  0
ARC
  5
1F5
100
AcDbEntity
  8
M1
  6
CONTINUOUS
370
25
 62
     7
100
AcDbCircle
 10
163.22168
 20
339.611084
 40
35.000401
100
AcDbArc
 50
66.962158
 51
75.971783
  0
ARC
  5
1F6
100
AcDbEntity
  8
M1
  6
CONTINUOUS
370
25
 62
     7
100
AcDbCircle
 10
176.135681
 20
369.97908
 40
1.999951
100
AcDbArc
 50
329.999207
 51
426.960075
  0
ARC
  5
1F7
100
AcDbEntity
  8
M1
  6
CONTINUOUS
370
25
 62
     7
100
AcDbCircle
 10
172.09668
 20
362.983078
 40
2.000253
100
AcDbArc
 50
249.208633
 51
329.996895
  0
ARC
  5
1F8
100
AcDbEntity
  8
M1
  6
CONTINUOUS
370
25
 62
     7
100
AcDbCircle
 10
171.22168
 20
371.627075
 40
1.999468
100
AcDbArc
 50
75.991325
 51
180.0
  0
ARC
  5
1F9
100
AcDbEntity
  8
M1
  6
CONTINUOUS
370
25
 62
     7
100
AcDbCircle
 10
163.22168
 20
339.611084
 40
34.999874
100
AcDbArc
 50
344.029419
 51
353.036825
  0
ARC
  5
1FA
100
AcDbEntity
  8
M1
  6
CONTINUOUS
370
25
 62
     7
100
AcDbCircle
 10
194.947693
 20
330.531082
 40
1.999965
100
AcDbArc
 50
239.99942
 51
344.038101
  0
ARC
  5
1FB
100
AcDbEntity
  8
M1
  6
CONTINUOUS
370
25
 62
     7
100
AcDbCircle
 10
195.977661
 20
335.610077
 40
1.999683
100
AcDbArc
 50
353.04895
 51
450.0
  0
ARC
  5
1FC
100
AcDbEntity
  8
M1
  6
CONTINUOUS
370
25
 62
     7
100
AcDbCircle
 10
187.899658
 20
335.610077
 40
2.0
100
AcDbArc
 50
90.0
 51
170.796242
  0
ARC
  5
1FD
100
AcDbEntity
  8
M1
  6
CONTINUOUS
370
25
 62
     7
100
AcDbCircle
 10
163.22168
 20
339.611084
 40
35.000019
100
AcDbArc
 50
6.961341
 51
15.970516
  0
ARC
  5
1FE
100
AcDbEntity
  8
M1
  6
CONTINUOUS
370
25
 62
     7
100
AcDbCircle
 10
195.977661
 20
343.611084
 40
2.0
100
AcDbArc
 50
270.0
 51
366.946953
  0
ARC
  5
1FF
100
AcDbEntity
  8
M1
  6
CONTINUOUS
370
25
 62
     7
100
AcDbCircle
 10
187.899658
 20
343.611084
 40
2.000733
100
AcDbArc
 50
189.203705
 51
270.0
  0
ARC
  5
200
100
AcDbEntity
  8
M1
  6
CONTINUOUS
370
25
 62
     7
100
AcDbCircle
 10
194.947693
 20
348.691071
 40
2.000083
100
AcDbArc
 50
15.961427
 51
119.999276
  0
ARC
  5
201
100
AcDbEntity
  8
M1
  6
CONTINUOUS
370
25
 62
     7
100
AcDbCircle
 10
163.22168
 20
339.611084
 40
34.999844
100
AcDbArc
 50
284.02832
 51
293.036252
  0
ARC
  5
202
100
AcDbEntity
  8
M1
  6
CONTINUOUS
370
25
 62
     7
100
AcDbCircle
 10
171.22168
 20
307.595078
 40
2.0
100
AcDbArc
 50
180.0
 51
284.006874
  0
ARC
  5
203
100
AcDbEntity
  8
M1
  6
CONTINUOUS
370
25
 62
     7
100
AcDbCircle
 10
176.134705
 20
309.243073
 40
2.000566
100
AcDbArc
 50
293.039703
 51
390.000511
  0
ARC
  5
204
100
AcDbEntity
  8
M1
  6
CONTINUOUS
370
25
 62
     7
100
AcDbCircle
 10
172.095703
 20
316.239075
 40
1.999951
100
AcDbArc
 50
30.000805
 51
110.791042
  0
ARC
  5
205
100
AcDbEntity
  8
M1
  6
CONTINUOUS
370
25
 62
     7
100
AcDbCircle
 10
163.22168
 20
339.611084
 40
34.999252
100
AcDbArc
 50
306.960938
 51
315.970073
  0
ARC
  5
206
100
AcDbEntity
  8
M1
  6
CONTINUOUS
370
25
 62
     7
100
AcDbCircle
 10
183.06366
 20
313.243073
 40
1.999951
100
AcDbArc
 50
210.000809
 51
306.949814
  0
ARC
  5
207
100
AcDbEntity
  8
M1
  6
CONTINUOUS
370
25
 62
     7
100
AcDbCircle
 10
179.023682
 20
320.239075
 40
2.000037
100
AcDbArc
 50
129.196121
 51
210.000801
  0
ARC
  5
208
100
AcDbEntity
  8
M1
  6
CONTINUOUS
370
25
 62
     7
100
AcDbCircle
 10
186.947693
 20
316.675079
 40
1.999977
100
AcDbArc
 50
315.972168
 51
419.999191
  0
ARC
  5
209
100
AcDbEntity
  8
M1
  6
CONTINUOUS
370
25
 62
     7
100
AcDbCircle
 10
163.22168
 20
339.611084
 40
35.000439
100
AcDbArc
 50
224.028809
 51
233.03541
  0
ARC
  5
20A
100
AcDbEntity
  8
M1
  6
CONTINUOUS
370
25
 62
     7
100
AcDbCircle
 10
139.49469
 20
316.675079
 40
1.999951
100
AcDbArc
 50
120.000801
 51
224.027824
  0
ARC
  5
20B
100
AcDbEntity
  8
M1
  6
CONTINUOUS
370
25
 62
     7
100
AcDbCircle
 10
143.378662
 20
313.24408
 40
2.001003
100
AcDbArc
 50
233.044113
 51
329.98735
  0
ARC
  5
20C
100
AcDbEntity
  8
M1
  6
CONTINUOUS
370
25
 62
     7
100
AcDbCircle
 10
147.417664
 20
320.240082
 40
1.999951
100
AcDbArc
 50
329.999207
 51
410.803307
  0
ARC
  5
20D
100
AcDbEntity
  8
M1
  6
CONTINUOUS
370
25
 62
     7
100
AcDbCircle
 10
163.22168
 20
339.611084
 40
34.99987
100
AcDbArc
 50
246.960052
 51
255.970057
  0
ARC
  5
20E
100
AcDbEntity
  8
M1
  6
CONTINUOUS
370
25
 62
     7
100
AcDbCircle
 10
150.306702
 20
309.243073
 40
2.000004
100
AcDbArc
 50
150.000076
 51
246.947784
  0
ARC
  5
20F
100
AcDbEntity
  8
M1
  6
CONTINUOUS
370
25
 62
     7
100
AcDbCircle
 10
154.345703
 20
316.240082
 40
1.99929
100
AcDbArc
 50
69.200027
 51
149.999771
  0
ARC
  5
210
100
AcDbEntity
  8
M1
  6
CONTINUOUS
370
25
 62
     7
100
AcDbCircle
 10
155.22168
 20
307.596085
 40
2.000682
100
AcDbArc
 50
255.971176
 51
360.0
  0
ARC
  5
211
100
AcDbEntity
  8
M1
  6
CONTINUOUS
370
25
 62
     7
100
AcDbCircle
 10
163.22168
 20
339.611084
 40
34.99987
100
AcDbArc
 50
164.029434
 51
173.03699
  0
ARC
  5
212
100
AcDbEntity
  8
M1
  6
CONTINUOUS
370
25
 62
     7
100
AcDbCircle
 10
131.49469
 20
348.691071
 40
1.999965
100
AcDbArc
 50
59.999413
 51
164.037132
  0
ARC
  5
213
100
AcDbEntity
  8
M1
  6
CONTINUOUS
370
25
 62
     7
100
AcDbCircle
 10
130.464661
 20
343.612076
 40
1.999683
100
AcDbArc
 50
173.04895
 51
270.0
  0
ARC
  5
214
100
AcDbEntity
  8
M1
  6
CONTINUOUS
370
25
 62
     7
100
AcDbCircle
 10
138.543701
 20
343.612076
 40
2.0
100
AcDbArc
 50
270.0
 51
350.793091
  0
ARC
  5
215
100
AcDbEntity
  8
M1
  6
CONTINUOUS
370
25
 62
     7
100
AcDbCircle
 10
163.22168
 20
339.611084
 40
35.000023
100
AcDbArc
 50
186.961365
 51
195.970538
  0
ARC
  5
216
100
AcDbEntity
  8
M1
  6
CONTINUOUS
370
25
 62
     7
100
AcDbCircle
 10
130.464661
 20
335.612076
 40
2.0
100
AcDbArc
 50
90.0
 51
186.978622
  0
ARC
  5
217
100
AcDbEntity
  8
M1
  6
CONTINUOUS
370
25
 62
     7
100
AcDbCircle
 10
138.543701
 20
335.612076
 40
1.999769
100
AcDbArc
 50
9.20818
 51
90.0
  0
ARC
  5
218
100
AcDbEntity
  8
M1
  6
CONTINUOUS
370
25
 62
     7
100
AcDbCircle
 10
131.49469
 20
330.532074
 40
1.999417
100
AcDbArc
 50
195.996445
 51
300.001953
  0
ARC
  5
219
100
AcDbEntity
  8
M1
  6
CONTINUOUS
370
25
 62
     7
100
AcDbCircle
 10
163.22168
 20
339.611084
 40
35.000065
100
AcDbArc
 50
104.029869
 51
113.036218
  0
ARC
  5
21A
100
AcDbEntity
  8
M1
  6
CONTINUOUS
370
25
 62
     7
100
AcDbCircle
 10
155.22168
 20
371.627075
 40
2.0
100
AcDbArc
 50
0.0
 51
104.037094
  0
ARC
  5
21B
100
AcDbEntity
  8
M1
  6
CONTINUOUS
370
25
 62
     7
100
AcDbCircle
 10
150.307678
 20
369.980072
 40
1.999285
100
AcDbArc
 50
113.024895
 51
210.001976
  0
ARC
  5
21C
100
AcDbEntity
  8
M1
  6
CONTINUOUS
370
25
 62
     7
100
AcDbCircle
 10
154.347656
 20
362.983078
 40
1.999951
100
AcDbArc
 50
210.000809
 51
290.800308
  0
ARC
  5
21D
100
AcDbEntity
  8
M1
  6
CONTINUOUS
370
25
 62
     7
100
AcDbCircle
 10
163.22168
 20
339.611084
 40
35.000629
100
AcDbArc
 50
126.961227
 51
135.970213
  0
ARC
  5
21E
100
AcDbEntity
  8
M1
  6
CONTINUOUS
370
25
 62
     7
100
AcDbCircle
 10
143.3797
 20
365.980072
 40
1.999951
100
AcDbArc
 50
30.000805
 51
126.972187
  0
ARC
  5
21F
100
AcDbEntity
  8
M1
  6
CONTINUOUS
370
25
 62
     7
100
AcDbCircle
 10
147.418701
 20
358.983078
 40
1.999179
100
AcDbArc
 50
309.211639
 51
390.001442
  0
ARC
  5
220
100
AcDbEntity
  8
M1
  6
CONTINUOUS
370
25
 62
     7
100
AcDbCircle
 10
139.49469
 20
362.547073
 40
1.999275
100
AcDbArc
 50
135.952728
 51
239.999763
  0
ARC
  5
221
100
AcDbEntity
  8
M1
  6
CONTINUOUS
370
25
 62
     7
100
AcDbCircle
 10
187.508667
 20
378.677078
 40
4.999821
100
AcDbArc
 50
238.128113
 51
418.128113
  0
ARC
  5
222
100
AcDbEntity
  8
M1
  6
CONTINUOUS
370
25
 62
     7
100
AcDbCircle
 10
163.22168
 20
339.611084
 40
50.999928
100
AcDbArc
 50
58.130848
 51
61.867722
  0
ARC
  5
223
100
AcDbEntity
  8
M1
  6
CONTINUOUS
370
25
 62
     7
100
AcDbCircle
 10
163.22168
 20
339.611084
 40
41.000282
100
AcDbArc
 50
58.131516
 51
61.867327
  0
ARC
  5
224
100
AcDbEntity
  8
M1
  6
CONTINUOUS
370
25
 62
     7
100
AcDbCircle
 10
184.910706
 20
380.177078
 40
4.999986
100
AcDbArc
 50
61.860493
 51
241.877232
  0
ARC
  5
225
100
AcDbEntity
  8
M1
  6
CONTINUOUS
370
25
 62
     7
100
AcDbCircle
 10
209.196655
 20
338.111084
 40
4.999667
100
AcDbArc
 50
178.13176
 51
358.120209
  0
ARC
  5
226
100
AcDbEntity
  8
M1
  6
CONTINUOUS
370
25
 62
     7
100
AcDbCircle
 10
163.22168
 20
339.611084
 40
50.999138
100
AcDbArc
 50
358.130219
 51
361.867513
  0
ARC
  5
227
100
AcDbEntity
  8
M1
  6
CONTINUOUS
370
25
 62
     7
100
AcDbCircle
 10
163.22168
 20
339.611084
 40
40.999771
100
AcDbArc
 50
358.131256
 51
361.867351
  0
ARC
  5
228
100
AcDbEntity
  8
M1
  6
CONTINUOUS
370
25
 62
     7
100
AcDbCircle
 10
209.196655
 20
341.110077
 40
5.000704
100
AcDbArc
 50
1.867846
 51
181.867861
  0
ARC
  5
229
100
AcDbEntity
  8
M1
  6
CONTINUOUS
370
25
 62
     7
100
AcDbCircle
 10
184.909668
 20
299.045074
 40
4.999928
100
AcDbArc
 50
118.138275
 51
298.128113
  0
ARC
  5
22A
100
AcDbEntity
  8
M1
  6
CONTINUOUS
370
25
 62
     7
100
AcDbCircle
 10
163.22168
 20
339.611084
 40
50.999142
100
AcDbArc
 50
298.13028
 51
301.867563
  0
ARC
  5
22B
100
AcDbEntity
  8
M1
  6
CONTINUOUS
370
25
 62
     7
100
AcDbCircle
 10
163.22168
 20
339.611084
 40
40.999744
100
AcDbArc
 50
298.129547
 51
301.867168
  0
ARC
  5
22C
100
AcDbEntity
  8
M1
  6
CONTINUOUS
370
25
 62
     7
100
AcDbCircle
 10
187.50769
 20
300.545074
 40
5.000663
100
AcDbArc
 50
301.865906
 51
481.871811
  0
ARC
  5
22D
100
AcDbEntity
  8
M1
  6
CONTINUOUS
370
25
 62
     7
100
AcDbCircle
 10
138.933655
 20
300.545074
 40
5.000677
100
AcDbArc
 50
58.134197
 51
238.127605
  0
ARC
  5
22E
100
AcDbEntity
  8
M1
  6
CONTINUOUS
370
25
 62
     7
100
AcDbCircle
 10
163.22168
 20
339.611084
 40
51.000454
100
AcDbArc
 50
238.129929
 51
241.866632
  0
ARC
  5
22F
100
AcDbEntity
  8
M1
  6
CONTINUOUS
370
25
 62
     7
100
AcDbCircle
 10
163.22168
 20
339.611084
 40
40.999989
100
AcDbArc
 50
238.129547
 51
241.867356
  0
ARC
  5
230
100
AcDbEntity
  8
M1
  6
CONTINUOUS
370
25
 62
     7
100
AcDbCircle
 10
141.531677
 20
299.046082
 40
5.000845
100
AcDbArc
 50
241.866547
 51
421.861694
  0
ARC
  5
231
100
AcDbEntity
  8
M1
  6
CONTINUOUS
370
25
 62
     7
100
AcDbCircle
 10
117.245667
 20
341.112076
 40
5.000643
100
AcDbArc
 50
358.132141
 51
538.132141
  0
ARC
  5
232
100
AcDbEntity
  8
M1
  6
CONTINUOUS
370
25
 62
     7
100
AcDbCircle
 10
163.22168
 20
339.611084
 40
51.000175
100
AcDbArc
 50
178.13028
 51
181.867398
  0
ARC
  5
233
100
AcDbEntity
  8
M1
  6
CONTINUOUS
370
25
 62
     7
100
AcDbCircle
 10
163.22168
 20
339.611084
 40
40.999866
100
AcDbArc
 50
178.129868
 51
181.867212
  0
ARC
  5
234
100
AcDbEntity
  8
M1
  6
CONTINUOUS
370
25
 62
     7
100
AcDbCircle
 10
117.245667
 20
338.112076
 40
4.999667
100
AcDbArc
 50
181.86824
 51
361.86824
  0
ARC
  5
235
100
AcDbEntity
  8
M1
  6
CONTINUOUS
370
25
 62
     7
100
AcDbCircle
 10
141.532654
 20
380.17807
 40
5.000774
100
AcDbArc
 50
298.132294
 51
478.128677
  0
ARC
  5
236
100
AcDbEntity
  8
M1
  6
CONTINUOUS
370
25
 62
     7
100
AcDbCircle
 10
163.22168
 20
339.611084
 40
51.000504
100
AcDbArc
 50
118.130798
 51
121.867578
  0
ARC
  5
237
100
AcDbEntity
  8
M1
  6
CONTINUOUS
370
25
 62
     7
100
AcDbCircle
 10
163.22168
 20
339.611084
 40
41.000195
100
AcDbArc
 50
118.13076
 51
121.868623
  0
ARC
  5
238
100
AcDbEntity
  8
M1
  6
CONTINUOUS
370
25
 62
     7
100
AcDbCircle
 10
138.934692
 20
378.67807
 40
4.999306
100
AcDbArc
 50
121.862389
 51
301.866051
  0
CIRCLE
  5
239
100
AcDbEntity
  8
M1
  6
CONTINUOUS
370
25
 62
     7
100
AcDbCircle
 10
163.22168
 20
399.111084
 40
5.0
  0
CIRCLE
  5
23A
100
AcDbEntity
  8
M1
  6
CONTINUOUS
370
25
 62
     7
100
AcDbCircle
 10
214.749695
 20
369.361084
 40
5.0
  0
CIRCLE
  5
23B
100
AcDbEntity
  8
M1
  6
CONTINUOUS
370
25
 62
     7
100
AcDbCircle
 10
214.749695
 20
309.861084
 40
5.0
  0
CIRCLE
  5
23C
100
AcDbEntity
  8
M1
  6
CONTINUOUS
370
25
 62
     7
100
AcDbCircle
 10
163.22168
 20
280.111084
 40
5.0
  0
CIRCLE
  5
23D
100
AcDbEntity
  8
M1
  6
CONTINUOUS
370
25
 62
     7
100
AcDbCircle
 10
111.692688
 20
309.861084
 40
5.0
  0
CIRCLE
  5
23E
100
AcDbEntity
  8
M1
  6
CONTINUOUS
370
25
 62
     7
100
AcDbCircle
 10
111.692688
 20
369.361084
 40
5.0
  0
ARC
  5
23F
100
AcDbEntity
  8
M1
  6
CONTINUOUS
370
25
 62
     7
100
AcDbCircle
 10
163.22168
 20
339.611084
 40
22.99996
100
AcDbArc
 50
51.740902
 51
68.262358
  0
ARC
  5
240
100
AcDbEntity
  8
M1
  6
CONTINUOUS
370
25
 62
     7
100
AcDbCircle
 10
163.22168
 20
339.611084
 40
22.999687
100
AcDbArc
 50
351.738098
 51
368.261837
  0
ARC
  5
241
100
AcDbEntity
  8
M1
  6
CONTINUOUS
370
25
 62
     7
100
AcDbCircle
 10
163.22168
 20
339.611084
 40
22.999512
100
AcDbArc
 50
291.737579
 51
308.260523
  0
ARC
  5
242
100
AcDbEntity
  8
M1
  6
CONTINUOUS
370
25
 62
     7
100
AcDbCircle
 10
163.22168
 20
339.611084
 40
22.999786
100
AcDbArc
 50
231.737457
 51
248.260067
  0
ARC
  5
243
100
AcDbEntity
  8
M1
  6
CONTINUOUS
370
25
 62
     7
100
AcDbCircle
 10
163.22168
 20
339.611084
 40
23.000711
100
AcDbArc
 50
171.738525
 51
188.26152
  0
ARC
  5
244
100
AcDbEntity
  8
M1
  6
CONTINUOUS
370
25
 62
     7
100
AcDbCircle
 10
163.22168
 20
339.611084
 40
23.00078
100
AcDbArc
 50
111.73893
 51
128.260941
  0
ARC
  5
245
100
AcDbEntity
  8
M1
  6
CONTINUOUS
370
25
 62
     7
100
AcDbCircle
 10
98.795654
 20
431.200073
 40
9.999359
100
AcDbArc
 50
29.995457
 51
90.0
  0
ARC
  5
246
100
AcDbEntity
  8
M1
  6
CONTINUOUS
370
25
 62
     7
100
AcDbCircle
 10
116.115662
 20
441.199066
 40
9.999757
100
AcDbArc
 50
149.999191
 51
210.000801
  0
ARC
  5
247
100
AcDbEntity
  8
M1
  6
CONTINUOUS
370
25
 62
     7
100
AcDbCircle
 10
98.795654
 20
431.200073
 40
7.999355
100
AcDbArc
 50
29.994339
 51
90.0
  0
ARC
  5
248
100
AcDbEntity
  8
M1
  6
CONTINUOUS
370
25
 62
     7
100
AcDbCircle
 10
116.115662
 20
441.199066
 40
7.999805
100
AcDbArc
 50
149.999191
 51
210.000801
  0
CIRCLE
  5
249
100
AcDbEntity
  8
M1
  6
CONTINUOUS
370
13
 62
     7
100
AcDbCircle
 10
163.220703
 20
371.611084
 40
3.0
  0
CIRCLE
  5
24A
100
AcDbEntity
  8
M1
  6
CONTINUOUS
370
25
 62
     7
100
AcDbCircle
 10
163.220703
 20
371.611084
 40
2.399963
  0
ARC
  5
24B
100
AcDbEntity
  8
M1
  6
CONTINUOUS
370
13
 62
     7
100
AcDbCircle
 10
163.22168
 20
339.611084
 40
32.000305
100
AcDbArc
 50
80.039673
 51
99.41387
  0
CIRCLE
  5
24C
100
AcDbEntity
  8
M1
  6
CONTINUOUS
370
13
 62
     7
100
AcDbCircle
 10
135.508667
 20
355.611084
 40
3.0
  0
CIRCLE
  5
24D
100
AcDbEntity
  8
M1
  6
CONTINUOUS
370
25
 62
     7
100
AcDbCircle
 10
135.508667
 20
355.611084
 40
2.400024
  0
ARC
  5
24E
100
AcDbEntity
  8
M1
  6
CONTINUOUS
370
13
 62
     7
100
AcDbCircle
 10
163.22168
 20
339.611084
 40
32.000767
100
AcDbArc
 50
140.039032
 51
159.413595
  0
CIRCLE
  5
24F
100
AcDbEntity
  8
M1
  6
CONTINUOUS
370
13
 62
     7
100
AcDbCircle
 10
135.508667
 20
323.611084
 40
3.0
  0
CIRCLE
  5
250
100
AcDbEntity
  8
M1
  6
CONTINUOUS
370
25
 62
     7
100
AcDbCircle
 10
135.508667
 20
323.611084
 40
2.400024
  0
ARC
  5
251
100
AcDbEntity
  8
M1
  6
CONTINUOUS
370
13
 62
     7
100
AcDbCircle
 10
163.22168
 20
339.611084
 40
32.000229
100
AcDbArc
 50
200.038666
 51
219.412924
  0
CIRCLE
  5
252
100
AcDbEntity
  8
M1
  6
CONTINUOUS
370
13
 62
     7
100
AcDbCircle
 10
163.22168
 20
307.611084
 40
3.0
  0
CIRCLE
  5
253
100
AcDbEntity
  8
M1
  6
CONTINUOUS
370
25
 62
     7
100
AcDbCircle
 10
163.22168
 20
307.611084
 40
2.400024
  0
ARC
  5
254
100
AcDbEntity
  8
M1
  6
CONTINUOUS
370
13
 62
     7
100
AcDbCircle
 10
163.22168
 20
339.611084
 40
31.999525
100
AcDbArc
 50
260.037537
 51
279.411911
  0
CIRCLE
  5
255
100
AcDbEntity
  8
M1
  6
CONTINUOUS
370
13
 62
     7
100
AcDbCircle
 10
190.933655
 20
323.612076
 40
3.0
  0
CIRCLE
  5
256
100
AcDbEntity
  8
M1
  6
CONTINUOUS
370
25
 62
     7
100
AcDbCircle
 10
190.933655
 20
323.612076
 40
2.400024
  0
ARC
  5
257
100
AcDbEntity
  8
M1
  6
CONTINUOUS
370
13
 62
     7
100
AcDbCircle
 10
163.22168
 20
339.611084
 40
31.999334
100
AcDbArc
 50
320.039185
 51
339.412964
  0
CIRCLE
  5
258
100
AcDbEntity
  8
M1
  6
CONTINUOUS
370
13
 62
     7
100
AcDbCircle
 10
190.933655
 20
355.611084
 40
3.0
  0
CIRCLE
  5
259
100
AcDbEntity
  8
M1
  6
CONTINUOUS
370
25
 62
     7
100
AcDbCircle
 10
190.933655
 20
355.611084
 40
2.400024
  0
ARC
  5
25A
100
AcDbEntity
  8
M1
  6
CONTINUOUS
370
13
 62
     7
100
AcDbCircle
 10
163.22168
 20
339.611084
 40
31.999308
100
AcDbArc
 50
20.039236
 51
39.414001
  0
ARC
  5
25B
100
AcDbEntity
  8
M1
  6
CONTINUOUS
370
25
 62
     7
100
AcDbCircle
 10
483.379669
 20
339.611084
 40
2.5
100
AcDbArc
 50
90.023079
 51
134.384022
  0
ARC
  5
25C
100
AcDbEntity
  8
M1
  6
CONTINUOUS
370
25
 62
     7
100
AcDbCircle
 10
483.379669
 20
339.611084
 40
2.5
100
AcDbArc
 50
180.0
 51
269.976921
  0
ARC
  5
25D
100
AcDbEntity
  8
M1
  6
CONTINUOUS
370
25
 62
     7
100
AcDbCircle
 10
479.879669
 20
348.111084
 40
1.0
100
AcDbArc
 50
180.0
 51
270.0
  0
ARC
  5
25E
100
AcDbEntity
  8
M1
  6
CONTINUOUS
370
25
 62
     7
100
AcDbCircle
 10
479.879669
 20
331.111084
 40
1.0
100
AcDbArc
 50
90.0
 51
180.0
  0
ARC
  5
25F
100
AcDbEntity
  8
M1
  6
CONTINUOUS
370
25
 62
     7
100
AcDbCircle
 10
449.379669
 20
404.611084
 40
1.0
100
AcDbArc
 50
0.0
 51
90.0
  0
ARC
  5
260
100
AcDbEntity
  8
M1
  6
CONTINUOUS
370
25
 62
     7
100
AcDbCircle
 10
454.379669
 20
381.611084
 40
4.0
100
AcDbArc
 50
180.0
 51
270.0
  0
ARC
  5
261
100
AcDbEntity
  8
M1
  6
CONTINUOUS
370
25
 62
     7
100
AcDbCircle
 10
447.718689
 20
399.111084
 40
8.660212
100
AcDbArc
 50
339.731995
 51
380.268005
  0
ARC
  5
262
100
AcDbEntity
  8
M1
  6
CONTINUOUS
370
25
 62
     7
100
AcDbCircle
 10
454.317688
 20
394.724091
 40
2.06074
100
AcDbArc
 50
317.733337
 51
402.285797
  0
ARC
  5
263
100
AcDbEntity
  8
M1
  6
CONTINUOUS
370
25
 62
     7
100
AcDbCircle
 10
454.317688
 20
403.498077
 40
2.061397
100
AcDbArc
 50
317.713257
 51
402.265717
  0
ARC
  5
264
100
AcDbEntity
  8
M1
  6
CONTINUOUS
370
25
 62
     7
100
AcDbCircle
 10
449.379669
 20
274.611084
 40
1.0
100
AcDbArc
 50
270.0
 51
360.0
  0
ARC
  5
265
100
AcDbEntity
  8
M1
  6
CONTINUOUS
370
25
 62
     7
100
AcDbCircle
 10
454.379669
 20
297.611084
 40
4.0
100
AcDbArc
 50
90.0
 51
180.0
  0
ARC
  5
266
100
AcDbEntity
  8
M1
  6
CONTINUOUS
370
25
 62
     7
100
AcDbCircle
 10
358.879669
 20
348.111084
 40
1.0
100
AcDbArc
 50
270.0
 51
360.0
  0
ARC
  5
267
100
AcDbEntity
  8
M1
  6
CONTINUOUS
370
25
 62
     7
100
AcDbCircle
 10
358.879669
 20
331.111084
 40
1.0
100
AcDbArc
 50
0.0
 51
90.0
  0
ARC
  5
268
100
AcDbEntity
  8
M1
  6
CONTINUOUS
370
25
 62
     7
100
AcDbCircle
 10
389.379669
 20
404.611084
 40
1.0
100
AcDbArc
 50
90.0
 51
180.0
  0
ARC
  5
269
100
AcDbEntity
  8
M1
  6
CONTINUOUS
370
25
 62
     7
100
AcDbCircle
 10
384.379669
 20
381.611084
 40
4.0
100
AcDbArc
 50
270.0
 51
360.0
  0
ARC
  5
26A
100
AcDbEntity
  8
M1
  6
CONTINUOUS
370
25
 62
     7
100
AcDbCircle
 10
391.04068
 20
399.111084
 40
8.660212
100
AcDbArc
 50
159.731995
 51
200.268005
  0
ARC
  5
26B
100
AcDbEntity
  8
M1
  6
CONTINUOUS
370
25
 62
     7
100
AcDbCircle
 10
384.441681
 20
394.724091
 40
2.061397
100
AcDbArc
 50
137.713242
 51
222.265129
  0
ARC
  5
26C
100
AcDbEntity
  8
M1
  6
CONTINUOUS
370
25
 62
     7
100
AcDbCircle
 10
384.441681
 20
403.498077
 40
2.060719
100
AcDbArc
 50
137.733963
 51
222.285851
  0
ARC
  5
26D
100
AcDbEntity
  8
M1
  6
CONTINUOUS
370
25
 62
     7
100
AcDbCircle
 10
389.379669
 20
274.611084
 40
1.0
100
AcDbArc
 50
180.0
 51
270.0
  0
ARC
  5
26E
100
AcDbEntity
  8
M1
  6
CONTINUOUS
370
25
 62
     7
100
AcDbCircle
 10
384.379669
 20
297.611084
 40
4.0
100
AcDbArc
 50
0.0
 51
90.0
  0
ARC
  5
26F
100
AcDbEntity
  8
M1
  6
CONTINUOUS
370
25
 62
     7
100
AcDbCircle
 10
391.039673
 20
309.861084
 40
8.660212
100
AcDbArc
 50
159.731995
 51
200.268005
  0
ARC
  5
270
100
AcDbEntity
  8
M1
  6
CONTINUOUS
370
25
 62
     7
100
AcDbCircle
 10
384.440674
 20
314.248077
 40
2.061397
100
AcDbArc
 50
137.713242
 51
222.286751
  0
ARC
  5
271
100
AcDbEntity
  8
M1
  6
CONTINUOUS
370
25
 62
     7
100
AcDbCircle
 10
384.440674
 20
305.475082
 40
2.06073
100
AcDbArc
 50
137.733643
 51
222.285843
  0
ARC
  5
272
100
AcDbEntity
  8
M1
  6
CONTINUOUS
370
25
 62
     7
100
AcDbCircle
 10
447.719666
 20
309.861084
 40
8.66024
100
AcDbArc
 50
339.732056
 51
380.267925
  0
ARC
  5
273
100
AcDbEntity
  8
M1
  6
CONTINUOUS
370
25
 62
     7
100
AcDbCircle
 10
454.317688
 20
314.248077
 40
2.062142
100
AcDbArc
 50
317.732086
 51
402.267944
  0
ARC
  5
274
100
AcDbEntity
  8
M1
  6
CONTINUOUS
370
25
 62
     7
100
AcDbCircle
 10
454.317688
 20
305.474075
 40
2.061475
100
AcDbArc
 50
317.752472
 51
402.267586
  0
ARC
  5
275
100
AcDbEntity
  8
M1
  6
CONTINUOUS
370
25
 62
     7
100
AcDbCircle
 10
443.978668
 20
413.411072
 40
3.0
100
AcDbArc
 50
270.0
 51
360.0
  0
ARC
  5
276
100
AcDbEntity
  8
M1
  6
CONTINUOUS
370
25
 62
     7
100
AcDbCircle
 10
443.978668
 20
413.411072
 40
5.799988
100
AcDbArc
 50
270.0
 51
360.0
  0
ARC
  5
277
100
AcDbEntity
  8
M1
  6
CONTINUOUS
370
25
 62
     7
100
AcDbCircle
 10
355.379669
 20
339.611084
 40
2.5
100
AcDbArc
 50
0.0
 51
90.0
  0
ARC
  5
278
100
AcDbEntity
  8
M1
  6
CONTINUOUS
370
25
 62
     7
100
AcDbCircle
 10
355.379669
 20
339.611084
 40
2.5
100
AcDbArc
 50
270.0
 51
360.0
  0
ARC
  5
279
100
AcDbEntity
  8
M1
  6
CONTINUOUS
370
25
 62
     7
100
AcDbCircle
 10
435.777679
 20
434.075073
 40
11.199982
100
AcDbArc
 50
0.0
 51
59.998951
  0
ARC
  5
27A
100
AcDbEntity
  8
M1
  6
CONTINUOUS
370
25
 62
     7
100
AcDbCircle
 10
435.777679
 20
434.075073
 40
13.999802
100
AcDbArc
 50
25.840195
 51
59.999184
  0
ARC
  5
27B
100
AcDbEntity
  8
M1
  6
CONTINUOUS
370
25
 62
     7
100
AcDbCircle
 10
460.977661
 20
434.075073
 40
13.999686
100
AcDbArc
 50
120.00074
 51
179.999996
  0
ARC
  5
27C
100
AcDbEntity
  8
M1
  6
CONTINUOUS
370
25
 62
     7
100
AcDbCircle
 10
460.977661
 20
434.075073
 40
11.199573
100
AcDbArc
 50
120.001122
 51
180.000004
  0
ARC
  5
27D
100
AcDbEntity
  8
M1
  6
CONTINUOUS
370
25
 62
     7
100
AcDbCircle
 10
483.379669
 20
339.611084
 40
2.5
100
AcDbArc
 50
90.023079
 51
180.0
  0
ARC
  5
27E
100
AcDbEntity
  8
M1
  6
CONTINUOUS
370
25
 62
     7
100
AcDbCircle
 10
479.879669
 20
348.111084
 40
1.0
100
AcDbArc
 50
180.0
 51
270.0
  0
ARC
  5
27F
100
AcDbEntity
  8
M1
  6
CONTINUOUS
370
25
 62
     7
100
AcDbCircle
 10
454.379669
 20
381.611084
 40
4.0
100
AcDbArc
 50
180.0
 51
270.0
  0
ARC
  5
280
100
AcDbEntity
  8
M1
  6
CONTINUOUS
370
25
 62
     7
100
AcDbCircle
 10
384.379669
 20
381.611084
 40
4.0
100
AcDbArc
 50
270.0
 51
360.0
  0
ARC
  5
281
100
AcDbEntity
  8
M1
  6
CONTINUOUS
370
25
 62
     7
100
AcDbCircle
 10
358.879669
 20
348.111084
 40
1.0
100
AcDbArc
 50
270.0
 51
360.0
  0
ARC
  5
282
100
AcDbEntity
  8
M1
  6
CONTINUOUS
370
25
 62
     7
100
AcDbCircle
 10
389.379669
 20
404.611084
 40
1.0
100
AcDbArc
 50
90.0
 51
180.0
  0
ARC
  5
283
100
AcDbEntity
  8
M1
  6
CONTINUOUS
370
25
 62
     7
100
AcDbCircle
 10
449.379669
 20
404.611084
 40
1.0
100
AcDbArc
 50
0.0
 51
90.0
  0
ARC
  5
284
100
AcDbEntity
  8
M1
  6
CONTINUOUS
370
25
 62
     7
100
AcDbCircle
 10
712.637695
 20
401.099091
 40
4.0
100
AcDbArc
 50
90.0
 51
390.000153
  0
ARC
  5
285
100
AcDbEntity
  8
M1
  6
CONTINUOUS
370
25
 62
     7
100
AcDbCircle
 10
711.144657
 20
400.513092
 40
1.000301
100
AcDbArc
 50
151.129883
 51
331.179764
  0
ARC
  5
286
100
AcDbEntity
  8
M1
  6
CONTINUOUS
370
25
 62
     7
100
AcDbCircle
 10
712.897705
 20
399.549072
 40
0.99983
100
AcDbArc
 50
151.178894
 51
331.178894
  0
ARC
  5
287
100
AcDbEntity
  8
M1
  6
CONTINUOUS
370
25
 62
     7
100
AcDbCircle
 10
677.137695
 20
339.611084
 40
75.999969
100
AcDbArc
 50
61.507763
 51
418.491894
  0
CIRCLE
  5
288
100
AcDbEntity
  8
M1
  6
CONTINUOUS
370
25
 62
     7
100
AcDbCircle
 10
677.137695
 20
339.611084
 40
66.0
  0
CIRCLE
  5
289
100
AcDbEntity
  8
M1
  6
CONTINUOUS
370
25
 62
     7
100
AcDbCircle
 10
677.137695
 20
339.611084
 40
21.0
  0
CIRCLE
  5
28A
100
AcDbEntity
  8
M1
  6
CONTINUOUS
370
25
 62
     7
100
AcDbCircle
 10
677.137695
 20
339.611084
 40
17.5
  0
ARC
  5
28B
100
AcDbEntity
  8
M1
  6
CONTINUOUS
370
25
 62
     7
100
AcDbCircle
 10
667.137672
 20
364.691071
 40
4.000612
100
AcDbArc
 50
291.742981
 51
359.999985
  0
ARC
  5
28C
100
AcDbEntity
  8
M1
  6
CONTINUOUS
370
25
 62
     7
100
AcDbCircle
 10
687.137695
 20
364.691071
 40
4.0
100
AcDbArc
 50
180.0
 51
248.257195
  0
ARC
  5
28D
100
AcDbEntity
  8
M1
  6
CONTINUOUS
370
25
 62
     7
100
AcDbCircle
 10
677.137695
 20
371.611084
 40
6.0
100
AcDbArc
 50
0.0
 51
180.0
  0
ARC
  5
28E
100
AcDbEntity
  8
M1
  6
CONTINUOUS
370
25
 62
     7
100
AcDbCircle
 10
673.137695
 20
403.486084
 40
1.999913
100
AcDbArc
 50
93.583481
 51
180.0
  0
ARC
  5
28F
100
AcDbEntity
  8
M1
  6
CONTINUOUS
370
25
 62
     7
100
AcDbCircle
 10
681.137695
 20
403.486084
 40
2.0
100
AcDbArc
 50
0.0
 51
86.416687
  0
ARC
  5
290
100
AcDbEntity
  8
M1
  6
CONTINUOUS
370
25
 62
     7
100
AcDbCircle
 10
650.417679
 20
343.491074
 40
4.000537
100
AcDbArc
 50
351.736267
 51
419.999878
  0
ARC
  5
291
100
AcDbEntity
  8
M1
  6
CONTINUOUS
370
25
 62
     7
100
AcDbCircle
 10
660.417679
 20
360.811081
 40
3.999916
100
AcDbArc
 50
239.999298
 51
308.258827
  0
ARC
  5
292
100
AcDbEntity
  8
M1
  6
CONTINUOUS
370
25
 62
     7
100
AcDbCircle
 10
649.424675
 20
355.611084
 40
5.999867
100
AcDbArc
 50
59.999268
 51
239.999344
  0
ARC
  5
293
100
AcDbEntity
  8
M1
  6
CONTINUOUS
370
25
 62
     7
100
AcDbCircle
 10
619.820679
 20
368.084076
 40
1.999945
100
AcDbArc
 50
153.575897
 51
239.999191
  0
ARC
  5
294
100
AcDbEntity
  8
M1
  6
CONTINUOUS
370
25
 62
     7
100
AcDbCircle
 10
623.820679
 20
375.013077
 40
1.999951
100
AcDbArc
 50
59.999195
 51
146.419537
  0
ARC
  5
295
100
AcDbEntity
  8
M1
  6
CONTINUOUS
370
25
 62
     7
100
AcDbCircle
 10
660.417679
 20
318.411072
 40
4.00018
100
AcDbArc
 50
51.740692
 51
120.000603
  0
ARC
  5
296
100
AcDbEntity
  8
M1
  6
CONTINUOUS
370
25
 62
     7
100
AcDbCircle
 10
650.417679
 20
335.731079
 40
3.999916
100
AcDbArc
 50
300.000702
 51
368.263687
  0
ARC
  5
297
100
AcDbEntity
  8
M1
  6
CONTINUOUS
370
25
 62
     7
100
AcDbCircle
 10
649.424675
 20
323.611084
 40
5.999867
100
AcDbArc
 50
120.000732
 51
300.000656
  0
ARC
  5
298
100
AcDbEntity
  8
M1
  6
CONTINUOUS
370
25
 62
     7
100
AcDbCircle
 10
623.820679
 20
304.210083
 40
2.000257
100
AcDbArc
 50
213.602905
 51
299.998703
  0
ARC
  5
299
100
AcDbEntity
  8
M1
  6
CONTINUOUS
370
25
 62
     7
100
AcDbCircle
 10
619.820679
 20
311.138077
 40
1.999951
100
AcDbArc
 50
120.000801
 51
206.424095
  0
ARC
  5
29A
100
AcDbEntity
  8
M1
  6
CONTINUOUS
370
25
 62
     7
100
AcDbCircle
 10
687.137695
 20
314.531082
 40
4.000248
100
AcDbArc
 50
111.729897
 51
180.0
  0
ARC
  5
29B
100
AcDbEntity
  8
M1
  6
CONTINUOUS
370
25
 62
     7
100
AcDbCircle
 10
667.137672
 20
314.531082
 40
4.000023
100
AcDbArc
 50
0.0
 51
68.256485
  0
ARC
  5
29C
100
AcDbEntity
  8
M1
  6
CONTINUOUS
370
25
 62
     7
100
AcDbCircle
 10
677.137695
 20
307.611084
 40
6.0
100
AcDbArc
 50
180.0
 51
360.0
  0
ARC
  5
29D
100
AcDbEntity
  8
M1
  6
CONTINUOUS
370
25
 62
     7
100
AcDbCircle
 10
681.137695
 20
275.736084
 40
1.999913
100
AcDbArc
 50
273.583466
 51
359.999985
  0
ARC
  5
29E
100
AcDbEntity
  8
M1
  6
CONTINUOUS
370
25
 62
     7
100
AcDbCircle
 10
673.137695
 20
275.736084
 40
2.0
100
AcDbArc
 50
180.0
 51
266.41671
  0
ARC
  5
29F
100
AcDbEntity
  8
M1
  6
CONTINUOUS
370
25
 62
     7
100
AcDbCircle
 10
703.857666
 20
335.731079
 40
4.000522
100
AcDbArc
 50
171.736237
 51
239.999229
  0
ARC
  5
2A0
100
AcDbEntity
  8
M1
  6
CONTINUOUS
370
25
 62
     7
100
AcDbCircle
 10
693.857666
 20
318.411072
 40
3.999916
100
AcDbArc
 50
59.999306
 51
128.25901
  0
ARC
  5
2A1
100
AcDbEntity
  8
M1
  6
CONTINUOUS
370
25
 62
     7
100
AcDbCircle
 10
704.850647
 20
323.611084
 40
5.99988
100
AcDbArc
 50
239.999344
 51
419.999359
  0
ARC
  5
2A2
100
AcDbEntity
  8
M1
  6
CONTINUOUS
370
25
 62
     7
100
AcDbCircle
 10
734.454655
 20
311.138077
 40
1.999956
100
AcDbArc
 50
333.57605
 51
419.999199
  0
ARC
  5
2A3
100
AcDbEntity
  8
M1
  6
CONTINUOUS
370
25
 62
     7
100
AcDbCircle
 10
730.454655
 20
304.210083
 40
1.999965
100
AcDbArc
 50
239.99942
 51
326.397903
  0
ARC
  5
2A4
100
AcDbEntity
  8
M1
  6
CONTINUOUS
370
25
 62
     7
100
AcDbCircle
 10
693.857666
 20
360.811081
 40
3.999384
100
AcDbArc
 50
231.731842
 51
300.001083
  0
ARC
  5
2A5
100
AcDbEntity
  8
M1
  6
CONTINUOUS
370
25
 62
     7
100
AcDbCircle
 10
703.857666
 20
343.491074
 40
3.999916
100
AcDbArc
 50
120.000694
 51
188.263512
  0
ARC
  5
2A6
100
AcDbEntity
  8
M1
  6
CONTINUOUS
370
25
 62
     7
100
AcDbCircle
 10
704.850647
 20
355.611084
 40
5.99988
100
AcDbArc
 50
300.000671
 51
480.000748
  0
ARC
  5
2A7
100
AcDbEntity
  8
M1
  6
CONTINUOUS
370
25
 62
     7
100
AcDbCircle
 10
730.454655
 20
375.013077
 40
2.000526
100
AcDbArc
 50
33.563164
 51
120.000786
  0
ARC
  5
2A8
100
AcDbEntity
  8
M1
  6
CONTINUOUS
370
25
 62
     7
100
AcDbCircle
 10
734.454655
 20
368.084076
 40
1.999951
100
AcDbArc
 50
300.000793
 51
386.424088
  0
ARC
  5
2A9
100
AcDbEntity
  8
M1
  6
CONTINUOUS
370
25
 62
     7
100
AcDbCircle
 10
677.137695
 20
339.611084
 40
34.999847
100
AcDbArc
 50
126.962265
 51
135.970108
  0
ARC
  5
2AA
100
AcDbEntity
  8
M1
  6
CONTINUOUS
370
25
 62
     7
100
AcDbCircle
 10
653.411674
 20
362.547073
 40
1.999983
100
AcDbArc
 50
135.972321
 51
239.999191
  0
ARC
  5
2AB
100
AcDbEntity
  8
M1
  6
CONTINUOUS
370
25
 62
     7
100
AcDbCircle
 10
657.294678
 20
365.97908
 40
1.999951
100
AcDbArc
 50
30.000805
 51
126.949635
  0
ARC
  5
2AC
100
AcDbEntity
  8
M1
  6
CONTINUOUS
370
25
 62
     7
100
AcDbCircle
 10
661.333672
 20
358.982071
 40
1.999908
100
AcDbArc
 50
309.237213
 51
390.000679
  0
ARC
  5
2AD
100
AcDbEntity
  8
M1
  6
CONTINUOUS
370
25
 62
     7
100
AcDbCircle
 10
677.137695
 20
339.611084
 40
35.000072
100
AcDbArc
 50
104.02993
 51
113.038404
  0
ARC
  5
2AE
100
AcDbEntity
  8
M1
  6
CONTINUOUS
370
25
 62
     7
100
AcDbCircle
 10
664.222672
 20
369.97908
 40
2.000203
100
AcDbArc
 50
113.014191
 51
210.000618
  0
ARC
  5
2AF
100
AcDbEntity
  8
M1
  6
CONTINUOUS
370
25
 62
     7
100
AcDbCircle
 10
668.262672
 20
362.983078
 40
1.999951
100
AcDbArc
 50
210.000809
 51
290.791046
  0
ARC
  5
2B0
100
AcDbEntity
  8
M1
  6
CONTINUOUS
370
25
 62
     7
100
AcDbCircle
 10
669.137672
 20
371.627075
 40
2.000023
100
AcDbArc
 50
0.0
 51
104.034126
  0
ARC
  5
2B1
100
AcDbEntity
  8
M1
  6
CONTINUOUS
370
25
 62
     7
100
AcDbCircle
 10
677.137695
 20
339.611084
 40
35.000156
100
AcDbArc
 50
186.962997
 51
195.970654
  0
ARC
  5
2B2
100
AcDbEntity
  8
M1
  6
CONTINUOUS
370
25
 62
     7
100
AcDbCircle
 10
645.411674
 20
330.531082
 40
2.000105
100
AcDbArc
 50
195.961243
 51
300.001732
  0
ARC
  5
2B3
100
AcDbEntity
  8
M1
  6
CONTINUOUS
370
25
 62
     7
100
AcDbCircle
 10
644.380676
 20
335.610077
 40
2.0
100
AcDbArc
 50
90.0
 51
186.949966
  0
ARC
  5
2B4
100
AcDbEntity
  8
M1
  6
CONTINUOUS
370
25
 62
     7
100
AcDbCircle
 10
652.459679
 20
335.610077
 40
1.999769
100
AcDbArc
 50
9.20818
 51
90.0
  0
ARC
  5
2B5
100
AcDbEntity
  8
M1
  6
CONTINUOUS
370
25
 62
     7
100
AcDbCircle
 10
677.137695
 20
339.611084
 40
34.999901
100
AcDbArc
 50
164.029449
 51
173.038629
  0
ARC
  5
2B6
100
AcDbEntity
  8
M1
  6
CONTINUOUS
370
25
 62
     7
100
AcDbCircle
 10
644.380676
 20
343.611084
 40
1.999696
100
AcDbArc
 50
173.049438
 51
270.0
  0
ARC
  5
2B7
100
AcDbEntity
  8
M1
  6
CONTINUOUS
370
25
 62
     7
100
AcDbCircle
 10
652.459679
 20
343.610077
 40
1.998993
100
AcDbArc
 50
270.0
 51
350.791168
  0
ARC
  5
2B8
100
AcDbEntity
  8
M1
  6
CONTINUOUS
370
25
 62
     7
100
AcDbCircle
 10
645.411674
 20
348.691071
 40
1.999965
100
AcDbArc
 50
59.999413
 51
164.037186
  0
ARC
  5
2B9
100
AcDbEntity
  8
M1
  6
CONTINUOUS
370
25
 62
     7
100
AcDbCircle
 10
677.137695
 20
339.611084
 40
35.000011
100
AcDbArc
 50
246.963669
 51
255.971588
  0
ARC
  5
2BA
100
AcDbEntity
  8
M1
  6
CONTINUOUS
370
25
 62
     7
100
AcDbCircle
 10
669.137672
 20
307.595078
 40
1.999709
100
AcDbArc
 50
255.96376
 51
360.000008
  0
ARC
  5
2BB
100
AcDbEntity
  8
M1
  6
CONTINUOUS
370
25
 62
     7
100
AcDbCircle
 10
664.223679
 20
309.243073
 40
1.999958
100
AcDbArc
 50
149.999298
 51
246.985825
  0
ARC
  5
2BC
100
AcDbEntity
  8
M1
  6
CONTINUOUS
370
25
 62
     7
100
AcDbCircle
 10
668.263672
 20
316.239075
 40
2.000248
100
AcDbArc
 50
69.209045
 51
149.998642
  0
ARC
  5
2BD
100
AcDbEntity
  8
M1
  6
CONTINUOUS
370
25
 62
     7
100
AcDbCircle
 10
677.137695
 20
339.611084
 40
34.999744
100
AcDbArc
 50
224.029907
 51
233.039061
  0
ARC
  5
2BE
100
AcDbEntity
  8
M1
  6
CONTINUOUS
370
25
 62
     7
100
AcDbCircle
 10
657.295677
 20
313.243073
 40
1.999598
100
AcDbArc
 50
233.049652
 51
329.999855
  0
ARC
  5
2BF
100
AcDbEntity
  8
M1
  6
CONTINUOUS
370
25
 62
     7
100
AcDbCircle
 10
661.334679
 20
320.239075
 40
1.999951
100
AcDbArc
 50
329.999207
 51
410.781593
  0
ARC
  5
2C0
100
AcDbEntity
  8
M1
  6
CONTINUOUS
370
25
 62
     7
100
AcDbCircle
 10
653.411674
 20
316.675079
 40
1.999951
100
AcDbArc
 50
120.000801
 51
224.027672
  0
ARC
  5
2C1
100
AcDbEntity
  8
M1
  6
CONTINUOUS
370
25
 62
     7
100
AcDbCircle
 10
677.137695
 20
339.611084
 40
35.000423
100
AcDbArc
 50
306.96347
 51
315.971164
  0
ARC
  5
2C2
100
AcDbEntity
  8
M1
  6
CONTINUOUS
370
25
 62
     7
100
AcDbCircle
 10
700.864685
 20
316.675079
 40
1.999977
100
AcDbArc
 50
315.972168
 51
419.999001
  0
ARC
  5
2C3
100
AcDbEntity
  8
M1
  6
CONTINUOUS
370
25
 62
     7
100
AcDbCircle
 10
696.980652
 20
313.243073
 40
1.999951
100
AcDbArc
 50
210.000809
 51
306.973503
  0
ARC
  5
2C4
100
AcDbEntity
  8
M1
  6
CONTINUOUS
370
25
 62
     7
100
AcDbCircle
 10
692.941658
 20
320.240082
 40
2.00003
100
AcDbArc
 50
129.196564
 51
210.002571
  0
ARC
  5
2C5
100
AcDbEntity
  8
M1
  6
CONTINUOUS
370
25
 62
     7
100
AcDbCircle
 10
677.137695
 20
339.611084
 40
35.00008
100
AcDbArc
 50
284.029877
 51
293.039913
  0
ARC
  5
2C6
100
AcDbEntity
  8
M1
  6
CONTINUOUS
370
25
 62
     7
100
AcDbCircle
 10
690.052673
 20
309.243073
 40
1.999677
100
AcDbArc
 50
293.052429
 51
389.999161
  0
ARC
  5
2C7
100
AcDbEntity
  8
M1
  6
CONTINUOUS
370
25
 62
     7
100
AcDbCircle
 10
686.013672
 20
316.240082
 40
1.999951
100
AcDbArc
 50
30.000805
 51
110.800304
  0
ARC
  5
2C8
100
AcDbEntity
  8
M1
  6
CONTINUOUS
370
25
 62
     7
100
AcDbCircle
 10
685.137695
 20
307.596085
 40
2.0
100
AcDbArc
 50
180.0
 51
284.030304
  0
ARC
  5
2C9
100
AcDbEntity
  8
M1
  6
CONTINUOUS
370
25
 62
     7
100
AcDbCircle
 10
677.137695
 20
339.611084
 40
35.000137
100
AcDbArc
 50
6.962978
 51
15.970619
  0
ARC
  5
2CA
100
AcDbEntity
  8
M1
  6
CONTINUOUS
370
25
 62
     7
100
AcDbCircle
 10
708.864685
 20
348.691071
 40
1.999148
100
AcDbArc
 50
15.969093
 51
120.026764
  0
ARC
  5
2CB
100
AcDbEntity
  8
M1
  6
CONTINUOUS
370
25
 62
     7
100
AcDbCircle
 10
709.894657
 20
343.612076
 40
2.0
100
AcDbArc
 50
270.0
 51
366.949966
  0
ARC
  5
2CC
100
AcDbEntity
  8
M1
  6
CONTINUOUS
370
25
 62
     7
100
AcDbCircle
 10
701.815674
 20
343.612076
 40
1.999767
100
AcDbArc
 50
189.207748
 51
270.0
  0
ARC
  5
2CD
100
AcDbEntity
  8
M1
  6
CONTINUOUS
370
25
 62
     7
100
AcDbCircle
 10
677.137695
 20
339.611084
 40
34.99987
100
AcDbArc
 50
344.029388
 51
353.038591
  0
ARC
  5
2CE
100
AcDbEntity
  8
M1
  6
CONTINUOUS
370
25
 62
     7
100
AcDbCircle
 10
709.894657
 20
335.612076
 40
1.999796
100
AcDbArc
 50
353.020721
 51
450.0
  0
ARC
  5
2CF
100
AcDbEntity
  8
M1
  6
CONTINUOUS
370
25
 62
     7
100
AcDbCircle
 10
701.815674
 20
335.612076
 40
2.0
100
AcDbArc
 50
90.0
 51
170.790283
  0
ARC
  5
2D0
100
AcDbEntity
  8
M1
  6
CONTINUOUS
370
25
 62
     7
100
AcDbCircle
 10
708.864685
 20
330.532074
 40
2.001314
100
AcDbArc
 50
239.989304
 51
344.004082
  0
ARC
  5
2D1
100
AcDbEntity
  8
M1
  6
CONTINUOUS
370
25
 62
     7
100
AcDbCircle
 10
677.137695
 20
339.611084
 40
34.999992
100
AcDbArc
 50
66.96373
 51
75.970096
  0
ARC
  5
2D2
100
AcDbEntity
  8
M1
  6
CONTINUOUS
370
25
 62
     7
100
AcDbCircle
 10
685.137695
 20
371.627075
 40
1.999707
100
AcDbArc
 50
75.963966
 51
180.0
  0
ARC
  5
2D3
100
AcDbEntity
  8
M1
  6
CONTINUOUS
370
25
 62
     7
100
AcDbCircle
 10
690.051697
 20
369.980072
 40
1.999958
100
AcDbArc
 50
329.999298
 51
426.973717
  0
ARC
  5
2D4
100
AcDbEntity
  8
M1
  6
CONTINUOUS
370
25
 62
     7
100
AcDbCircle
 10
686.011658
 20
362.983078
 40
1.999326
100
AcDbArc
 50
249.198547
 51
329.998787
  0
ARC
  5
2D5
100
AcDbEntity
  8
M1
  6
CONTINUOUS
370
25
 62
     7
100
AcDbCircle
 10
677.137695
 20
339.611084
 40
34.999725
100
AcDbArc
 50
44.029903
 51
53.038802
  0
ARC
  5
2D6
100
AcDbEntity
  8
M1
  6
CONTINUOUS
370
25
 62
     7
100
AcDbCircle
 10
696.979675
 20
365.980072
 40
2.000211
100
AcDbArc
 50
53.027039
 51
149.999825
  0
ARC
  5
2D7
100
AcDbEntity
  8
M1
  6
CONTINUOUS
370
25
 62
     7
100
AcDbCircle
 10
692.940674
 20
358.983078
 40
1.999958
100
AcDbArc
 50
149.999298
 51
230.764366
  0
ARC
  5
2D8
100
AcDbEntity
  8
M1
  6
CONTINUOUS
370
25
 62
     7
100
AcDbCircle
 10
700.863647
 20
362.547073
 40
2.00044
100
AcDbArc
 50
300.025024
 51
404.027122
  0
ARC
  5
2D9
100
AcDbEntity
  8
M1
  6
CONTINUOUS
370
25
 62
     7
100
AcDbCircle
 10
652.850677
 20
378.677078
 40
4.999813
100
AcDbArc
 50
121.871742
 51
301.871742
  0
ARC
  5
2DA
100
AcDbEntity
  8
M1
  6
CONTINUOUS
370
25
 62
     7
100
AcDbCircle
 10
677.137695
 20
339.611084
 40
51.000088
100
AcDbArc
 50
118.132317
 51
121.869206
  0
ARC
  5
2DB
100
AcDbEntity
  8
M1
  6
CONTINUOUS
370
25
 62
     7
100
AcDbCircle
 10
677.137695
 20
339.611084
 40
40.99979
100
AcDbArc
 50
118.132698
 51
121.868482
  0
ARC
  5
2DC
100
AcDbEntity
  8
M1
  6
CONTINUOUS
370
25
 62
     7
100
AcDbCircle
 10
655.448677
 20
380.177078
 40
5.000356
100
AcDbArc
 50
298.122955
 51
478.138931
  0
ARC
  5
2DD
100
AcDbEntity
  8
M1
  6
CONTINUOUS
370
25
 62
     7
100
AcDbCircle
 10
631.162674
 20
338.111084
 40
5.000691
100
AcDbArc
 50
181.879395
 51
361.867859
  0
ARC
  5
2DE
100
AcDbEntity
  8
M1
  6
CONTINUOUS
370
25
 62
     7
100
AcDbCircle
 10
677.137695
 20
339.611084
 40
51.000111
100
AcDbArc
 50
178.132523
 51
181.869647
  0
ARC
  5
2DF
100
AcDbEntity
  8
M1
  6
CONTINUOUS
370
25
 62
     7
100
AcDbCircle
 10
677.137695
 20
339.611084
 40
40.999802
100
AcDbArc
 50
178.13266
 51
181.86875
  0
ARC
  5
2E0
100
AcDbEntity
  8
M1
  6
CONTINUOUS
370
25
 62
     7
100
AcDbCircle
 10
631.161682
 20
341.110077
 40
5.000643
100
AcDbArc
 50
358.132141
 51
538.132141
  0
ARC
  5
2E1
100
AcDbEntity
  8
M1
  6
CONTINUOUS
370
25
 62
     7
100
AcDbCircle
 10
655.449677
 20
299.045074
 40
4.999471
100
AcDbArc
 50
241.871521
 51
421.871521
  0
ARC
  5
2E2
100
AcDbEntity
  8
M1
  6
CONTINUOUS
370
25
 62
     7
100
AcDbCircle
 10
677.137695
 20
339.611084
 40
51.000263
100
AcDbArc
 50
238.132385
 51
241.869714
  0
ARC
  5
2E3
100
AcDbEntity
  8
M1
  6
CONTINUOUS
370
25
 62
     7
100
AcDbCircle
 10
677.137695
 20
339.611084
 40
40.999794
100
AcDbArc
 50
238.13266
 51
241.869194
  0
ARC
  5
2E4
100
AcDbEntity
  8
M1
  6
CONTINUOUS
370
25
 62
     7
100
AcDbCircle
 10
652.851677
 20
300.545074
 40
4.999813
100
AcDbArc
 50
58.128254
 51
238.13483
  0
ARC
  5
2E5
100
AcDbEntity
  8
M1
  6
CONTINUOUS
370
25
 62
     7
100
AcDbCircle
 10
701.425652
 20
300.545074
 40
4.999278
100
AcDbArc
 50
301.861877
 51
481.865906
  0
ARC
  5
2E6
100
AcDbEntity
  8
M1
  6
CONTINUOUS
370
25
 62
     7
100
AcDbCircle
 10
677.137695
 20
339.611084
 40
51.000092
100
AcDbArc
 50
298.132294
 51
301.869169
  0
ARC
  5
2E7
100
AcDbEntity
  8
M1
  6
CONTINUOUS
370
25
 62
     7
100
AcDbCircle
 10
677.137695
 20
339.611084
 40
40.999779
100
AcDbArc
 50
298.132629
 51
301.87045
  0
ARC
  5
2E8
100
AcDbEntity
  8
M1
  6
CONTINUOUS
370
25
 62
     7
100
AcDbCircle
 10
698.827698
 20
299.045074
 40
5.000816
100
AcDbArc
 50
118.132835
 51
298.128609
  0
ARC
  5
2E9
100
AcDbEntity
  8
M1
  6
CONTINUOUS
370
25
 62
     7
100
AcDbCircle
 10
723.113644
 20
341.112076
 40
4.999671
100
AcDbArc
 50
1.868232
 51
181.867179
  0
ARC
  5
2EA
100
AcDbEntity
  8
M1
  6
CONTINUOUS
370
25
 62
     7
100
AcDbCircle
 10
677.137695
 20
339.611084
 40
51.000107
100
AcDbArc
 50
358.132507
 51
361.869733
  0
ARC
  5
2EB
100
AcDbEntity
  8
M1
  6
CONTINUOUS
370
25
 62
     7
100
AcDbCircle
 10
677.137695
 20
339.611084
 40
40.999805
100
AcDbArc
 50
358.132629
 51
361.870129
  0
ARC
  5
2EC
100
AcDbEntity
  8
M1
  6
CONTINUOUS
370
25
 62
     7
100
AcDbCircle
 10
723.113644
 20
338.112076
 40
5.000635
100
AcDbArc
 50
178.132126
 51
358.132126
  0
ARC
  5
2ED
100
AcDbEntity
  8
M1
  6
CONTINUOUS
370
25
 62
     7
100
AcDbCircle
 10
698.825684
 20
380.177078
 40
5.000816
100
AcDbArc
 50
61.867168
 51
241.871395
  0
ARC
  5
2EE
100
AcDbEntity
  8
M1
  6
CONTINUOUS
370
25
 62
     7
100
AcDbCircle
 10
677.137695
 20
339.611084
 40
51.000256
100
AcDbArc
 50
58.132359
 51
61.86922
  0
ARC
  5
2EF
100
AcDbEntity
  8
M1
  6
CONTINUOUS
370
25
 62
     7
100
AcDbCircle
 10
677.137695
 20
339.611084
 40
40.999771
100
AcDbArc
 50
58.132664
 51
61.869181
  0
ARC
  5
2F0
100
AcDbEntity
  8
M1
  6
CONTINUOUS
370
25
 62
     7
100
AcDbCircle
 10
701.423645
 20
378.67807
 40
5.000659
100
AcDbArc
 50
238.134186
 51
418.128128
  0
CIRCLE
  5
2F1
100
AcDbEntity
  8
M1
  6
CONTINUOUS
370
25
 62
     7
100
AcDbCircle
 10
677.137695
 20
399.111084
 40
5.0
  0
CIRCLE
  5
2F2
100
AcDbEntity
  8
M1
  6
CONTINUOUS
370
25
 62
     7
100
AcDbCircle
 10
625.60968
 20
369.361084
 40
5.0
  0
CIRCLE
  5
2F3
100
AcDbEntity
  8
M1
  6
CONTINUOUS
370
25
 62
     7
100
AcDbCircle
 10
625.60968
 20
309.861084
 40
5.0
  0
CIRCLE
  5
2F4
100
AcDbEntity
  8
M1
  6
CONTINUOUS
370
25
 62
     7
100
AcDbCircle
 10
677.137695
 20
280.111084
 40
5.0
  0
CIRCLE
  5
2F5
100
AcDbEntity
  8
M1
  6
CONTINUOUS
370
25
 62
     7
100
AcDbCircle
 10
728.666687
 20
309.861084
 40
4.999027
  0
CIRCLE
  5
2F6
100
AcDbEntity
  8
M1
  6
CONTINUOUS
370
25
 62
     7
100
AcDbCircle
 10
728.666687
 20
369.361084
 40
4.999027
  0
ARC
  5
2F7
100
AcDbEntity
  8
M1
  6
CONTINUOUS
370
25
 62
     7
100
AcDbCircle
 10
677.137695
 20
339.611084
 40
22.999502
100
AcDbArc
 50
111.737617
 51
128.262552
  0
ARC
  5
2F8
100
AcDbEntity
  8
M1
  6
CONTINUOUS
370
25
 62
     7
100
AcDbCircle
 10
677.137695
 20
339.611084
 40
22.999714
100
AcDbArc
 50
171.738159
 51
188.261875
  0
ARC
  5
2F9
100
AcDbEntity
  8
M1
  6
CONTINUOUS
370
25
 62
     7
100
AcDbCircle
 10
677.137695
 20
339.611084
 40
22.999811
100
AcDbArc
 50
231.737381
 51
248.262341
  0
ARC
  5
2FA
100
AcDbEntity
  8
M1
  6
CONTINUOUS
370
25
 62
     7
100
AcDbCircle
 10
677.137695
 20
339.611084
 40
22.999872
100
AcDbArc
 50
291.739838
 51
308.262514
  0
ARC
  5
2FB
100
AcDbEntity
  8
M1
  6
CONTINUOUS
370
25
 62
     7
100
AcDbCircle
 10
677.137695
 20
339.611084
 40
22.999687
100
AcDbArc
 50
351.738098
 51
368.261837
  0
ARC
  5
2FC
100
AcDbEntity
  8
M1
  6
CONTINUOUS
370
25
 62
     7
100
AcDbCircle
 10
677.137695
 20
339.611084
 40
23.000566
100
AcDbArc
 50
51.738991
 51
68.263304
  0
ARC
  5
2FD
100
AcDbEntity
  8
M1
  6
CONTINUOUS
370
25
 62
     7
100
AcDbCircle
 10
741.563656
 20
431.199066
 40
10.0
100
AcDbArc
 50
90.0
 51
149.999214
  0
ARC
  5
2FE
100
AcDbEntity
  8
M1
  6
CONTINUOUS
370
25
 62
     7
100
AcDbCircle
 10
724.243656
 20
441.199066
 40
9.999753
100
AcDbArc
 50
329.999176
 51
390.000809
  0
ARC
  5
2FF
100
AcDbEntity
  8
M1
  6
CONTINUOUS
370
25
 62
     7
100
AcDbCircle
 10
741.563656
 20
431.199066
 40
8.0
100
AcDbArc
 50
90.0
 51
149.999054
  0
ARC
  5
300
100
AcDbEntity
  8
M1
  6
CONTINUOUS
370
25
 62
     7
100
AcDbCircle
 10
724.243656
 20
441.199066
 40
7.999805
100
AcDbArc
 50
329.999207
 51
390.000816
  0
ARC
  5
301
100
AcDbEntity
  8
M1
  6
CONTINUOUS
370
25
 62
     7
100
AcDbCircle
 10
677.137695
 20
339.611084
 40
7.499914
100
AcDbArc
 50
199.471451
 51
520.528549
  0
CIRCLE
  5
302
100
AcDbEntity
  8
M1
  6
CONTINUOUS
370
13
 62
     7
100
AcDbCircle
 10
677.137695
 20
371.611084
 40
3.0
  0
CIRCLE
  5
303
100
AcDbEntity
  8
M1
  6
CONTINUOUS
370
25
 62
     7
100
AcDbCircle
 10
677.137695
 20
371.611084
 40
2.400017
  0
ARC
  5
304
100
AcDbEntity
  8
M1
  6
CONTINUOUS
370
13
 62
     7
100
AcDbCircle
 10
677.137695
 20
339.611084
 40
32.000317
100
AcDbArc
 50
80.039581
 51
99.413778
  0
CIRCLE
  5
305
100
AcDbEntity
  8
M1
  6
CONTINUOUS
370
13
 62
     7
100
AcDbCircle
 10
649.424675
 20
355.611084
 40
3.0
  0
CIRCLE
  5
306
100
AcDbEntity
  8
M1
  6
CONTINUOUS
370
25
 62
     7
100
AcDbCircle
 10
649.424675
 20
355.611084
 40
2.400002
  0
ARC
  5
307
100
AcDbEntity
  8
M1
  6
CONTINUOUS
370
13
 62
     7
100
AcDbCircle
 10
677.137695
 20
339.611084
 40
31.999359
100
AcDbArc
 50
140.039276
 51
159.412834
  0
CIRCLE
  5
308
100
AcDbEntity
  8
M1
  6
CONTINUOUS
370
13
 62
     7
100
AcDbCircle
 10
649.425674
 20
323.611084
 40
3.0
  0
CIRCLE
  5
309
100
AcDbEntity
  8
M1
  6
CONTINUOUS
370
25
 62
     7
100
AcDbCircle
 10
649.425674
 20
323.611084
 40
2.400002
  0
ARC
  5
30A
100
AcDbEntity
  8
M1
  6
CONTINUOUS
370
13
 62
     7
100
AcDbCircle
 10
677.137695
 20
339.611084
 40
32.000259
100
AcDbArc
 50
200.038651
 51
219.413893
  0
CIRCLE
  5
30B
100
AcDbEntity
  8
M1
  6
CONTINUOUS
370
13
 62
     7
100
AcDbCircle
 10
677.137695
 20
307.611084
 40
3.0
  0
CIRCLE
  5
30C
100
AcDbEntity
  8
M1
  6
CONTINUOUS
370
25
 62
     7
100
AcDbCircle
 10
677.138672
 20
307.611084
 40
2.400024
  0
ARC
  5
30D
100
AcDbEntity
  8
M1
  6
CONTINUOUS
370
13
 62
     7
100
AcDbCircle
 10
677.137695
 20
339.611084
 40
31.999346
100
AcDbArc
 50
260.039368
 51
279.41374
  0
CIRCLE
  5
30E
100
AcDbEntity
  8
M1
  6
CONTINUOUS
370
13
 62
     7
100
AcDbCircle
 10
704.850647
 20
323.612076
 40
3.0
  0
CIRCLE
  5
30F
100
AcDbEntity
  8
M1
  6
CONTINUOUS
370
25
 62
     7
100
AcDbCircle
 10
704.850647
 20
323.612076
 40
2.400028
  0
ARC
  5
310
100
AcDbEntity
  8
M1
  6
CONTINUOUS
370
13
 62
     7
100
AcDbCircle
 10
677.137695
 20
339.611084
 40
32.000137
100
AcDbArc
 50
320.040405
 51
339.41353
  0
CIRCLE
  5
311
100
AcDbEntity
  8
M1
  6
CONTINUOUS
370
13
 62
     7
100
AcDbCircle
 10
704.850647
 20
355.611084
 40
3.0
  0
CIRCLE
  5
312
100
AcDbEntity
  8
M1
  6
CONTINUOUS
370
25
 62
     7
100
AcDbCircle
 10
704.850647
 20
355.611084
 40
2.400028
  0
ARC
  5
313
100
AcDbEntity
  8
M1
  6
CONTINUOUS
370
13
 62
     7
100
AcDbCircle
 10
677.137695
 20
339.611084
 40
32.000225
100
AcDbArc
 50
20.038635
 51
39.412899
  0
ARC
  5
314
100
AcDbEntity
  8
M1
  6
CONTINUOUS
370
25
 62
     7
100
AcDbCircle
 10
163.22168
 20
339.611084
 40
7.499921
100
AcDbArc
 50
19.471434
 51
340.528563
  0
ARC
  5
315
100
AcDbEntity
  8
M1
  6
CONTINUOUS
370
25
 62
     7
100
AcDbCircle
 10
384.440674
 20
275.724075
 40
2.061407
100
AcDbArc
 50
137.712936
 51
222.264824
  0
ARC
  5
316
100
AcDbEntity
  8
M1
  6
CONTINUOUS
370
25
 62
     7
100
AcDbCircle
 10
391.039673
 20
280.111084
 40
8.660212
100
AcDbArc
 50
159.731995
 51
200.268005
  0
ARC
  5
317
100
AcDbEntity
  8
M1
  6
CONTINUOUS
370
25
 62
     7
100
AcDbCircle
 10
384.440674
 20
284.498077
 40
2.061397
100
AcDbArc
 50
137.713242
 51
222.286751
  0
ARC
  5
318
100
AcDbEntity
  8
M1
  6
CONTINUOUS
370
25
 62
     7
100
AcDbCircle
 10
384.440674
 20
364.974075
 40
2.061407
100
AcDbArc
 50
137.712936
 51
222.286758
  0
ARC
  5
319
100
AcDbEntity
  8
M1
  6
CONTINUOUS
370
25
 62
     7
100
AcDbCircle
 10
391.039673
 20
369.361084
 40
8.660212
100
AcDbArc
 50
159.731995
 51
200.268005
  0
ARC
  5
31A
100
AcDbEntity
  8
M1
  6
CONTINUOUS
370
25
 62
     7
100
AcDbCircle
 10
384.440674
 20
373.74707
 40
2.061407
100
AcDbArc
 50
137.712936
 51
222.264824
  0
ARC
  5
31B
100
AcDbEntity
  8
M1
  6
CONTINUOUS
370
25
 62
     7
100
AcDbCircle
 10
384.440674
 20
394.724091
 40
2.061397
100
AcDbArc
 50
137.713242
 51
222.265129
  0
ARC
  5
31C
100
AcDbEntity
  8
M1
  6
CONTINUOUS
370
25
 62
     7
100
AcDbCircle
 10
391.039673
 20
399.111084
 40
8.660212
100
AcDbArc
 50
159.731995
 51
200.268005
  0
ARC
  5
31D
100
AcDbEntity
  8
M1
  6
CONTINUOUS
370
25
 62
     7
100
AcDbCircle
 10
384.440674
 20
403.498077
 40
2.061397
100
AcDbArc
 50
137.713242
 51
222.286751
  0
ARC
  5
31E
100
AcDbEntity
  8
M1
  6
CONTINUOUS
370
25
 62
     7
100
AcDbCircle
 10
454.317688
 20
275.724075
 40
2.06073
100
AcDbArc
 50
317.733643
 51
402.286415
  0
ARC
  5
31F
100
AcDbEntity
  8
M1
  6
CONTINUOUS
370
25
 62
     7
100
AcDbCircle
 10
447.718689
 20
280.111084
 40
8.660212
100
AcDbArc
 50
339.731995
 51
380.268005
  0
ARC
  5
320
100
AcDbEntity
  8
M1
  6
CONTINUOUS
370
25
 62
     7
100
AcDbCircle
 10
454.317688
 20
284.498077
 40
2.061397
100
AcDbArc
 50
317.713257
 51
402.286766
  0
ARC
  5
321
100
AcDbEntity
  8
M1
  6
CONTINUOUS
370
25
 62
     7
100
AcDbCircle
 10
454.317688
 20
364.974075
 40
2.061397
100
AcDbArc
 50
317.713257
 51
402.287079
  0
ARC
  5
322
100
AcDbEntity
  8
M1
  6
CONTINUOUS
370
25
 62
     7
100
AcDbCircle
 10
447.718689
 20
369.361084
 40
8.660212
100
AcDbArc
 50
339.731995
 51
380.268005
  0
ARC
  5
323
100
AcDbEntity
  8
M1
  6
CONTINUOUS
370
25
 62
     7
100
AcDbCircle
 10
454.317688
 20
373.74707
 40
2.060719
100
AcDbArc
 50
317.733948
 51
402.286407
  0
ARC
  5
324
100
AcDbEntity
  8
M1
  6
CONTINUOUS
370
25
 62
     7
100
AcDbCircle
 10
454.317688
 20
394.724091
 40
2.06074
100
AcDbArc
 50
317.733337
 51
402.285797
  0
ARC
  5
325
100
AcDbEntity
  8
M1
  6
CONTINUOUS
370
25
 62
     7
100
AcDbCircle
 10
447.718689
 20
399.111084
 40
8.660212
100
AcDbArc
 50
339.731995
 51
380.268005
  0
ARC
  5
326
100
AcDbEntity
  8
M1
  6
CONTINUOUS
370
25
 62
     7
100
AcDbCircle
 10
454.317688
 20
403.498077
 40
2.061397
100
AcDbArc
 50
317.713257
 51
402.286766
  0
LINE
  5
327
100
AcDbEntity
  8
M1
  6
CONTINUOUS
370
25
 62
     7
100
AcDbLine
 10
151.083481
 20
340.662936
 11
155.795885
 21
340.662936
  0
CIRCLE
  5
328
100
AcDbEntity
  8
M1
  6
CONTINUOUS
370
25
 62
     7
100
AcDbCircle
 10
153.998796
 20
343.010039
 40
1.05655
  0
LINE
  5
329
100
AcDbEntity
  8
M1
  6
CONTINUOUS
370
25
 62
     7
100
AcDbLine
 10
151.083481
 20
340.662936
 11
151.083481
 21
343.935349
  0
ARC
  5
32A
100
AcDbEntity
  8
M1
  6
CONTINUOUS
370
25
 62
     7
100
AcDbCircle
 10
152.326481
 20
343.935349
 40
1.243
100
AcDbArc
 50
105.0
 51
180.0
  0
LINE
  5
32B
100
AcDbEntity
  8
M1
  6
CONTINUOUS
370
25
 62
     7
100
AcDbLine
 10
155.654249
 20
346.11387
 11
152.004769
 21
345.135995
  0
ARC
  5
32C
100
AcDbEntity
  8
M1
  6
CONTINUOUS
370
25
 62
     7
100
AcDbCircle
 10
155.332537
 20
347.314516
 40
1.243
100
AcDbArc
 50
285.0
 51
319.249897
  0
ARC
  5
32D
100
AcDbEntity
  8
M1
  6
CONTINUOUS
370
25
 62
     7
100
AcDbCircle
 10
164.27823
 20
339.606386
 40
10.5655
100
AcDbArc
 50
220.750103
 51
499.249897
  0
ARC
  5
32E
100
AcDbEntity
  8
M1
  6
CONTINUOUS
370
25
 62
     7
100
AcDbCircle
 10
155.332537
 20
331.898257
 40
1.243
100
AcDbArc
 50
40.750103
 51
75.0
  0
LINE
  5
32F
100
AcDbEntity
  8
M1
  6
CONTINUOUS
370
25
 62
     7
100
AcDbLine
 10
155.654249
 20
333.098903
 11
152.004769
 21
334.076778
  0
ARC
  5
330
100
AcDbEntity
  8
M1
  6
CONTINUOUS
370
25
 62
     7
100
AcDbCircle
 10
152.326481
 20
335.277424
 40
1.243
100
AcDbArc
 50
180.0
 51
255.0
  0
LINE
  5
331
100
AcDbEntity
  8
M1
  6
CONTINUOUS
370
25
 62
     7
100
AcDbLine
 10
151.083481
 20
335.277424
 11
151.083481
 21
338.549836
  0
LINE
  5
332
100
AcDbEntity
  8
M1
  6
CONTINUOUS
370
25
 62
     7
100
AcDbLine
 10
151.083481
 20
338.549836
 11
155.797222
 21
338.549836
  0
CIRCLE
  5
333
100
AcDbEntity
  8
M1
  6
CONTINUOUS
370
25
 62
     7
100
AcDbCircle
 10
153.998796
 20
336.202734
 40
1.05655
  0
LINE
  5
334
100
AcDbEntity
  8
M1
  6
CONTINUOUS
370
25
 62
     7
100
AcDbLine
 10
689.275894
 20
340.666921
 11
689.275894
 21
343.939333
  0
LINE
  5
335
100
AcDbEntity
  8
M1
  6
CONTINUOUS
370
25
 62
     7
100
AcDbLine
 10
689.275894
 20
340.666921
 11
684.562917
 21
340.666921
  0
CIRCLE
  5
336
100
AcDbEntity
  8
M1
  6
CONTINUOUS
370
25
 62
     7
100
AcDbCircle
 10
686.360579
 20
343.014023
 40
1.05655
  0
ARC
  5
337
100
AcDbEntity
  8
M1
  6
CONTINUOUS
370
25
 62
     7
100
AcDbCircle
 10
688.032894
 20
343.939333
 40
1.243
100
AcDbArc
 50
0.0
 51
75.0
  0
LINE
  5
338
100
AcDbEntity
  8
M1
  6
CONTINUOUS
370
25
 62
     7
100
AcDbLine
 10
684.705126
 20
346.117854
 11
688.354606
 21
345.139979
  0
ARC
  5
339
100
AcDbEntity
  8
M1
  6
CONTINUOUS
370
25
 62
     7
100
AcDbCircle
 10
685.026838
 20
347.3185
 40
1.243
100
AcDbArc
 50
220.750103
 51
255.0
  0
ARC
  5
33A
100
AcDbEntity
  8
M1
  6
CONTINUOUS
370
25
 62
     7
100
AcDbCircle
 10
676.081145
 20
339.610371
 40
10.5655
100
AcDbArc
 50
40.750103
 51
319.249897
  0
ARC
  5
33B
100
AcDbEntity
  8
M1
  6
CONTINUOUS
370
25
 62
     7
100
AcDbCircle
 10
685.026838
 20
331.902241
 40
1.243
100
AcDbArc
 50
105.0
 51
139.249897
  0
LINE
  5
33C
100
AcDbEntity
  8
M1
  6
CONTINUOUS
370
25
 62
     7
100
AcDbLine
 10
684.705126
 20
333.102887
 11
688.354606
 21
334.080762
  0
ARC
  5
33D
100
AcDbEntity
  8
M1
  6
CONTINUOUS
370
25
 62
     7
100
AcDbCircle
 10
688.032894
 20
335.281408
 40
1.243
100
AcDbArc
 50
285.0
 51
360.0
  0
LINE
  5
33E
100
AcDbEntity
  8
M1
  6
CONTINUOUS
370
25
 62
     7
100
AcDbLine
 10
689.275894
 20
335.281408
 11
689.275894
 21
338.553821
  0
LINE
  5
33F
100
AcDbEntity
  8
M1
  6
CONTINUOUS
370
25
 62
     7
100
AcDbLine
 10
689.275894
 20
338.553821
 11
684.562714
 21
338.553821
  0
CIRCLE
  5
340
100
AcDbEntity
  8
M1
  6
CONTINUOUS
370
25
 62
     7
100
AcDbCircle
 10
686.360579
 20
336.206718
 40
1.05655
  0
LINE
  5
341
100
AcDbEntity
  8
M1
  6
CONTINUOUS
370
25
 62
     7
100
AcDbLine
 10
473.379669
 20
351.411084
 11
472.379669
 21
351.411084
  0
LINE
  5
342
100
AcDbEntity
  8
M1
  6
CONTINUOUS
370
25
 62
     7
100
AcDbLine
 10
473.379669
 20
351.411084
 11
473.379669
 21
327.811084
  0
LINE
  5
343
100
AcDbEntity
  8
M1
  6
CONTINUOUS
370
25
 62
     7
100
AcDbLine
 10
478.879669
 20
348.111084
 11
473.379669
 21
348.111084
  0
LINE
  5
344
100
AcDbEntity
  8
M1
  6
CONTINUOUS
370
25
 62
     7
100
AcDbLine
 10
478.879669
 20
331.111084
 11
473.379669
 21
331.111084
  0
LINE
  5
345
100
AcDbEntity
  8
M1
  6
CONTINUOUS
370
25
 62
     7
100
AcDbLine
 10
473.379669
 20
327.811084
 11
472.379669
 21
327.811084
  0
LINE
  5
346
100
AcDbEntity
  8
M1
  6
CONTINUOUS
370
25
 62
     7
100
AcDbLine
 10
365.379669
 20
327.811084
 11
366.379669
 21
327.811084
  0
LINE
  5
347
100
AcDbEntity
  8
M1
  6
CONTINUOUS
370
25
 62
     7
100
AcDbLine
 10
365.379669
 20
351.411084
 11
365.379669
 21
327.811084
  0
LINE
  5
348
100
AcDbEntity
  8
M1
  6
CONTINUOUS
370
25
 62
     7
100
AcDbLine
 10
359.879669
 20
331.111084
 11
365.379669
 21
331.111084
  0
LINE
  5
349
100
AcDbEntity
  8
M1
  6
CONTINUOUS
370
25
 62
     7
100
AcDbLine
 10
359.879669
 20
348.111084
 11
365.379669
 21
348.111084
  0
LINE
  5
34A
100
AcDbEntity
  8
M1
  6
CONTINUOUS
370
25
 62
     7
100
AcDbLine
 10
365.379669
 20
351.411084
 11
366.379669
 21
351.411084
  0
TEXT
  5
34B
100
AcDbEntity
  8
M2
100
AcDbText
 10
144.833679
 20
196.374466
 40
9.0
  1
Ｄ１
 41
0.833333
  7
STANDARD
100
AcDbText
  0
TEXT
  5
34C
100
AcDbEntity
  8
M2
100
AcDbText
 10
418.3797
 20
205.933868
 40
9.0
  1
Ｄ２
 41
0.833333
  7
STANDARD
100
AcDbText
  0
TEXT
  5
34D
100
AcDbEntity
  8
M2
100
AcDbText
 10
677.954651
 20
197.109772
 40
9.0
  1
Ｄ３
 41
0.833333
  7
STANDARD
100
AcDbText
  0
TEXT
  5
34E
100
AcDbEntity
  8
M2
100
AcDbText
 10
685.979492
 20
161.004074
 40
9.0
  1
ＰＯＣ－１．２
 41
0.833333
  7
STANDARD
100
AcDbText
  0
TEXT
  5
34F
100
AcDbEntity
  8
M2
100
AcDbText
 10
676.879456
 20
145.370743
 40
9.0
  1
（ＳＤＫ６０２３）
 41
0.833333
  7
STANDARD
100
AcDbText
  0
ENDSEC
  0
SECTION
  2
OBJECTS
  0
DICTIONARY
  5
C
100
AcDbDictionary
  3
ACAD_GROUP
350
D
  3
ACAD_MLINESTYLE
350
E
  0
DICTIONARY
  5
D
102
{ACAD_REACTORS
330
C
102
}
100
AcDbDictionary
  0
DICTIONARY
  5
E
102
{ACAD_REACTORS
330
C
102
}
100
AcDbDictionary
  3
STANDARD
350
13
  0
MLINESTYLE
  5
13
102
{ACAD_REACTORS
330
E
102
}
100
AcDbMlineStyle
  2
STANDARD
 70
     0
  3

 62
     0
 51
90.0
 52
90.0
 71
     2
 49
0.5
 62
   256
  6
BYLAYER
 49
-0.5
 62
   256
  6
BYLAYER
  0
ENDSEC
  0
EOF
