  0
SECTION
  2
HEADER
  9
$ACADVER
  1
AC1015
  9
$INSBASE
 10
0.0
 20
0.0
  9
$VIEWCTR
 10
7.531722
 20
4.5
  9
$VIEWSIZE
 40
9.0
  9
$SNAPMODE
 70
     0
  9
$SNAPUNIT
 10
1.0
 20
1.0
  9
$SNAPBASE
 10
0.0
 20
0.0
  9
$SNAPANG
 50
0.0
  9
$SNAPSTYLE
 70
     0
  9
$SNAPISOPAIR
 70
     0
  9
$GRIDMODE
 70
     0
  9
$GRIDUNIT
 10
0.0
 20
0.0
  9
$ORTHOMODE
 70
     0
  9
$REGENMODE
 70
     1
  9
$FILLMODE
 70
     1
  9
$QTEXTMODE
 70
     0
  9
$DRAGMODE
 70
     2
  9
$LTSCALE
 40
1.0
  9
$OSMODE
 70
     0
  9
$ATTMODE
 70
     1
  9
$TEXTSIZE
 40
0.2
  9
$TRACEWID
 40
0.05
  9
$TEXTSTYLE
  7
STANDARD
  9
$CELTYPE
  6
BYLAYER
  9
$CECOLOR
 62
   256
  9
$DIMSCALE
 40
1.0
  9
$DIMASZ
 40
0.18
  9
$DIMEXO
 40
0.0625
  9
$DIMDLI
 40
0.38
  9
$DIMRND
 40
0.0
  9
$DIMDLE
 40
0.0
  9
$DIMEXE
 40
0.18
  9
$DIMTP
 40
0.0
  9
$DIMTM
 40
0.0
  9
$DIMTXT
 40
0.18
  9
$DIMCEN
 40
0.09
  9
$DIMTSZ
 40
0.0
  9
$DIMADEC
 70
     0
  9
$DIMALTRND
 40
0.000000
  9
$DIMAZIN
 70
     0
  9
$DIMDSEP
 70
    46
  9
$DIMATFIT
 70
     3
  9
$DIMFRAC
 70
     0
  9
$DIMLDRBLK
  1

  9
$DIMLUNIT
 70
     2
  9
$DIMLWD
 70
   13
  9
$DIMLWE
 70
   13
  9
$DIMTMOVE
 70
     0
  9
$CELWEIGHT
370
    25
  9
$LWDISPLAY
290
    1
  9
$EXTNAMES
290
    1
  9
$DIMTOL
 70
     0
  9
$DIMLIM
 70
     0
  9
$DIMTIH
 70
     1
  9
$DIMTOH
 70
     1
  9
$DIMSE1
 70
     0
  9
$DIMSE2
 70
     0
  9
$DIMTAD
 70
     0
  9
$DIMZIN
 70
     0
  9
$DIMBLK
  1

  9
$LUNITS
 70
     2
  9
$LUPREC
 70
     4
  9
$AXISMODE
 70
     0
  9
$AXISUNIT
 10
0.0
 20
0.0
  9
$SKETCHINC
 40
0.1
  9
$FILLETRAD
 40
0.0
  9
$AUNITS
 70
     0
  9
$AUPREC
 70
     0
  9
$MENU
  1
ACAD
  9
$ELEVATION
 40
0.0
  9
$THICKNESS
 40
0.0
  9
$VIEWDIR
 10
0.0
 20
0.0
 30
1.0
  9
$LIMCHECK
 70
     0
  9
$BLIPMODE
 70
     1
  9
$CHAMFERA
 40
0.0
  9
$CHAMFERB
 40
0.0
  9
$FASTZOOM
 70
     1
  9
$SKPOLY
 70
     0
  9
$TDCREATE
 40
0000000.0000000000
  9
$TDUPDATE
 40
0000000.0000000000
  9
$TDINDWG
 40
0.0000000000
  9
$TDUSRTIMER
 40
0.0000000000
  9
$USRTIMER
 70
     1
  9
$ANGBASE
 50
0.0
  9
$ANGDIR
 70
     0
  9
$PDMODE
 70
     0
  9
$PDSIZE
 40
0.0
  9
$PLINEWID
 40
0.0
  9
$COORDS
 70
     0
  9
$USERI1
 70
     0
  9
$USERI2
 70
     0
  9
$USERI3
 70
     0
  9
$USERI4
 70
     0
  9
$USERI5
 70
     0
  9
$USERR1
 40
0.0
  9
$USERR2
 40
0.0
  9
$USERR3
 40
0.0
  9
$USERR4
 40
0.0
  9
$USERR5
 40
0.0
  9
$CLAYER
  8
M1
  9
$EXTMIN
 10
0.0
 20
0.0
  9
$EXTMAX
 10
841.0
 20
594.0
  9
$LIMMIN
 10
0.0
 20
0.0
  9
$LIMMAX
 10
841.0
 20
594.0
  9
$HANDSEED
  5
35A
  0
ENDSEC
  0
SECTION
  2
CLASSES
  0
ENDSEC
  0
SECTION
  2
TABLES
  0
TABLE
  2
VPORT
  5
8
100
AcDbSymbolTable
 70
     2
  0
VPORT
  5
14
100
AcDbSymbolTableRecord
100
AcDbViewportTableRecord
  2
*ACTIVE
 70
     0
 10
0.0
 20
0.0
 11
1.0
 21
1.0
 12
484.0
 22
297.0
 13
0.0
 23
0.0
 14
1.0
 24
1.0
 15
0.0
 25
0.0
 16
0.0
 26
0.0
 36
1.0
 17
0.0
 27
0.0
 37
0.0
 40
594.0
 41
2.0
 42
50.0
 43
0.0
 44
0.0
 50
0.0
 51
0.0
 71
     0
 72
   100
 73
     1
 74
     1
 75
     0
 76
     0
 77
     0
 78
     0
  0
ENDTAB
  0
TABLE
  2
LTYPE
  5
5
100
AcDbSymbolTable
 70
     5
  0
LTYPE
  5
15
100
AcDbSymbolTableRecord
100
AcDbLinetypeTableRecord
  2
BYBLOCK
 70
     0
  3

 72
    65
 73
     0
 40
0.0
  0
LTYPE
  5
16
100
AcDbSymbolTableRecord
100
AcDbLinetypeTableRecord
  2
BYLAYER
 70
     0
  3

 72
    65
 73
     0
 40
0.0
  0
LTYPE
  5
17
100
AcDbSymbolTableRecord
100
AcDbLinetypeTableRecord
  2
CONTINUOUS
 70
    64
  3
Solid line
 72
    65
 73
     0
 40
0.0
  0
LTYPE
  5
18
100
AcDbSymbolTableRecord
100
AcDbLinetypeTableRecord
  2
DASHED
 70
    64
  3
__ __ __ __ __ __ __ __ __ __ __ __ __ __ __ __
 72
    65
 73
     2
 40
0.75
 49
0.5
 74
     0
 49
-0.25
 74
     0
  0
LTYPE
  5
19
100
AcDbSymbolTableRecord
100
AcDbLinetypeTableRecord
  2
DASHDOT
 70
    64
  3
__ . __ . __ . __ . __ . __ . __ . __ . __ . __
 72
    65
 73
     4
 40
1.0
 49
0.5
 74
     0
 49
-0.25
 74
     0
 49
0.0
 74
     0
 49
-0.25
 74
     0
  0
LTYPE
  5
1A
100
AcDbSymbolTableRecord
100
AcDbLinetypeTableRecord
  2
DIVIDE
 70
    64
  3
____ . . ____ . . ____ . . ____ . . ____ . . __
 72
    65
 73
     6
 40
1.25
 49
0.5
 74
     0
 49
-0.25
 74
     0
 49
0.0
 74
     0
 49
-0.25
 74
     0
 49
0.0
 74
     0
 49
-0.25
 74
     0
  0
LTYPE
  5
1B
100
AcDbSymbolTableRecord
100
AcDbLinetypeTableRecord
  2
DOT
 70
    64
  3
. . . . . . . . . . . . . . . . . . . . . . . .
 72
    65
 73
     2
 40
0.25
 49
0.0
 74
     0
 49
-0.25
 74
     0
  0
ENDTAB
  0
TABLE
  2
LAYER
  5
2
100
AcDbSymbolTable
 70
   102
  0
LAYER
  5
F
100
AcDbSymbolTableRecord
100
AcDbLayerTableRecord
  2
0
 70
     0
 62
     7
  6
CONTINUOUS
370
     -3
390
F
  0
LAYER
  5
1C
100
AcDbSymbolTableRecord
100
AcDbLayerTableRecord
  2
M1
 70
     0
 62
     3
  6
CONTINUOUS
370
     -3
390
F
  0
ENDTAB
  0
TABLE
  2
STYLE
  5
3
100
AcDbSymbolTable
 70
     2
  0
STYLE
  5
10
100
AcDbSymbolTableRecord
100
AcDbTextStyleTableRecord
  2
STANDARD
 70
     0
 40
0.0
 41
1.0
 50
0.0
 71
     0
 42
0.2
  3
txt
  4
BIGFONT
  0
ENDTAB
  0
TABLE
  2
VIEW
  5
6
100
AcDbSymbolTable
 70
     0
  0
ENDTAB
  0
TABLE
  2
UCS
  5
7
100
AcDbSymbolTable
 70
     0
  0
ENDTAB
  0
TABLE
  2
APPID
  5
9
100
AcDbSymbolTable
 70
     1
  0
APPID
  5
11
100
AcDbSymbolTableRecord
100
AcDbRegAppTableRecord
  2
ACAD
 70
     0
  0
ENDTAB
  0
TABLE
  2
DIMSTYLE
  5
A
100
AcDbSymbolTable
 70
     2
100
AcDbDimStyleTable
 71
     1
  0
DIMSTYLE
105
23
100
AcDbSymbolTableRecord
100
AcDbDimStyleTableRecord
  2
STANDARD
 70
     0
  3

  4

  5

  6
_OPEN
  7
_OPEN
 40
1.0
 41
3.0
 42
0.5
 43
8.0
 44
1.5
 45
0.0
 46
0.0
 47
0.0
 48
0.0
140
3.15
141
0.09
142
0.0
143
0.03937
144
1.0
145
0.0
146
1.0
147
1.0
148
0.000000
 71
     0
 72
     0
 73
     0
 74
     0
 75
     0
 76
     0
 77
     3
 78
     8
170
     0
171
     2
172
     0
173
     1
174
     0
175
     0
176
     0
177
     0
178
     0
270
     2
271
     2
272
     4
273
     2
274
     2
340
10
275
     0
278
    46
280
     0
281
     0
282
     0
283
     1
284
     0
285
     0
286
     0
287
     3
288
     0
371
   13
372
   13
  0
DIMSTYLE
105
24
100
AcDbSymbolTableRecord
100
AcDbDimStyleTableRecord
  2
LEADSTYL
 70
     0
  3

  4

  5

  6
_OPEN
  7
_OPEN
 40
1.0
 41
3.0
 42
0.0625
 43
0.38
 44
0.18
 45
0.0
 46
0.0
 47
0.0
 48
0.0
140
3.15
141
0.09
142
0.0
143
25.4
144
1.0
145
0.0
146
1.0
147
1.0
 71
     0
 72
     0
 73
     1
 74
     1
 75
     0
 76
     0
 77
     0
 78
     0
170
     0
171
     2
172
     0
173
     1
174
     0
175
     0
176
     0
177
     0
178
     0
270
     2
271
     4
272
     4
273
     2
274
     2
340
10
275
     0
280
     0
281
     0
282
     0
283
     1
284
     0
285
     0
286
     0
287
     3
288
     0
  0
ENDTAB
  0
TABLE
  2
BLOCK_RECORD
  5
1
100
AcDbSymbolTable
 70
     6
  0
BLOCK_RECORD
  5
1D
100
AcDbSymbolTableRecord
100
AcDbBlockTableRecord
  2
*MODEL_SPACE
  0
BLOCK_RECORD
  5
20
100
AcDbSymbolTableRecord
100
AcDbBlockTableRecord
  2
*PAPER_SPACE
  0
BLOCK_RECORD
  5
25
100
AcDbSymbolTableRecord
100
AcDbBlockTableRecord
  2
_NONE
  0
BLOCK_RECORD
  5
29
100
AcDbSymbolTableRecord
100
AcDbBlockTableRecord
  2
_OPEN
  0
BLOCK_RECORD
  5
2F
100
AcDbSymbolTableRecord
100
AcDbBlockTableRecord
  2
_CLOSED
  0
BLOCK_RECORD
  5
36
100
AcDbSymbolTableRecord
100
AcDbBlockTableRecord
  2
_ORIGIN
  0
BLOCK_RECORD
  5
3B
100
AcDbSymbolTableRecord
100
AcDbBlockTableRecord
  2
_DOT
  0
BLOCK_RECORD
  5
43
100
AcDbSymbolTableRecord
100
AcDbBlockTableRecord
  2
_OBLIQUE
  0
ENDTAB
  0
ENDSEC
  0
SECTION
  2
BLOCKS
  0
BLOCK
  5
1E
100
AcDbEntity
  8
0
100
AcDbBlockBegin
  2
*MODEL_SPACE
 70
     0
 10
0.0
 20
0.0
 30
0.0
  3
*MODEL_SPACE
  1

  0
ENDBLK
  5
1F
100
AcDbEntity
  8
0
100
AcDbBlockEnd
  0
BLOCK
  5
21
100
AcDbEntity
 67
     1
  8
0
100
AcDbBlockBegin
  2
*PAPER_SPACE
 70
     0
 10
0.0
 20
0.0
 30
0.0
  3
*PAPER_SPACE
  1

  0
ENDBLK
  5
22
100
AcDbEntity
 67
     1
  8
0
100
AcDbBlockEnd
  0
BLOCK
  5
26
100
AcDbEntity
  8
0
100
AcDbBlockBegin
  2
_NONE
 70
     0
 10
0.0
 20
0.0
  0
CIRCLE
  5
27
100
AcDbEntity
  8
0
 62
     0
370
13
100
AcDbCircle
 10
0.0
 20
0.0
 40
0.25
  0
ENDBLK
  5
28
100
AcDbEntity
  8
0
100
AcDbBlockEnd
  0
BLOCK
  5
2A
100
AcDbEntity
  8
0
100
AcDbBlockBegin
  2
_OPEN
 70
     0
 10
0.0
 20
0.0
  0
LINE
  5
2B
100
AcDbEntity
  8
0
 62
     0
370
13
100
AcDbLine
 10
-0.965926
 20
0.258819
 11
0.0
 21
0.0
  0
LINE
  5
2C
100
AcDbEntity
  8
0
 62
     0
370
13
100
AcDbLine
 10
0.0
 20
0.0
 11
-0.965926
 21
-0.258819
  0
LINE
  5
2D
100
AcDbEntity
  8
0
 62
     0
370
13
100
AcDbLine
 10
0.0
 20
0.0
 11
-1.0
 21
0.0
  0
ENDBLK
  5
2E
100
AcDbEntity
  8
0
100
AcDbBlockEnd
  0
BLOCK
  5
30
100
AcDbEntity
  8
0
100
AcDbBlockBegin
  2
_CLOSED
 70
     0
 10
0.0
 20
0.0
  0
LINE
  5
31
100
AcDbEntity
  8
0
 62
     0
370
13
100
AcDbLine
 10
-0.965926
 20
0.258819
 11
0.0
 21
0.0
  0
LINE
  5
32
100
AcDbEntity
  8
0
 62
     0
370
13
100
AcDbLine
 10
0.0
 20
0.0
 11
-0.965926
 21
-0.258819
  0
LINE
  5
33
100
AcDbEntity
  8
0
 62
     0
370
13
100
AcDbLine
 10
-0.965926
 20
0.258819
 11
-0.965926
 21
-0.258819
  0
LINE
  5
34
100
AcDbEntity
  8
0
 62
     0
370
13
100
AcDbLine
 10
0.0
 20
0.0
 11
-1.0
 21
0.0
  0
ENDBLK
  5
35
100
AcDbEntity
  8
0
100
AcDbBlockEnd
  0
BLOCK
  5
37
100
AcDbEntity
  8
0
100
AcDbBlockBegin
  2
_ORIGIN
 70
     0
 10
0.0
 20
0.0
  0
CIRCLE
  5
38
100
AcDbEntity
  8
0
 62
     0
370
13
100
AcDbCircle
 10
0.0
 20
0.0
 40
0.5
  0
LINE
  5
39
100
AcDbEntity
  8
0
 62
     0
370
13
100
AcDbLine
 10
0.0
 20
0.0
 11
-1.0
 21
0.0
  0
ENDBLK
  5
3A
100
AcDbEntity
  8
0
100
AcDbBlockEnd
  0
BLOCK
  5
3C
100
AcDbEntity
  8
0
100
AcDbBlockBegin
  2
_DOT
 70
     0
 10
0.0
 20
0.0
  0
POLYLINE
  5
3D
100
AcDbEntity
  8
0
 62
     0
100
AcDb2dPolyline
 66
     1
 70
     1
 40
0.5
 41
0.5
  0
VERTEX
  5
3E
100
AcDbEntity
  8
0
 62
     0
100
AcDbVertex
100
AcDb2dVertex
 10
-0.25
 20
0.0
 42
1.0
  0
VERTEX
  5
3F
100
AcDbEntity
  8
0
 62
     0
100
AcDbVertex
100
AcDb2dVertex
 10
0.25
 20
0.0
 42
1.0
  0
SEQEND
  5
40
100
AcDbEntity
  8
0
 62
     0
  0
LINE
  5
41
100
AcDbEntity
  8
0
 62
     0
370
13
100
AcDbLine
 10
-0.5
 20
0.0
 11
-1.0
 21
0.0
  0
ENDBLK
  5
42
100
AcDbEntity
  8
0
100
AcDbBlockEnd
  0
BLOCK
  5
44
100
AcDbEntity
  8
0
100
AcDbBlockBegin
  2
_OBLIQUE
 70
     0
 10
0.0
 20
0.0
  0
LINE
  5
45
100
AcDbEntity
  8
0
 62
     0
370
13
100
AcDbLine
 10
-0.353553
 20
-0.353553
 11
0.353553
 21
0.353553
  0
ENDBLK
  5
46
100
AcDbEntity
  8
0
100
AcDbBlockEnd
  0
ENDSEC
  0
SECTION
  2
ENTITIES
  0
LINE
  5
47
100
AcDbEntity
  8
M1
  6
CONTINUOUS
370
13
 62
     7
100
AcDbLine
 10
168.598618
 20
353.579185
 11
176.397812
 21
353.579185
  0
LINE
  5
48
100
AcDbEntity
  8
M1
  6
CONTINUOUS
370
25
 62
     7
100
AcDbLine
 10
409.808304
 20
443.578179
 11
409.794388
 21
263.594291
  0
LINE
  5
49
100
AcDbEntity
  8
M1
  6
CONTINUOUS
370
25
 62
     7
100
AcDbLine
 10
409.808304
 20
443.577995
 11
410.807296
 21
444.577995
  0
LINE
  5
4A
100
AcDbEntity
  8
M1
  6
CONTINUOUS
370
25
 62
     7
100
AcDbLine
 10
410.807296
 20
444.578179
 11
459.308304
 21
444.578179
  0
LINE
  5
4B
100
AcDbEntity
  8
M1
  6
CONTINUOUS
370
25
 62
     7
100
AcDbLine
 10
460.308396
 20
443.578179
 11
459.308304
 21
444.578179
  0
LINE
  5
4C
100
AcDbEntity
  8
M1
  6
CONTINUOUS
370
25
 62
     7
100
AcDbLine
 10
460.308304
 20
443.578179
 11
460.308304
 21
353.579185
  0
LINE
  5
4D
100
AcDbEntity
  8
M1
  6
CONTINUOUS
370
25
 62
     7
100
AcDbLine
 10
460.308304
 20
438.378197
 11
463.907302
 21
438.378197
  0
LINE
  5
4E
100
AcDbEntity
  8
M1
  6
CONTINUOUS
370
25
 62
     7
100
AcDbLine
 10
466.907302
 20
441.378197
 11
466.907302
 21
451.742179
  0
LINE
  5
4F
100
AcDbEntity
  8
M1
  6
CONTINUOUS
370
25
 62
     7
100
AcDbLine
 10
466.907302
 20
451.742179
 11
469.70729
 21
449.870201
  0
LINE
  5
50
100
AcDbEntity
  8
M1
  6
CONTINUOUS
370
25
 62
     7
100
AcDbLine
 10
469.70729
 20
441.378197
 11
469.70729
 21
449.870201
  0
LINE
  5
51
100
AcDbEntity
  8
M1
  6
CONTINUOUS
370
25
 62
     7
100
AcDbLine
 10
460.308304
 20
435.578179
 11
463.907302
 21
435.578179
  0
LINE
  5
52
100
AcDbEntity
  8
M1
  6
CONTINUOUS
370
25
 62
     7
100
AcDbLine
 10
466.907302
 20
455.415183
 11
466.907302
 21
460.934197
  0
LINE
  5
53
100
AcDbEntity
  8
M1
  6
CONTINUOUS
370
25
 62
     7
100
AcDbLine
 10
473.907394
 20
473.059197
 11
475.307296
 21
470.634177
  0
LINE
  5
54
100
AcDbEntity
  8
M1
  6
CONTINUOUS
370
25
 62
     7
100
AcDbLine
 10
474.607102
 20
471.846489
 11
480.669114
 21
475.346489
  0
LINE
  5
55
100
AcDbEntity
  8
M1
  6
CONTINUOUS
370
25
 62
     7
100
AcDbLine
 10
462.007308
 20
471.846275
 11
455.945206
 21
475.346275
  0
LINE
  5
56
100
AcDbEntity
  8
M1
  6
CONTINUOUS
370
25
 62
     7
100
AcDbLine
 10
469.70729
 20
453.372185
 11
469.70729
 21
460.934197
  0
LINE
  5
57
100
AcDbEntity
  8
M1
  6
CONTINUOUS
370
25
 62
     7
100
AcDbLine
 10
466.907212
 20
455.415093
 11
469.7072
 21
453.372093
  0
LINE
  5
58
100
AcDbEntity
  8
M1
  6
CONTINUOUS
370
25
 62
     7
100
AcDbLine
 10
462.7072
 20
473.059197
 11
461.307206
 21
470.634177
  0
LINE
  5
59
100
AcDbEntity
  8
M1
  6
CONTINUOUS
370
25
 62
     7
100
AcDbLine
 10
373.308304
 20
381.079185
 11
373.308304
 21
353.579185
  0
LINE
  5
5A
100
AcDbEntity
  8
M1
  6
CONTINUOUS
370
25
 62
     7
100
AcDbLine
 10
409.807602
 20
434.579185
 11
397.808304
 21
434.579185
  0
LINE
  5
5B
100
AcDbEntity
  8
M1
  6
CONTINUOUS
370
25
 62
     7
100
AcDbLine
 10
388.308304
 20
381.079185
 11
373.308304
 21
381.079185
  0
LINE
  5
5C
100
AcDbEntity
  8
M1
  6
CONTINUOUS
370
25
 62
     7
100
AcDbLine
 10
388.308304
 20
398.579185
 11
388.308304
 21
353.579185
  0
LINE
  5
5D
100
AcDbEntity
  8
M1
  6
CONTINUOUS
370
25
 62
     7
100
AcDbLine
 10
395.808304
 20
432.579185
 11
395.808304
 21
353.579185
  0
LINE
  5
5E
100
AcDbEntity
  8
M1
  6
CONTINUOUS
370
25
 62
     7
100
AcDbLine
 10
389.808304
 20
398.579185
 11
388.308304
 21
398.579185
  0
LINE
  5
5F
100
AcDbEntity
  8
M1
  6
CONTINUOUS
370
25
 62
     7
100
AcDbLine
 10
460.808304
 20
434.579185
 11
472.308304
 21
434.579185
  0
LINE
  5
60
100
AcDbEntity
  8
M1
  6
CONTINUOUS
370
25
 62
     7
100
AcDbLine
 10
474.308304
 20
432.579185
 11
474.308304
 21
353.579185
  0
LINE
  5
61
100
AcDbEntity
  8
M1
  6
CONTINUOUS
370
25
 62
     7
100
AcDbLine
 10
481.808304
 20
398.579185
 11
481.808304
 21
353.579185
  0
LINE
  5
62
100
AcDbEntity
  8
M1
  6
CONTINUOUS
370
25
 62
     7
100
AcDbLine
 10
480.308304
 20
398.579185
 11
481.808304
 21
398.579185
  0
LINE
  5
63
100
AcDbEntity
  8
M1
  6
CONTINUOUS
370
25
 62
     7
100
AcDbLine
 10
481.808304
 20
381.079185
 11
496.808304
 21
381.079185
  0
LINE
  5
64
100
AcDbEntity
  8
M1
  6
CONTINUOUS
370
25
 62
     7
100
AcDbLine
 10
496.808304
 20
381.079185
 11
496.808304
 21
353.579185
  0
LINE
  5
65
100
AcDbEntity
  8
M1
  6
CONTINUOUS
370
25
 62
     7
100
AcDbLine
 10
321.316392
 20
363.579185
 11
364.316392
 21
363.579185
  0
LINE
  5
66
100
AcDbEntity
  8
M1
  6
CONTINUOUS
370
25
 62
     7
100
AcDbLine
 10
321.314804
 20
343.579185
 11
364.314804
 21
343.579185
  0
LINE
  5
67
100
AcDbEntity
  8
M1
  6
CONTINUOUS
370
25
 62
     7
100
AcDbLine
 10
321.316392
 20
363.579185
 11
321.314804
 21
343.579185
  0
LINE
  5
68
100
AcDbEntity
  8
M1
  6
CONTINUOUS
370
25
 62
     7
100
AcDbLine
 10
364.316542
 20
366.079185
 11
364.315598
 21
353.579185
  0
LINE
  5
69
100
AcDbEntity
  8
M1
  6
CONTINUOUS
370
25
 62
     7
100
AcDbLine
 10
356.315812
 20
356.079185
 11
356.315384
 21
351.079185
  0
LINE
  5
6A
100
AcDbEntity
  8
M1
  6
CONTINUOUS
370
25
 62
     7
100
AcDbLine
 10
321.315414
 20
351.079185
 11
359.315384
 21
351.079185
  0
LINE
  5
6B
100
AcDbEntity
  8
M1
  6
CONTINUOUS
370
25
 62
     7
100
AcDbLine
 10
321.31578
 20
356.079185
 11
359.315812
 21
356.079185
  0
LINE
  5
6C
100
AcDbEntity
  8
M1
  6
CONTINUOUS
370
25
 62
     7
100
AcDbLine
 10
409.794388
 20
263.594291
 11
410.807296
 21
262.580283
  0
LINE
  5
6D
100
AcDbEntity
  8
M1
  6
CONTINUOUS
370
25
 62
     7
100
AcDbLine
 10
410.807296
 20
262.580193
 11
459.308304
 21
262.580193
  0
LINE
  5
6E
100
AcDbEntity
  8
M1
  6
CONTINUOUS
370
25
 62
     7
100
AcDbLine
 10
460.308486
 20
263.580193
 11
459.308486
 21
262.580193
  0
LINE
  5
6F
100
AcDbEntity
  8
M1
  6
CONTINUOUS
370
25
 62
     7
100
AcDbLine
 10
460.308304
 20
263.580193
 11
460.308304
 21
353.579185
  0
LINE
  5
70
100
AcDbEntity
  8
M1
  6
CONTINUOUS
370
25
 62
     7
100
AcDbLine
 10
364.316688
 20
341.079185
 11
364.315598
 21
353.579185
  0
LINE
  5
71
100
AcDbEntity
  8
M1
  6
CONTINUOUS
370
25
 62
     7
100
AcDbLine
 10
373.308304
 20
326.079185
 11
373.308304
 21
353.579185
  0
LINE
  5
72
100
AcDbEntity
  8
M1
  6
CONTINUOUS
370
25
 62
     7
100
AcDbLine
 10
409.807602
 20
272.579185
 11
397.808304
 21
272.579185
  0
LINE
  5
73
100
AcDbEntity
  8
M1
  6
CONTINUOUS
370
25
 62
     7
100
AcDbLine
 10
388.308304
 20
326.079185
 11
373.308304
 21
326.079185
  0
LINE
  5
74
100
AcDbEntity
  8
M1
  6
CONTINUOUS
370
25
 62
     7
100
AcDbLine
 10
388.308304
 20
308.579185
 11
388.308304
 21
353.579185
  0
LINE
  5
75
100
AcDbEntity
  8
M1
  6
CONTINUOUS
370
25
 62
     7
100
AcDbLine
 10
395.808304
 20
274.579185
 11
395.808304
 21
353.579185
  0
LINE
  5
76
100
AcDbEntity
  8
M1
  6
CONTINUOUS
370
25
 62
     7
100
AcDbLine
 10
389.808304
 20
308.579185
 11
388.308304
 21
308.579185
  0
LINE
  5
77
100
AcDbEntity
  8
M1
  6
CONTINUOUS
370
25
 62
     7
100
AcDbLine
 10
460.808304
 20
272.579185
 11
472.308304
 21
272.579185
  0
LINE
  5
78
100
AcDbEntity
  8
M1
  6
CONTINUOUS
370
25
 62
     7
100
AcDbLine
 10
474.308304
 20
274.579185
 11
474.308304
 21
353.579185
  0
LINE
  5
79
100
AcDbEntity
  8
M1
  6
CONTINUOUS
370
25
 62
     7
100
AcDbLine
 10
481.808304
 20
308.579185
 11
481.808304
 21
353.579185
  0
LINE
  5
7A
100
AcDbEntity
  8
M1
  6
CONTINUOUS
370
25
 62
     7
100
AcDbLine
 10
480.308304
 20
308.579185
 11
481.808304
 21
308.579185
  0
LINE
  5
7B
100
AcDbEntity
  8
M1
  6
CONTINUOUS
370
25
 62
     7
100
AcDbLine
 10
481.808304
 20
326.079185
 11
496.808304
 21
326.079185
  0
LINE
  5
7C
100
AcDbEntity
  8
M1
  6
CONTINUOUS
370
25
 62
     7
100
AcDbLine
 10
496.808304
 20
326.079185
 11
496.808304
 21
353.579185
  0
LINE
  5
7D
100
AcDbEntity
  8
M1
  6
CONTINUOUS
370
25
 62
     7
100
AcDbLine
 10
505.812524
 20
341.068243
 11
505.815506
 21
353.568199
  0
LINE
  5
7E
100
AcDbEntity
  8
M1
  6
CONTINUOUS
370
25
 62
     7
100
AcDbLine
 10
505.816542
 20
366.068243
 11
505.815598
 21
353.568199
  0
LINE
  5
7F
100
AcDbEntity
  8
M1
  6
CONTINUOUS
370
25
 62
     7
100
AcDbLine
 10
548.8163
 20
363.561577
 11
505.8163
 21
363.568199
  0
LINE
  5
80
100
AcDbEntity
  8
M1
  6
CONTINUOUS
370
25
 62
     7
100
AcDbLine
 10
548.8163
 20
363.561577
 11
548.814804
 21
343.561577
  0
LINE
  5
81
100
AcDbEntity
  8
M1
  6
CONTINUOUS
370
25
 62
     7
100
AcDbLine
 10
548.815812
 20
356.061577
 11
510.815812
 21
356.067497
  0
LINE
  5
82
100
AcDbEntity
  8
M1
  6
CONTINUOUS
370
25
 62
     7
100
AcDbLine
 10
548.815384
 20
351.061577
 11
510.815384
 21
351.067497
  0
LINE
  5
83
100
AcDbEntity
  8
M1
  6
CONTINUOUS
370
25
 62
     7
100
AcDbLine
 10
548.814804
 20
343.561577
 11
505.814804
 21
343.568199
  0
LINE
  5
84
100
AcDbEntity
  8
M1
  6
CONTINUOUS
370
25
 62
     7
100
AcDbLine
 10
513.815812
 20
356.067497
 11
513.815384
 21
351.067497
  0
LINE
  5
85
100
AcDbEntity
  8
M1
  6
CONTINUOUS
370
13
 62
     7
100
AcDbLine
 10
309.60289
 20
353.579185
 11
324.310898
 21
353.579185
  0
LINE
  5
86
100
AcDbEntity
  8
M1
  6
CONTINUOUS
370
25
 62
     7
100
AcDbLine
 10
393.808304
 20
419.979179
 11
393.808304
 21
432.179191
  0
LINE
  5
87
100
AcDbEntity
  8
M1
  6
CONTINUOUS
370
25
 62
     7
100
AcDbLine
 10
395.808304
 20
432.179191
 11
393.808304
 21
432.179191
  0
LINE
  5
88
100
AcDbEntity
  8
M1
  6
CONTINUOUS
370
25
 62
     7
100
AcDbLine
 10
393.808304
 20
419.979179
 11
395.808304
 21
419.979179
  0
LINE
  5
89
100
AcDbEntity
  8
M1
  6
CONTINUOUS
370
25
 62
     7
100
AcDbLine
 10
393.808486
 20
423.928977
 11
395.808486
 21
425.928977
  0
LINE
  5
8A
100
AcDbEntity
  8
M1
  6
CONTINUOUS
370
25
 62
     7
100
AcDbLine
 10
393.808486
 20
425.728995
 11
395.808486
 21
427.728995
  0
LINE
  5
8B
100
AcDbEntity
  8
M1
  6
CONTINUOUS
370
25
 62
     7
100
AcDbLine
 10
393.808304
 20
431.852195
 11
389.844284
 21
431.852195
  0
LINE
  5
8C
100
AcDbEntity
  8
M1
  6
CONTINUOUS
370
25
 62
     7
100
AcDbLine
 10
393.808304
 20
429.079185
 11
389.844284
 21
429.079185
  0
LINE
  5
8D
100
AcDbEntity
  8
M1
  6
CONTINUOUS
370
25
 62
     7
100
AcDbLine
 10
389.308304
 20
430.466179
 11
389.308304
 21
421.692191
  0
LINE
  5
8E
100
AcDbEntity
  8
M1
  6
CONTINUOUS
370
25
 62
     7
100
AcDbLine
 10
389.844284
 20
423.079185
 11
393.808304
 21
423.079185
  0
LINE
  5
8F
100
AcDbEntity
  8
M1
  6
CONTINUOUS
370
25
 62
     7
100
AcDbLine
 10
389.844284
 20
420.305199
 11
393.808304
 21
420.305199
  0
LINE
  5
90
100
AcDbEntity
  8
M1
  6
CONTINUOUS
370
13
 62
     7
100
AcDbLine
 10
172.471116
 20
397.308983
 11
172.471116
 21
386.780173
  0
LINE
  5
91
100
AcDbEntity
  8
M1
  6
CONTINUOUS
370
25
 62
     7
100
AcDbLine
 10
230.257798
 20
392.715781
 11
235.258224
 21
395.602775
  0
LINE
  5
92
100
AcDbEntity
  8
M1
  6
CONTINUOUS
370
25
 62
     7
100
AcDbLine
 10
235.258224
 20
395.602683
 11
240.258408
 21
392.716087
  0
LINE
  5
93
100
AcDbEntity
  8
M1
  6
CONTINUOUS
370
25
 62
     7
100
AcDbLine
 10
240.258224
 20
392.716393
 11
240.25798
 21
386.942679
  0
LINE
  5
94
100
AcDbEntity
  8
M1
  6
CONTINUOUS
370
25
 62
     7
100
AcDbLine
 10
240.258102
 20
386.942679
 11
235.257614
 21
384.055687
  0
LINE
  5
95
100
AcDbEntity
  8
M1
  6
CONTINUOUS
370
25
 62
     7
100
AcDbLine
 10
235.257186
 20
384.055289
 11
230.25792
 21
386.942375
  0
LINE
  5
96
100
AcDbEntity
  8
M1
  6
CONTINUOUS
370
25
 62
     7
100
AcDbLine
 10
230.258224
 20
386.942375
 11
230.257614
 21
392.715599
  0
LINE
  5
97
100
AcDbEntity
  8
M1
  6
CONTINUOUS
370
25
 62
     7
100
AcDbLine
 10
167.471116
 20
423.192191
 11
167.471116
 21
428.966179
  0
LINE
  5
98
100
AcDbEntity
  8
M1
  6
CONTINUOUS
370
25
 62
     7
100
AcDbLine
 10
167.471176
 20
428.965781
 11
172.471176
 21
431.852775
  0
LINE
  5
99
100
AcDbEntity
  8
M1
  6
CONTINUOUS
370
25
 62
     7
100
AcDbLine
 10
172.470872
 20
431.853295
 11
177.470994
 21
428.966179
  0
LINE
  5
9A
100
AcDbEntity
  8
M1
  6
CONTINUOUS
370
25
 62
     7
100
AcDbLine
 10
177.471116
 20
428.966179
 11
177.471116
 21
423.192191
  0
LINE
  5
9B
100
AcDbEntity
  8
M1
  6
CONTINUOUS
370
25
 62
     7
100
AcDbLine
 10
177.471298
 20
423.191795
 11
172.471298
 21
420.305779
  0
LINE
  5
9C
100
AcDbEntity
  8
M1
  6
CONTINUOUS
370
25
 62
     7
100
AcDbLine
 10
172.471116
 20
420.306175
 11
167.471116
 21
423.192191
  0
LINE
  5
9D
100
AcDbEntity
  8
M1
  6
CONTINUOUS
370
25
 62
     7
100
AcDbLine
 10
109.684372
 20
384.055503
 11
104.684128
 21
386.942497
  0
LINE
  5
9E
100
AcDbEntity
  8
M1
  6
CONTINUOUS
370
25
 62
     7
100
AcDbLine
 10
104.684128
 20
386.942679
 11
104.683884
 21
392.716301
  0
LINE
  5
9F
100
AcDbEntity
  8
M1
  6
CONTINUOUS
370
25
 62
     7
100
AcDbLine
 10
104.683578
 20
392.716301
 11
109.683884
 21
395.602897
  0
LINE
  5
A0
100
AcDbEntity
  8
M1
  6
CONTINUOUS
370
25
 62
     7
100
AcDbLine
 10
109.684128
 20
395.602775
 11
114.684372
 21
392.715781
  0
LINE
  5
A1
100
AcDbEntity
  8
M1
  6
CONTINUOUS
370
25
 62
     7
100
AcDbLine
 10
114.684678
 20
392.715781
 11
114.684128
 21
386.942679
  0
LINE
  5
A2
100
AcDbEntity
  8
M1
  6
CONTINUOUS
370
25
 62
     7
100
AcDbLine
 10
114.684128
 20
386.942589
 11
109.684616
 21
384.055503
  0
LINE
  5
A3
100
AcDbEntity
  8
M1
  6
CONTINUOUS
370
25
 62
     7
100
AcDbLine
 10
114.68431
 20
314.443091
 11
109.683822
 21
311.555991
  0
LINE
  5
A4
100
AcDbEntity
  8
M1
  6
CONTINUOUS
370
25
 62
     7
100
AcDbLine
 10
109.683822
 20
311.555687
 11
104.6837
 21
314.442191
  0
LINE
  5
A5
100
AcDbEntity
  8
M1
  6
CONTINUOUS
370
25
 62
     7
100
AcDbLine
 10
104.683822
 20
314.442085
 11
104.684006
 21
320.215781
  0
LINE
  5
A6
100
AcDbEntity
  8
M1
  6
CONTINUOUS
370
25
 62
     7
100
AcDbLine
 10
104.683822
 20
320.216285
 11
109.68431
 21
323.103295
  0
LINE
  5
A7
100
AcDbEntity
  8
M1
  6
CONTINUOUS
370
25
 62
     7
100
AcDbLine
 10
109.684616
 20
323.102989
 11
114.683884
 21
320.215889
  0
LINE
  5
A8
100
AcDbEntity
  8
M1
  6
CONTINUOUS
370
25
 62
     7
100
AcDbLine
 10
114.683822
 20
320.215889
 11
114.684372
 21
314.442695
  0
LINE
  5
A9
100
AcDbEntity
  8
M1
  6
CONTINUOUS
370
25
 62
     7
100
AcDbLine
 10
177.471116
 20
283.966285
 11
177.471116
 21
278.192191
  0
LINE
  5
AA
100
AcDbEntity
  8
M1
  6
CONTINUOUS
370
25
 62
     7
100
AcDbLine
 10
177.470626
 20
278.192481
 11
172.470626
 21
275.305489
  0
LINE
  5
AB
100
AcDbEntity
  8
M1
  6
CONTINUOUS
370
25
 62
     7
100
AcDbLine
 10
172.470994
 20
275.305091
 11
167.470994
 21
278.192191
  0
LINE
  5
AC
100
AcDbEntity
  8
M1
  6
CONTINUOUS
370
25
 62
     7
100
AcDbLine
 10
167.471176
 20
278.192191
 11
167.471176
 21
283.966285
  0
LINE
  5
AD
100
AcDbEntity
  8
M1
  6
CONTINUOUS
370
25
 62
     7
100
AcDbLine
 10
167.470504
 20
283.966895
 11
172.470626
 21
286.852883
  0
LINE
  5
AE
100
AcDbEntity
  8
M1
  6
CONTINUOUS
370
25
 62
     7
100
AcDbLine
 10
172.470872
 20
286.852287
 11
177.470872
 21
283.966193
  0
LINE
  5
AF
100
AcDbEntity
  8
M1
  6
CONTINUOUS
370
25
 62
     7
100
AcDbLine
 10
235.257676
 20
323.102791
 11
240.258224
 21
320.215781
  0
LINE
  5
B0
100
AcDbEntity
  8
M1
  6
CONTINUOUS
370
25
 62
     7
100
AcDbLine
 10
240.25798
 20
320.215691
 11
240.258224
 21
314.442085
  0
LINE
  5
B1
100
AcDbEntity
  8
M1
  6
CONTINUOUS
370
25
 62
     7
100
AcDbLine
 10
240.258224
 20
314.442589
 11
235.25798
 21
311.555885
  0
LINE
  5
B2
100
AcDbEntity
  8
M1
  6
CONTINUOUS
370
25
 62
     7
100
AcDbLine
 10
235.258224
 20
311.555595
 11
230.257676
 21
314.442695
  0
LINE
  5
B3
100
AcDbEntity
  8
M1
  6
CONTINUOUS
370
25
 62
     7
100
AcDbLine
 10
230.256028
 20
314.442695
 11
230.256576
 21
320.215889
  0
LINE
  5
B4
100
AcDbEntity
  8
M1
  6
CONTINUOUS
370
25
 62
     7
100
AcDbLine
 10
230.25798
 20
320.215781
 11
235.25737
 21
323.102989
  0
LINE
  5
B5
100
AcDbEntity
  8
M1
  6
CONTINUOUS
370
25
 62
     7
100
AcDbLine
 10
184.471116
 20
356.078301
 11
179.471116
 21
356.078697
  0
LINE
  5
B6
100
AcDbEntity
  8
M1
  6
CONTINUOUS
370
25
 62
     7
100
AcDbLine
 10
184.471116
 20
351.078301
 11
179.471116
 21
351.078697
  0
LINE
  5
B7
100
AcDbEntity
  8
M1
  6
CONTINUOUS
370
25
 62
     7
100
AcDbLine
 10
179.471116
 20
356.078697
 11
179.471116
 21
351.078697
  0
LINE
  5
B8
100
AcDbEntity
  8
M1
  6
CONTINUOUS
370
25
 62
     7
100
AcDbLine
 10
184.471116
 20
356.078301
 11
184.471116
 21
351.078301
  0
LINE
  5
B9
100
AcDbEntity
  8
M1
  6
CONTINUOUS
370
25
 62
     7
100
AcDbLine
 10
393.808304
 20
383.729301
 11
393.808304
 21
395.929191
  0
LINE
  5
BA
100
AcDbEntity
  8
M1
  6
CONTINUOUS
370
25
 62
     7
100
AcDbLine
 10
395.808304
 20
395.929191
 11
393.808304
 21
395.929191
  0
LINE
  5
BB
100
AcDbEntity
  8
M1
  6
CONTINUOUS
370
25
 62
     7
100
AcDbLine
 10
393.808304
 20
383.729301
 11
395.808304
 21
383.729301
  0
LINE
  5
BC
100
AcDbEntity
  8
M1
  6
CONTINUOUS
370
25
 62
     7
100
AcDbLine
 10
393.808486
 20
387.678977
 11
395.808486
 21
389.678977
  0
LINE
  5
BD
100
AcDbEntity
  8
M1
  6
CONTINUOUS
370
25
 62
     7
100
AcDbLine
 10
393.808486
 20
389.479087
 11
395.808486
 21
391.479087
  0
LINE
  5
BE
100
AcDbEntity
  8
M1
  6
CONTINUOUS
370
25
 62
     7
100
AcDbLine
 10
393.808304
 20
395.602195
 11
389.844284
 21
395.602195
  0
LINE
  5
BF
100
AcDbEntity
  8
M1
  6
CONTINUOUS
370
25
 62
     7
100
AcDbLine
 10
393.808304
 20
392.829185
 11
389.844284
 21
392.829185
  0
LINE
  5
C0
100
AcDbEntity
  8
M1
  6
CONTINUOUS
370
25
 62
     7
100
AcDbLine
 10
389.308304
 20
394.216301
 11
389.308304
 21
385.442191
  0
LINE
  5
C1
100
AcDbEntity
  8
M1
  6
CONTINUOUS
370
25
 62
     7
100
AcDbLine
 10
389.844284
 20
386.829185
 11
393.808304
 21
386.829185
  0
LINE
  5
C2
100
AcDbEntity
  8
M1
  6
CONTINUOUS
370
25
 62
     7
100
AcDbLine
 10
389.844284
 20
384.055199
 11
393.808304
 21
384.055199
  0
LINE
  5
C3
100
AcDbEntity
  8
M1
  6
CONTINUOUS
370
25
 62
     7
100
AcDbLine
 10
393.808304
 20
287.179191
 11
393.808304
 21
274.979195
  0
LINE
  5
C4
100
AcDbEntity
  8
M1
  6
CONTINUOUS
370
25
 62
     7
100
AcDbLine
 10
395.808304
 20
274.979195
 11
393.808304
 21
274.979195
  0
LINE
  5
C5
100
AcDbEntity
  8
M1
  6
CONTINUOUS
370
25
 62
     7
100
AcDbLine
 10
393.808304
 20
287.179191
 11
395.808304
 21
287.179191
  0
LINE
  5
C6
100
AcDbEntity
  8
M1
  6
CONTINUOUS
370
25
 62
     7
100
AcDbLine
 10
393.808304
 20
275.306191
 11
389.844284
 21
275.306191
  0
LINE
  5
C7
100
AcDbEntity
  8
M1
  6
CONTINUOUS
370
25
 62
     7
100
AcDbLine
 10
393.808304
 20
278.079185
 11
389.844284
 21
278.079185
  0
LINE
  5
C8
100
AcDbEntity
  8
M1
  6
CONTINUOUS
370
25
 62
     7
100
AcDbLine
 10
389.308304
 20
276.692191
 11
389.308304
 21
285.466193
  0
LINE
  5
C9
100
AcDbEntity
  8
M1
  6
CONTINUOUS
370
25
 62
     7
100
AcDbLine
 10
389.844284
 20
284.079185
 11
393.808304
 21
284.079185
  0
LINE
  5
CA
100
AcDbEntity
  8
M1
  6
CONTINUOUS
370
25
 62
     7
100
AcDbLine
 10
389.844284
 20
286.853187
 11
393.808304
 21
286.853187
  0
LINE
  5
CB
100
AcDbEntity
  8
M1
  6
CONTINUOUS
370
25
 62
     7
100
AcDbLine
 10
393.808304
 20
323.429085
 11
393.808304
 21
311.229195
  0
LINE
  5
CC
100
AcDbEntity
  8
M1
  6
CONTINUOUS
370
25
 62
     7
100
AcDbLine
 10
395.808304
 20
311.229195
 11
393.808304
 21
311.229195
  0
LINE
  5
CD
100
AcDbEntity
  8
M1
  6
CONTINUOUS
370
25
 62
     7
100
AcDbLine
 10
393.808304
 20
323.429085
 11
395.808304
 21
323.429085
  0
LINE
  5
CE
100
AcDbEntity
  8
M1
  6
CONTINUOUS
370
25
 62
     7
100
AcDbLine
 10
393.808304
 20
311.556191
 11
389.844284
 21
311.556191
  0
LINE
  5
CF
100
AcDbEntity
  8
M1
  6
CONTINUOUS
370
25
 62
     7
100
AcDbLine
 10
393.808304
 20
314.329185
 11
389.844284
 21
314.329185
  0
LINE
  5
D0
100
AcDbEntity
  8
M1
  6
CONTINUOUS
370
25
 62
     7
100
AcDbLine
 10
389.308304
 20
312.942085
 11
389.308304
 21
321.716193
  0
LINE
  5
D1
100
AcDbEntity
  8
M1
  6
CONTINUOUS
370
25
 62
     7
100
AcDbLine
 10
389.844284
 20
320.329185
 11
393.808304
 21
320.329185
  0
LINE
  5
D2
100
AcDbEntity
  8
M1
  6
CONTINUOUS
370
25
 62
     7
100
AcDbLine
 10
389.844284
 20
323.103187
 11
393.808304
 21
323.103187
  0
LINE
  5
D3
100
AcDbEntity
  8
M1
  6
CONTINUOUS
370
25
 62
     7
100
AcDbLine
 10
476.308304
 20
420.305199
 11
476.308304
 21
431.852195
  0
LINE
  5
D4
100
AcDbEntity
  8
M1
  6
CONTINUOUS
370
25
 62
     7
100
AcDbLine
 10
474.308304
 20
432.179191
 11
476.308304
 21
432.179191
  0
LINE
  5
D5
100
AcDbEntity
  8
M1
  6
CONTINUOUS
370
25
 62
     7
100
AcDbLine
 10
476.308304
 20
419.979301
 11
474.308304
 21
419.979301
  0
LINE
  5
D6
100
AcDbEntity
  8
M1
  6
CONTINUOUS
370
25
 62
     7
100
AcDbLine
 10
476.308304
 20
431.852195
 11
480.272294
 21
431.852195
  0
LINE
  5
D7
100
AcDbEntity
  8
M1
  6
CONTINUOUS
370
25
 62
     7
100
AcDbLine
 10
476.308304
 20
429.079185
 11
480.272294
 21
429.079185
  0
LINE
  5
D8
100
AcDbEntity
  8
M1
  6
CONTINUOUS
370
25
 62
     7
100
AcDbLine
 10
480.808304
 20
430.466301
 11
480.808304
 21
421.692191
  0
LINE
  5
D9
100
AcDbEntity
  8
M1
  6
CONTINUOUS
370
25
 62
     7
100
AcDbLine
 10
480.272294
 20
423.079185
 11
476.308304
 21
423.079185
  0
LINE
  5
DA
100
AcDbEntity
  8
M1
  6
CONTINUOUS
370
25
 62
     7
100
AcDbLine
 10
480.272294
 20
420.305199
 11
476.308304
 21
420.305199
  0
LINE
  5
DB
100
AcDbEntity
  8
M1
  6
CONTINUOUS
370
25
 62
     7
100
AcDbLine
 10
474.308212
 20
426.528495
 11
476.308212
 21
428.528495
  0
LINE
  5
DC
100
AcDbEntity
  8
M1
  6
CONTINUOUS
370
25
 62
     7
100
AcDbLine
 10
474.308212
 20
423.700095
 11
476.308212
 21
425.700095
  0
LINE
  5
DD
100
AcDbEntity
  8
M1
  6
CONTINUOUS
370
25
 62
     7
100
AcDbLine
 10
476.308304
 20
383.729301
 11
476.308304
 21
395.929191
  0
LINE
  5
DE
100
AcDbEntity
  8
M1
  6
CONTINUOUS
370
25
 62
     7
100
AcDbLine
 10
474.308304
 20
395.929191
 11
476.308304
 21
395.929191
  0
LINE
  5
DF
100
AcDbEntity
  8
M1
  6
CONTINUOUS
370
25
 62
     7
100
AcDbLine
 10
476.308304
 20
383.729301
 11
474.308304
 21
383.729301
  0
LINE
  5
E0
100
AcDbEntity
  8
M1
  6
CONTINUOUS
370
25
 62
     7
100
AcDbLine
 10
476.308304
 20
395.602195
 11
480.272294
 21
395.602195
  0
LINE
  5
E1
100
AcDbEntity
  8
M1
  6
CONTINUOUS
370
25
 62
     7
100
AcDbLine
 10
476.308304
 20
392.829185
 11
480.272294
 21
392.829185
  0
LINE
  5
E2
100
AcDbEntity
  8
M1
  6
CONTINUOUS
370
25
 62
     7
100
AcDbLine
 10
480.808304
 20
394.216301
 11
480.808304
 21
385.442191
  0
LINE
  5
E3
100
AcDbEntity
  8
M1
  6
CONTINUOUS
370
25
 62
     7
100
AcDbLine
 10
480.272294
 20
386.829185
 11
476.308304
 21
386.829185
  0
LINE
  5
E4
100
AcDbEntity
  8
M1
  6
CONTINUOUS
370
25
 62
     7
100
AcDbLine
 10
480.272294
 20
384.055199
 11
476.308304
 21
384.055199
  0
LINE
  5
E5
100
AcDbEntity
  8
M1
  6
CONTINUOUS
370
25
 62
     7
100
AcDbLine
 10
474.308212
 20
390.278495
 11
476.308304
 21
392.278495
  0
LINE
  5
E6
100
AcDbEntity
  8
M1
  6
CONTINUOUS
370
25
 62
     7
100
AcDbLine
 10
474.308212
 20
387.450095
 11
476.308304
 21
389.450095
  0
LINE
  5
E7
100
AcDbEntity
  8
M1
  6
CONTINUOUS
370
25
 62
     7
100
AcDbLine
 10
476.308304
 20
311.229195
 11
476.308304
 21
323.429191
  0
LINE
  5
E8
100
AcDbEntity
  8
M1
  6
CONTINUOUS
370
25
 62
     7
100
AcDbLine
 10
474.308304
 20
323.429191
 11
476.308304
 21
323.429191
  0
LINE
  5
E9
100
AcDbEntity
  8
M1
  6
CONTINUOUS
370
25
 62
     7
100
AcDbLine
 10
476.308304
 20
311.229195
 11
474.308304
 21
311.229195
  0
LINE
  5
EA
100
AcDbEntity
  8
M1
  6
CONTINUOUS
370
25
 62
     7
100
AcDbLine
 10
476.308304
 20
323.102195
 11
480.272294
 21
323.102195
  0
LINE
  5
EB
100
AcDbEntity
  8
M1
  6
CONTINUOUS
370
25
 62
     7
100
AcDbLine
 10
476.308304
 20
320.329185
 11
480.272294
 21
320.329185
  0
LINE
  5
EC
100
AcDbEntity
  8
M1
  6
CONTINUOUS
370
25
 62
     7
100
AcDbLine
 10
480.808304
 20
321.716193
 11
480.808304
 21
312.942191
  0
LINE
  5
ED
100
AcDbEntity
  8
M1
  6
CONTINUOUS
370
25
 62
     7
100
AcDbLine
 10
480.272294
 20
314.329185
 11
476.308304
 21
314.329185
  0
LINE
  5
EE
100
AcDbEntity
  8
M1
  6
CONTINUOUS
370
25
 62
     7
100
AcDbLine
 10
480.272294
 20
311.555183
 11
476.308304
 21
311.555183
  0
LINE
  5
EF
100
AcDbEntity
  8
M1
  6
CONTINUOUS
370
25
 62
     7
100
AcDbLine
 10
474.308212
 20
317.778495
 11
476.308212
 21
319.778495
  0
LINE
  5
F0
100
AcDbEntity
  8
M1
  6
CONTINUOUS
370
25
 62
     7
100
AcDbLine
 10
474.308212
 20
314.950095
 11
476.308212
 21
316.950095
  0
LINE
  5
F1
100
AcDbEntity
  8
M1
  6
CONTINUOUS
370
25
 62
     7
100
AcDbLine
 10
476.308304
 20
274.979195
 11
476.308304
 21
287.179191
  0
LINE
  5
F2
100
AcDbEntity
  8
M1
  6
CONTINUOUS
370
25
 62
     7
100
AcDbLine
 10
474.308304
 20
287.179191
 11
476.308304
 21
287.179191
  0
LINE
  5
F3
100
AcDbEntity
  8
M1
  6
CONTINUOUS
370
25
 62
     7
100
AcDbLine
 10
476.308304
 20
274.979195
 11
474.308304
 21
274.979195
  0
LINE
  5
F4
100
AcDbEntity
  8
M1
  6
CONTINUOUS
370
25
 62
     7
100
AcDbLine
 10
476.308304
 20
286.852195
 11
480.272294
 21
286.852195
  0
LINE
  5
F5
100
AcDbEntity
  8
M1
  6
CONTINUOUS
370
25
 62
     7
100
AcDbLine
 10
476.308304
 20
284.079185
 11
480.272294
 21
284.079185
  0
LINE
  5
F6
100
AcDbEntity
  8
M1
  6
CONTINUOUS
370
25
 62
     7
100
AcDbLine
 10
480.808304
 20
285.466193
 11
480.808304
 21
276.692191
  0
LINE
  5
F7
100
AcDbEntity
  8
M1
  6
CONTINUOUS
370
25
 62
     7
100
AcDbLine
 10
480.272294
 20
278.079185
 11
476.308304
 21
278.079185
  0
LINE
  5
F8
100
AcDbEntity
  8
M1
  6
CONTINUOUS
370
25
 62
     7
100
AcDbLine
 10
480.272294
 20
275.305183
 11
476.308304
 21
275.305183
  0
LINE
  5
F9
100
AcDbEntity
  8
M1
  6
CONTINUOUS
370
25
 62
     7
100
AcDbLine
 10
474.308212
 20
281.528495
 11
476.308212
 21
283.528495
  0
LINE
  5
FA
100
AcDbEntity
  8
M1
  6
CONTINUOUS
370
25
 62
     7
100
AcDbLine
 10
474.308212
 20
278.699989
 11
476.308212
 21
280.699989
  0
LINE
  5
FB
100
AcDbEntity
  8
M1
  6
CONTINUOUS
370
25
 62
     7
100
AcDbLine
 10
393.808304
 20
317.691887
 11
395.808304
 21
319.691887
  0
LINE
  5
FC
100
AcDbEntity
  8
M1
  6
CONTINUOUS
370
25
 62
     7
100
AcDbLine
 10
393.808212
 20
282.052695
 11
395.808212
 21
284.052695
  0
LINE
  5
FD
100
AcDbEntity
  8
M1
  6
CONTINUOUS
370
25
 62
     7
100
AcDbLine
 10
393.808304
 20
314.863487
 11
395.808304
 21
316.863487
  0
LINE
  5
FE
100
AcDbEntity
  8
M1
  6
CONTINUOUS
370
25
 62
     7
100
AcDbLine
 10
393.808212
 20
279.224297
 11
395.808212
 21
281.224297
  0
LINE
  5
FF
100
AcDbEntity
  8
M1
  6
CONTINUOUS
370
25
 62
     7
100
AcDbLine
 10
245.426072
 20
388.772179
 11
202.966172
 21
364.257987
  0
LINE
  5
100
100
AcDbEntity
  8
M1
  6
CONTINUOUS
370
25
 62
     7
100
AcDbLine
 10
202.966598
 20
342.900779
 11
245.426376
 21
318.386695
  0
LINE
  5
101
100
AcDbEntity
  8
M1
  6
CONTINUOUS
370
25
 62
     7
100
AcDbLine
 10
204.189194
 20
356.017783
 11
212.04918
 21
357.122399
  0
LINE
  5
102
100
AcDbEntity
  8
M1
  6
CONTINUOUS
370
25
 62
     7
100
AcDbLine
 10
203.632614
 20
359.978783
 11
211.492478
 21
361.083397
  0
LINE
  5
103
100
AcDbEntity
  8
M1
  6
CONTINUOUS
370
25
 62
     7
100
AcDbLine
 10
203.632798
 20
347.180077
 11
211.492782
 21
346.075401
  0
LINE
  5
104
100
AcDbEntity
  8
M1
  6
CONTINUOUS
370
25
 62
     7
100
AcDbLine
 10
204.189376
 20
351.141197
 11
212.049424
 21
350.036491
  0
LINE
  5
105
100
AcDbEntity
  8
M1
  6
CONTINUOUS
370
25
 62
     7
100
AcDbLine
 10
226.573226
 20
359.163597
 11
234.514022
 21
360.279595
  0
LINE
  5
106
100
AcDbEntity
  8
M1
  6
CONTINUOUS
370
25
 62
     7
100
AcDbLine
 10
226.57341
 20
347.995293
 11
234.514328
 21
346.879295
  0
LINE
  5
107
100
AcDbEntity
  8
M1
  6
CONTINUOUS
370
25
 62
     7
100
AcDbLine
 10
178.471116
 20
434.356681
 11
178.471116
 21
385.328179
  0
LINE
  5
108
100
AcDbEntity
  8
M1
  6
CONTINUOUS
370
25
 62
     7
100
AcDbLine
 10
193.593918
 20
377.366477
 11
198.480514
 21
383.621085
  0
LINE
  5
109
100
AcDbEntity
  8
M1
  6
CONTINUOUS
370
25
 62
     7
100
AcDbLine
 10
196.966476
 20
374.650077
 11
239.426316
 21
399.164299
  0
LINE
  5
10A
100
AcDbEntity
  8
M1
  6
CONTINUOUS
370
25
 62
     7
100
AcDbLine
 10
186.218368
 20
382.267295
 11
189.191818
 21
389.626579
  0
LINE
  5
10B
100
AcDbEntity
  8
M1
  6
CONTINUOUS
370
25
 62
     7
100
AcDbLine
 10
182.50969
 20
383.765801
 11
185.483016
 21
391.124993
  0
LINE
  5
10C
100
AcDbEntity
  8
M1
  6
CONTINUOUS
370
25
 62
     7
100
AcDbLine
 10
190.441696
 20
379.829003
 11
195.328414
 21
386.083701
  0
LINE
  5
10D
100
AcDbEntity
  8
M1
  6
CONTINUOUS
370
25
 62
     7
100
AcDbLine
 10
105.515792
 20
399.163993
 11
147.97557
 21
374.649803
  0
LINE
  5
10E
100
AcDbEntity
  8
M1
  6
CONTINUOUS
370
25
 62
     7
100
AcDbLine
 10
162.431626
 20
383.765495
 11
159.458176
 21
391.124779
  0
LINE
  5
10F
100
AcDbEntity
  8
M1
  6
CONTINUOUS
370
25
 62
     7
100
AcDbLine
 10
166.471116
 20
385.328301
 11
166.471116
 21
434.356681
  0
LINE
  5
110
100
AcDbEntity
  8
M1
  6
CONTINUOUS
370
25
 62
     7
100
AcDbLine
 10
154.500106
 20
379.828879
 11
149.61351
 21
386.083489
  0
LINE
  5
111
100
AcDbEntity
  8
M1
  6
CONTINUOUS
370
25
 62
     7
100
AcDbLine
 10
151.348068
 20
377.366295
 11
146.46141
 21
383.620903
  0
LINE
  5
112
100
AcDbEntity
  8
M1
  6
CONTINUOUS
370
25
 62
     7
100
AcDbLine
 10
158.723008
 20
382.266991
 11
155.74968
 21
389.626273
  0
LINE
  5
113
100
AcDbEntity
  8
M1
  6
CONTINUOUS
370
25
 62
     7
100
AcDbLine
 10
99.51561
 20
318.387183
 11
141.97551
 21
342.901389
  0
LINE
  5
114
100
AcDbEntity
  8
M1
  6
CONTINUOUS
370
25
 62
     7
100
AcDbLine
 10
141.309372
 20
359.978477
 11
133.449386
 21
361.083091
  0
LINE
  5
115
100
AcDbEntity
  8
M1
  6
CONTINUOUS
370
25
 62
     7
100
AcDbLine
 10
141.97557
 20
364.257591
 11
99.51567
 21
388.771781
  0
LINE
  5
116
100
AcDbEntity
  8
M1
  6
CONTINUOUS
370
25
 62
     7
100
AcDbLine
 10
140.75267
 20
351.141593
 11
132.892684
 21
350.036979
  0
LINE
  5
117
100
AcDbEntity
  8
M1
  6
CONTINUOUS
370
25
 62
     7
100
AcDbLine
 10
141.30931
 20
347.180503
 11
133.449326
 21
346.075889
  0
LINE
  5
118
100
AcDbEntity
  8
M1
  6
CONTINUOUS
370
25
 62
     7
100
AcDbLine
 10
140.752914
 20
356.017387
 11
132.892808
 21
357.122093
  0
LINE
  5
119
100
AcDbEntity
  8
M1
  6
CONTINUOUS
370
25
 62
     7
100
AcDbLine
 10
166.471116
 20
272.801795
 11
166.471116
 21
321.830283
  0
LINE
  5
11A
100
AcDbEntity
  8
M1
  6
CONTINUOUS
370
25
 62
     7
100
AcDbLine
 10
151.347274
 20
329.792595
 11
146.460618
 21
323.537987
  0
LINE
  5
11B
100
AcDbEntity
  8
M1
  6
CONTINUOUS
370
25
 62
     7
100
AcDbLine
 10
147.975388
 20
332.508995
 11
105.51561
 21
307.994789
  0
LINE
  5
11C
100
AcDbEntity
  8
M1
  6
CONTINUOUS
370
25
 62
     7
100
AcDbLine
 10
158.722092
 20
324.891791
 11
155.748826
 21
317.532585
  0
LINE
  5
11D
100
AcDbEntity
  8
M1
  6
CONTINUOUS
370
25
 62
     7
100
AcDbLine
 10
162.43071
 20
323.393395
 11
159.457382
 21
316.034095
  0
LINE
  5
11E
100
AcDbEntity
  8
M1
  6
CONTINUOUS
370
25
 62
     7
100
AcDbLine
 10
154.499374
 20
327.330085
 11
149.612716
 21
321.075385
  0
LINE
  5
11F
100
AcDbEntity
  8
M1
  6
CONTINUOUS
370
25
 62
     7
100
AcDbLine
 10
239.426376
 20
307.994285
 11
196.966476
 21
332.508475
  0
LINE
  5
120
100
AcDbEntity
  8
M1
  6
CONTINUOUS
370
25
 62
     7
100
AcDbLine
 10
182.509202
 20
323.392493
 11
185.482528
 21
316.033195
  0
LINE
  5
121
100
AcDbEntity
  8
M1
  6
CONTINUOUS
370
25
 62
     7
100
AcDbLine
 10
178.471116
 20
321.830085
 11
178.471116
 21
272.801795
  0
LINE
  5
122
100
AcDbEntity
  8
M1
  6
CONTINUOUS
370
25
 62
     7
100
AcDbLine
 10
190.44078
 20
327.328895
 11
195.327378
 21
321.074195
  0
LINE
  5
123
100
AcDbEntity
  8
M1
  6
CONTINUOUS
370
25
 62
     7
100
AcDbLine
 10
193.59282
 20
329.791389
 11
198.479416
 21
323.536797
  0
LINE
  5
124
100
AcDbEntity
  8
M1
  6
CONTINUOUS
370
25
 62
     7
100
AcDbLine
 10
186.21782
 20
324.891091
 11
189.191086
 21
317.531685
  0
LINE
  5
125
100
AcDbEntity
  8
M1
  6
CONTINUOUS
370
13
 62
     7
100
AcDbLine
 10
134.806992
 20
331.834191
 11
143.113022
 21
336.629691
  0
LINE
  5
126
100
AcDbEntity
  8
M1
  6
CONTINUOUS
370
13
 62
     7
100
AcDbLine
 10
134.425522
 20
375.544791
 11
143.12358
 21
370.522881
  0
LINE
  5
127
100
AcDbEntity
  8
M1
  6
CONTINUOUS
370
13
 62
     7
100
AcDbLine
 10
202.193284
 20
336.418999
 11
210.195786
 21
331.798683
  0
LINE
  5
128
100
AcDbEntity
  8
M1
  6
CONTINUOUS
370
13
 62
     7
100
AcDbLine
 10
201.343368
 20
370.249077
 11
210.207322
 21
375.366599
  0
LINE
  5
129
100
AcDbEntity
  8
M1
  6
CONTINUOUS
370
25
 62
     7
100
AcDbLine
 10
194.68602
 20
403.225395
 11
197.689926
 21
410.660301
  0
LINE
  5
12A
100
AcDbEntity
  8
M1
  6
CONTINUOUS
370
25
 62
     7
100
AcDbLine
 10
204.358078
 20
397.641197
 11
209.295028
 21
403.960075
  0
LINE
  5
12B
100
AcDbEntity
  8
M1
  6
CONTINUOUS
370
25
 62
     7
100
AcDbLine
 10
140.583726
 20
397.641075
 11
135.646774
 21
403.960075
  0
LINE
  5
12C
100
AcDbEntity
  8
M1
  6
CONTINUOUS
370
25
 62
     7
100
AcDbLine
 10
150.255416
 20
403.224999
 11
147.25151
 21
410.659995
  0
LINE
  5
12D
100
AcDbEntity
  8
M1
  6
CONTINUOUS
370
25
 62
     7
100
AcDbLine
 10
118.368576
 20
347.995781
 11
110.42778
 21
346.879783
  0
LINE
  5
12E
100
AcDbEntity
  8
M1
  6
CONTINUOUS
370
25
 62
     7
100
AcDbLine
 10
118.36882
 20
359.163291
 11
110.427902
 21
360.279289
  0
LINE
  5
12F
100
AcDbEntity
  8
M1
  6
CONTINUOUS
370
25
 62
     7
100
AcDbLine
 10
150.254502
 20
303.933785
 11
147.250596
 21
296.498787
  0
LINE
  5
130
100
AcDbEntity
  8
M1
  6
CONTINUOUS
370
25
 62
     7
100
AcDbLine
 10
140.582992
 20
309.517783
 11
135.64598
 21
303.198783
  0
LINE
  5
131
100
AcDbEntity
  8
M1
  6
CONTINUOUS
370
25
 62
     7
100
AcDbLine
 10
204.357224
 20
309.516685
 11
209.294114
 21
303.197685
  0
LINE
  5
132
100
AcDbEntity
  8
M1
  6
CONTINUOUS
370
25
 62
     7
100
AcDbLine
 10
194.68541
 20
303.932883
 11
197.689316
 21
296.497887
  0
LINE
  5
133
100
AcDbEntity
  8
M1
  6
CONTINUOUS
370
25
 62
     7
100
AcDbLine
 10
128.714402
 20
433.368491
 11
115.421372
 21
456.392601
  0
LINE
  5
134
100
AcDbEntity
  8
M1
  6
CONTINUOUS
370
25
 62
     7
100
AcDbLine
 10
125.250778
 20
431.368491
 11
111.597824
 21
455.015495
  0
LINE
  5
135
100
AcDbEntity
  8
M1
  6
CONTINUOUS
370
25
 62
     7
100
AcDbLine
 10
109.262986
 20
473.059287
 11
110.995102
 21
472.059197
  0
LINE
  5
136
100
AcDbEntity
  8
M1
  6
CONTINUOUS
370
25
 62
     7
100
AcDbLine
 10
100.603074
 20
468.059197
 11
100.603074
 21
466.059197
  0
LINE
  5
137
100
AcDbEntity
  8
M1
  6
CONTINUOUS
370
25
 62
     7
100
AcDbLine
 10
110.129624
 20
472.558799
 11
112.629624
 21
476.888785
  0
LINE
  5
138
100
AcDbEntity
  8
M1
  6
CONTINUOUS
370
25
 62
     7
100
AcDbLine
 10
100.603074
 20
467.059197
 11
95.603074
 21
467.059197
  0
LINE
  5
139
100
AcDbEntity
  8
M1
  6
CONTINUOUS
370
25
 62
     7
100
AcDbLine
 10
109.263412
 20
463.059379
 11
112.08928
 21
458.163383
  0
LINE
  5
13A
100
AcDbEntity
  8
M1
  6
CONTINUOUS
370
25
 62
     7
100
AcDbLine
 10
110.127976
 20
457.560203
 11
107.530868
 21
462.059197
  0
LINE
  5
13B
100
AcDbEntity
  8
M1
  6
CONTINUOUS
370
25
 62
     7
100
AcDbLine
 10
114.050216
 20
458.765891
 11
110.994126
 21
464.058891
  0
LINE
  5
13C
100
AcDbEntity
  8
M1
  6
CONTINUOUS
370
25
 62
     7
100
AcDbLine
 10
110.128402
 20
457.559197
 11
114.051376
 21
458.765189
  0
LINE
  5
13D
100
AcDbEntity
  8
M1
  6
CONTINUOUS
370
25
 62
     7
100
AcDbLine
 10
111.596908
 20
455.015403
 11
115.420822
 21
456.392387
  0
LINE
  5
13E
100
AcDbEntity
  8
M1
  6
CONTINUOUS
370
25
 62
     7
100
AcDbLine
 10
113.509384
 20
455.703301
 11
126.97142
 21
432.387383
  0
LINE
  5
13F
100
AcDbEntity
  8
M1
  6
CONTINUOUS
370
13
 62
     7
100
AcDbLine
 10
696.474098
 20
353.522483
 11
689.454696
 21
353.523583
  0
LINE
  5
140
100
AcDbEntity
  8
M1
  6
CONTINUOUS
370
13
 62
     7
100
AcDbLine
 10
692.6669
 20
396.919089
 11
692.6652
 21
386.000389
  0
LINE
  5
141
100
AcDbEntity
  8
M1
  6
CONTINUOUS
370
25
 62
     7
100
AcDbLine
 10
634.879394
 20
392.668297
 11
629.879394
 21
395.556083
  0
LINE
  5
142
100
AcDbEntity
  8
M1
  6
CONTINUOUS
370
25
 62
     7
100
AcDbLine
 10
629.879502
 20
395.556175
 11
624.8788
 21
392.670281
  0
LINE
  5
143
100
AcDbEntity
  8
M1
  6
CONTINUOUS
370
25
 62
     7
100
AcDbLine
 10
624.878998
 20
392.670677
 11
624.878402
 21
386.896995
  0
LINE
  5
144
100
AcDbEntity
  8
M1
  6
CONTINUOUS
370
25
 62
     7
100
AcDbLine
 10
624.878296
 20
386.896903
 11
629.878296
 21
384.008995
  0
LINE
  5
145
100
AcDbEntity
  8
M1
  6
CONTINUOUS
370
25
 62
     7
100
AcDbLine
 10
629.878692
 20
384.008689
 11
634.878692
 21
386.895103
  0
LINE
  5
146
100
AcDbEntity
  8
M1
  6
CONTINUOUS
370
25
 62
     7
100
AcDbLine
 10
634.87799
 20
386.895103
 11
634.879502
 21
392.668297
  0
LINE
  5
147
100
AcDbEntity
  8
M1
  6
CONTINUOUS
370
25
 62
     7
100
AcDbLine
 10
697.670998
 20
423.135277
 11
697.671798
 21
428.909293
  0
LINE
  5
148
100
AcDbEntity
  8
M1
  6
CONTINUOUS
370
25
 62
     7
100
AcDbLine
 10
697.6717
 20
428.909203
 11
692.672196
 21
431.796989
  0
LINE
  5
149
100
AcDbEntity
  8
M1
  6
CONTINUOUS
370
25
 62
     7
100
AcDbLine
 10
692.672196
 20
431.797385
 11
687.6716
 21
428.911003
  0
LINE
  5
14A
100
AcDbEntity
  8
M1
  6
CONTINUOUS
370
25
 62
     7
100
AcDbLine
 10
687.671798
 20
428.910789
 11
687.670898
 21
423.136803
  0
LINE
  5
14B
100
AcDbEntity
  8
M1
  6
CONTINUOUS
370
25
 62
     7
100
AcDbLine
 10
687.670792
 20
423.136497
 11
692.670296
 21
420.249687
  0
LINE
  5
14C
100
AcDbEntity
  8
M1
  6
CONTINUOUS
370
25
 62
     7
100
AcDbLine
 10
692.670394
 20
420.249901
 11
697.670998
 21
423.135185
  0
LINE
  5
14D
100
AcDbEntity
  8
M1
  6
CONTINUOUS
370
25
 62
     7
100
AcDbLine
 10
755.451568
 20
383.989585
 11
760.45242
 21
386.875785
  0
LINE
  5
14E
100
AcDbEntity
  8
M1
  6
CONTINUOUS
370
25
 62
     7
100
AcDbLine
 10
760.452248
 20
386.875999
 11
760.453338
 21
392.649589
  0
LINE
  5
14F
100
AcDbEntity
  8
M1
  6
CONTINUOUS
370
25
 62
     7
100
AcDbLine
 10
760.453518
 20
392.649589
 11
755.453766
 21
395.536979
  0
LINE
  5
150
100
AcDbEntity
  8
M1
  6
CONTINUOUS
370
25
 62
     7
100
AcDbLine
 10
755.453826
 20
395.536675
 11
750.452964
 21
392.650475
  0
LINE
  5
151
100
AcDbEntity
  8
M1
  6
CONTINUOUS
370
25
 62
     7
100
AcDbLine
 10
750.45256
 20
392.650687
 11
750.452316
 21
386.877587
  0
LINE
  5
152
100
AcDbEntity
  8
M1
  6
CONTINUOUS
370
25
 62
     7
100
AcDbLine
 10
750.452416
 20
386.877403
 11
755.451324
 21
383.989493
  0
LINE
  5
153
100
AcDbEntity
  8
M1
  6
CONTINUOUS
370
25
 62
     7
100
AcDbLine
 10
750.440788
 20
314.377693
 11
755.440758
 21
311.489891
  0
LINE
  5
154
100
AcDbEntity
  8
M1
  6
CONTINUOUS
370
25
 62
     7
100
AcDbLine
 10
755.440842
 20
311.489783
 11
760.441468
 21
314.375587
  0
LINE
  5
155
100
AcDbEntity
  8
M1
  6
CONTINUOUS
370
25
 62
     7
100
AcDbLine
 10
760.441368
 20
314.375495
 11
760.44201
 21
320.149193
  0
LINE
  5
156
100
AcDbEntity
  8
M1
  6
CONTINUOUS
370
25
 62
     7
100
AcDbLine
 10
760.442096
 20
320.149193
 11
755.44207
 21
323.036995
  0
LINE
  5
157
100
AcDbEntity
  8
M1
  6
CONTINUOUS
370
25
 62
     7
100
AcDbLine
 10
755.44194
 20
323.037087
 11
750.442146
 21
320.150795
  0
LINE
  5
158
100
AcDbEntity
  8
M1
  6
CONTINUOUS
370
25
 62
     7
100
AcDbLine
 10
750.442176
 20
320.150795
 11
750.440682
 21
314.377587
  0
LINE
  5
159
100
AcDbEntity
  8
M1
  6
CONTINUOUS
370
25
 62
     7
100
AcDbLine
 10
687.649292
 20
283.910895
 11
687.648498
 21
278.136787
  0
LINE
  5
15A
100
AcDbEntity
  8
M1
  6
CONTINUOUS
370
25
 62
     7
100
AcDbLine
 10
687.648696
 20
278.136985
 11
692.648202
 21
275.249091
  0
LINE
  5
15B
100
AcDbEntity
  8
M1
  6
CONTINUOUS
370
25
 62
     7
100
AcDbLine
 10
692.647896
 20
275.248985
 11
697.6484
 21
278.135291
  0
LINE
  5
15C
100
AcDbEntity
  8
M1
  6
CONTINUOUS
370
25
 62
     7
100
AcDbLine
 10
697.6483
 20
278.135291
 11
697.6492
 21
283.909293
  0
LINE
  5
15D
100
AcDbEntity
  8
M1
  6
CONTINUOUS
370
25
 62
     7
100
AcDbLine
 10
697.649498
 20
283.909493
 11
692.649894
 21
286.796287
  0
LINE
  5
15E
100
AcDbEntity
  8
M1
  6
CONTINUOUS
370
25
 62
     7
100
AcDbLine
 10
692.649894
 20
286.796089
 11
687.649398
 21
283.910895
  0
LINE
  5
15F
100
AcDbEntity
  8
M1
  6
CONTINUOUS
370
25
 62
     7
100
AcDbLine
 10
629.868698
 20
323.056693
 11
624.867798
 21
320.170387
  0
LINE
  5
160
100
AcDbEntity
  8
M1
  6
CONTINUOUS
370
25
 62
     7
100
AcDbLine
 10
624.867996
 20
320.169991
 11
624.866898
 21
314.396385
  0
LINE
  5
161
100
AcDbEntity
  8
M1
  6
CONTINUOUS
370
25
 62
     7
100
AcDbLine
 10
624.86679
 20
314.396583
 11
629.8665
 21
311.509193
  0
LINE
  5
162
100
AcDbEntity
  8
M1
  6
CONTINUOUS
370
25
 62
     7
100
AcDbLine
 10
629.866394
 20
311.509483
 11
634.867294
 21
314.395789
  0
LINE
  5
163
100
AcDbEntity
  8
M1
  6
CONTINUOUS
370
25
 62
     7
100
AcDbLine
 10
634.867996
 20
314.395485
 11
634.868194
 21
320.168693
  0
LINE
  5
164
100
AcDbEntity
  8
M1
  6
CONTINUOUS
370
25
 62
     7
100
AcDbLine
 10
634.867692
 20
320.168281
 11
629.868804
 21
323.056191
  0
LINE
  5
165
100
AcDbEntity
  8
M1
  6
CONTINUOUS
370
25
 62
     7
100
AcDbLine
 10
680.6604
 20
356.023979
 11
685.6604
 21
356.023583
  0
LINE
  5
166
100
AcDbEntity
  8
M1
  6
CONTINUOUS
370
25
 62
     7
100
AcDbLine
 10
680.659806
 20
351.023979
 11
685.659806
 21
351.023583
  0
LINE
  5
167
100
AcDbEntity
  8
M1
  6
CONTINUOUS
370
25
 62
     7
100
AcDbLine
 10
685.6604
 20
356.023583
 11
685.659698
 21
351.023583
  0
LINE
  5
168
100
AcDbEntity
  8
M1
  6
CONTINUOUS
370
25
 62
     7
100
AcDbLine
 10
680.6604
 20
356.023887
 11
680.659698
 21
351.023887
  0
LINE
  5
169
100
AcDbEntity
  8
M1
  6
CONTINUOUS
370
25
 62
     7
100
AcDbLine
 10
619.710296
 20
388.726981
 11
662.166398
 21
364.206199
  0
LINE
  5
16A
100
AcDbEntity
  8
M1
  6
CONTINUOUS
370
25
 62
     7
100
AcDbLine
 10
662.162994
 20
342.849387
 11
619.699402
 21
318.341789
  0
LINE
  5
16B
100
AcDbEntity
  8
M1
  6
CONTINUOUS
370
25
 62
     7
100
AcDbLine
 10
660.942398
 20
355.965781
 11
653.082596
 21
357.071587
  0
LINE
  5
16C
100
AcDbEntity
  8
M1
  6
CONTINUOUS
370
25
 62
     7
100
AcDbLine
 10
661.499604
 20
359.926903
 11
653.639892
 21
361.032677
  0
LINE
  5
16D
100
AcDbEntity
  8
M1
  6
CONTINUOUS
370
25
 62
     7
100
AcDbLine
 10
661.497604
 20
347.128501
 11
653.637496
 21
346.024985
  0
LINE
  5
16E
100
AcDbEntity
  8
M1
  6
CONTINUOUS
370
25
 62
     7
100
AcDbLine
 10
660.941696
 20
351.089501
 11
653.081498
 21
349.986075
  0
LINE
  5
16F
100
AcDbEntity
  8
M1
  6
CONTINUOUS
370
25
 62
     7
100
AcDbLine
 10
638.558898
 20
359.115195
 11
630.618194
 21
360.232475
  0
LINE
  5
170
100
AcDbEntity
  8
M1
  6
CONTINUOUS
370
25
 62
     7
100
AcDbLine
 10
638.557098
 20
347.947379
 11
630.615998
 21
346.832603
  0
LINE
  5
171
100
AcDbEntity
  8
M1
  6
CONTINUOUS
370
25
 62
     7
100
AcDbLine
 10
686.6727
 20
434.301475
 11
686.6651
 21
385.273003
  0
LINE
  5
172
100
AcDbEntity
  8
M1
  6
CONTINUOUS
370
25
 62
     7
100
AcDbLine
 10
671.541092
 20
377.313591
 11
666.655396
 21
383.568993
  0
LINE
  5
173
100
AcDbEntity
  8
M1
  6
CONTINUOUS
370
25
 62
     7
100
AcDbLine
 10
668.1678
 20
374.597495
 11
625.711898
 21
399.118279
  0
LINE
  5
174
100
AcDbEntity
  8
M1
  6
CONTINUOUS
370
25
 62
     7
100
AcDbLine
 10
678.9169
 20
382.213097
 11
675.944596
 21
389.572777
  0
LINE
  5
175
100
AcDbEntity
  8
M1
  6
CONTINUOUS
370
25
 62
     7
100
AcDbLine
 10
682.625794
 20
383.711083
 11
679.653594
 21
391.070793
  0
LINE
  5
176
100
AcDbEntity
  8
M1
  6
CONTINUOUS
370
25
 62
     7
100
AcDbLine
 10
674.693496
 20
379.775687
 11
669.8078
 21
386.031089
  0
LINE
  5
177
100
AcDbEntity
  8
M1
  6
CONTINUOUS
370
25
 62
     7
100
AcDbLine
 10
759.622596
 20
399.097373
 11
717.158898
 21
374.589683
  0
LINE
  5
178
100
AcDbEntity
  8
M1
  6
CONTINUOUS
370
25
 62
     7
100
AcDbLine
 10
702.703796
 20
383.707877
 11
705.678298
 21
391.066795
  0
LINE
  5
179
100
AcDbEntity
  8
M1
  6
CONTINUOUS
370
25
 62
     7
100
AcDbLine
 10
698.6651
 20
385.271201
 11
698.6727
 21
434.299583
  0
LINE
  5
17A
100
AcDbEntity
  8
M1
  6
CONTINUOUS
370
25
 62
     7
100
AcDbLine
 10
710.634994
 20
379.770103
 11
715.522598
 21
386.023979
  0
LINE
  5
17B
100
AcDbEntity
  8
M1
  6
CONTINUOUS
370
25
 62
     7
100
AcDbLine
 10
713.786698
 20
377.306877
 11
718.674302
 21
383.560783
  0
LINE
  5
17C
100
AcDbEntity
  8
M1
  6
CONTINUOUS
370
25
 62
     7
100
AcDbLine
 10
706.4124
 20
382.208885
 11
709.386796
 21
389.567679
  0
LINE
  5
17D
100
AcDbEntity
  8
M1
  6
CONTINUOUS
370
25
 62
     7
100
AcDbLine
 10
765.610028
 20
318.319283
 11
723.153968
 21
342.840079
  0
LINE
  5
17E
100
AcDbEntity
  8
M1
  6
CONTINUOUS
370
25
 62
     7
100
AcDbLine
 10
723.822944
 20
359.917503
 11
731.68312
 21
361.020989
  0
LINE
  5
17F
100
AcDbEntity
  8
M1
  6
CONTINUOUS
370
25
 62
     7
100
AcDbLine
 10
723.157532
 20
364.196403
 11
765.621148
 21
388.704003
  0
LINE
  5
180
100
AcDbEntity
  8
M1
  6
CONTINUOUS
370
25
 62
     7
100
AcDbLine
 10
724.378182
 20
351.079979
 11
732.237998
 21
349.974083
  0
LINE
  5
181
100
AcDbEntity
  8
M1
  6
CONTINUOUS
370
25
 62
     7
100
AcDbLine
 10
723.820968
 20
347.118981
 11
731.68077
 21
346.013085
  0
LINE
  5
182
100
AcDbEntity
  8
M1
  6
CONTINUOUS
370
25
 62
     7
100
AcDbLine
 10
724.378892
 20
355.956077
 11
732.23912
 21
357.059593
  0
LINE
  5
183
100
AcDbEntity
  8
M1
  6
CONTINUOUS
370
25
 62
     7
100
AcDbLine
 10
698.647598
 20
272.744681
 11
698.655198
 21
321.773093
  0
LINE
  5
184
100
AcDbEntity
  8
M1
  6
CONTINUOUS
370
25
 62
     7
100
AcDbLine
 10
713.779296
 20
329.732581
 11
718.6651
 21
323.477089
  0
LINE
  5
185
100
AcDbEntity
  8
M1
  6
CONTINUOUS
370
25
 62
     7
100
AcDbLine
 10
717.152298
 20
332.448387
 11
759.6083
 21
307.927695
  0
LINE
  5
186
100
AcDbEntity
  8
M1
  6
CONTINUOUS
370
25
 62
     7
100
AcDbLine
 10
706.403496
 20
324.832985
 11
709.375702
 21
317.473289
  0
LINE
  5
187
100
AcDbEntity
  8
M1
  6
CONTINUOUS
370
25
 62
     7
100
AcDbLine
 10
702.694694
 20
323.335091
 11
705.6669
 21
315.975487
  0
LINE
  5
188
100
AcDbEntity
  8
M1
  6
CONTINUOUS
370
25
 62
     7
100
AcDbLine
 10
710.626702
 20
327.270485
 11
715.512398
 21
321.014991
  0
LINE
  5
189
100
AcDbEntity
  8
M1
  6
CONTINUOUS
370
25
 62
     7
100
AcDbLine
 10
625.697998
 20
307.948189
 11
668.161698
 21
332.455895
  0
LINE
  5
18A
100
AcDbEntity
  8
M1
  6
CONTINUOUS
370
25
 62
     7
100
AcDbLine
 10
682.6165
 20
323.338187
 11
679.642106
 21
315.979393
  0
LINE
  5
18B
100
AcDbEntity
  8
M1
  6
CONTINUOUS
370
25
 62
     7
100
AcDbLine
 10
686.655106
 20
321.774895
 11
686.647598
 21
272.746589
  0
LINE
  5
18C
100
AcDbEntity
  8
M1
  6
CONTINUOUS
370
25
 62
     7
100
AcDbLine
 10
674.685898
 20
327.275795
 11
669.798202
 21
321.021889
  0
LINE
  5
18D
100
AcDbEntity
  8
M1
  6
CONTINUOUS
370
25
 62
     7
100
AcDbLine
 10
671.534194
 20
329.738883
 11
666.646592
 21
323.485085
  0
LINE
  5
18E
100
AcDbEntity
  8
M1
  6
CONTINUOUS
370
25
 62
     7
100
AcDbLine
 10
678.908204
 20
324.837287
 11
675.9337
 21
317.478493
  0
LINE
  5
18F
100
AcDbEntity
  8
M1
  6
CONTINUOUS
370
13
 62
     7
100
AcDbLine
 10
730.320884
 20
331.772087
 11
722.015648
 21
336.568901
  0
LINE
  5
190
100
AcDbEntity
  8
M1
  6
CONTINUOUS
370
13
 62
     7
100
AcDbLine
 10
730.709144
 20
375.482903
 11
722.010108
 21
370.462303
  0
LINE
  5
191
100
AcDbEntity
  8
M1
  6
CONTINUOUS
370
13
 62
     7
100
AcDbLine
 10
662.935104
 20
336.367789
 11
654.9319
 21
331.748787
  0
LINE
  5
192
100
AcDbEntity
  8
M1
  6
CONTINUOUS
370
13
 62
     7
100
AcDbLine
 10
663.790298
 20
370.197075
 11
654.927292
 21
375.316001
  0
LINE
  5
193
100
AcDbEntity
  8
M1
  6
CONTINUOUS
370
25
 62
     7
100
AcDbLine
 10
670.4525
 20
403.172477
 11
667.449692
 21
410.607903
  0
LINE
  5
194
100
AcDbEntity
  8
M1
  6
CONTINUOUS
370
25
 62
     7
100
AcDbLine
 10
660.779998
 20
397.590079
 11
655.8441
 21
403.909783
  0
LINE
  5
195
100
AcDbEntity
  8
M1
  6
CONTINUOUS
370
25
 62
     7
100
AcDbLine
 10
724.554246
 20
397.580101
 11
729.492164
 21
403.898185
  0
LINE
  5
196
100
AcDbEntity
  8
M1
  6
CONTINUOUS
370
25
 62
     7
100
AcDbLine
 10
714.883094
 20
403.165703
 11
717.888198
 21
410.600181
  0
LINE
  5
197
100
AcDbEntity
  8
M1
  6
CONTINUOUS
370
25
 62
     7
100
AcDbLine
 10
746.761796
 20
347.930901
 11
754.702416
 21
346.813683
  0
LINE
  5
198
100
AcDbEntity
  8
M1
  6
CONTINUOUS
370
25
 62
     7
100
AcDbLine
 10
746.763482
 20
359.098197
 11
754.704574
 21
360.212975
  0
LINE
  5
199
100
AcDbEntity
  8
M1
  6
CONTINUOUS
370
25
 62
     7
100
AcDbLine
 10
714.867798
 20
303.873695
 11
717.870598
 21
296.438285
  0
LINE
  5
19A
100
AcDbEntity
  8
M1
  6
CONTINUOUS
370
25
 62
     7
100
AcDbLine
 10
724.540428
 20
309.455985
 11
729.476418
 21
303.136191
  0
LINE
  5
19B
100
AcDbEntity
  8
M1
  6
CONTINUOUS
370
25
 62
     7
100
AcDbLine
 10
660.766694
 20
309.465889
 11
655.828796
 21
303.147681
  0
LINE
  5
19C
100
AcDbEntity
  8
M1
  6
CONTINUOUS
370
25
 62
     7
100
AcDbLine
 10
670.437302
 20
303.880591
 11
667.432206
 21
296.445991
  0
LINE
  5
19D
100
AcDbEntity
  8
M1
  6
CONTINUOUS
370
25
 62
     7
100
AcDbLine
 10
733.985322
 20
429.073875
 11
749.725936
 21
456.327477
  0
LINE
  5
19E
100
AcDbEntity
  8
M1
  6
CONTINUOUS
370
25
 62
     7
100
AcDbLine
 10
737.449082
 20
427.073203
 11
753.549706
 21
454.949485
  0
LINE
  5
19F
100
AcDbEntity
  8
M1
  6
CONTINUOUS
370
25
 62
     7
100
AcDbLine
 10
755.88655
 20
472.993187
 11
754.154358
 21
471.993491
  0
LINE
  5
1A0
100
AcDbEntity
  8
M1
  6
CONTINUOUS
370
25
 62
     7
100
AcDbLine
 10
764.545856
 20
467.991783
 11
764.545516
 21
465.991783
  0
LINE
  5
1A1
100
AcDbEntity
  8
M1
  6
CONTINUOUS
370
25
 62
     7
100
AcDbLine
 10
755.020356
 20
472.493095
 11
752.521012
 21
476.823479
  0
LINE
  5
1A2
100
AcDbEntity
  8
M1
  6
CONTINUOUS
370
25
 62
     7
100
AcDbLine
 10
764.5457
 20
466.991875
 11
769.5457
 21
466.991081
  0
LINE
  5
1A3
100
AcDbEntity
  8
M1
  6
CONTINUOUS
370
25
 62
     7
100
AcDbLine
 10
755.885018
 20
462.993279
 11
753.058312
 21
458.097801
  0
LINE
  5
1A4
100
AcDbEntity
  8
M1
  6
CONTINUOUS
370
25
 62
     7
100
AcDbLine
 10
755.01905
 20
457.494377
 11
757.616756
 21
461.993095
  0
LINE
  5
1A5
100
AcDbEntity
  8
M1
  6
CONTINUOUS
370
25
 62
     7
100
AcDbLine
 10
751.096984
 20
458.700797
 11
754.153808
 21
463.993401
  0
LINE
  5
1A6
100
AcDbEntity
  8
M1
  6
CONTINUOUS
370
25
 62
     7
100
AcDbLine
 10
755.01915
 20
457.493981
 11
751.096276
 21
458.700585
  0
LINE
  5
1A7
100
AcDbEntity
  8
M1
  6
CONTINUOUS
370
25
 62
     7
100
AcDbLine
 10
753.549804
 20
454.949485
 11
749.726158
 21
456.327079
  0
LINE
  5
1A8
100
AcDbEntity
  8
M1
  6
CONTINUOUS
370
25
 62
     7
100
AcDbLine
 10
751.637642
 20
455.637993
 11
735.717042
 21
428.073691
  0
LINE
  5
1A9
100
AcDbEntity
  8
M1
  6
CONTINUOUS
370
13
 62
     7
100
AcDbLine
 10
172.471116
 20
320.097283
 11
172.471116
 21
309.958381
  0
LINE
  5
1AA
100
AcDbEntity
  8
M1
  6
CONTINUOUS
370
13
 62
     7
100
AcDbLine
 10
172.471116
 20
359.093101
 11
172.471116
 21
348.564201
  0
LINE
  5
1AB
100
AcDbEntity
  8
M1
  6
CONTINUOUS
370
13
 62
     7
100
AcDbLine
 10
545.748184
 20
353.579185
 11
562.362686
 21
353.579185
  0
LINE
  5
1AC
100
AcDbEntity
  8
M1
  6
CONTINUOUS
370
13
 62
     7
100
AcDbLine
 10
692.660798
 20
357.923301
 11
692.6594
 21
348.954185
  0
LINE
  5
1AD
100
AcDbEntity
  8
M1
  6
CONTINUOUS
370
13
 62
     7
100
AcDbLine
 10
692.654998
 20
320.487189
 11
692.653298
 21
309.178489
  0
ARC
  5
1AE
100
AcDbEntity
  8
M1
  6
CONTINUOUS
370
25
 62
     7
100
AcDbCircle
 10
463.907302
 20
441.379203
 40
3.001008
100
AcDbArc
 50
270.0
 51
360.0
  0
ARC
  5
1AF
100
AcDbEntity
  8
M1
  6
CONTINUOUS
370
25
 62
     7
100
AcDbCircle
 10
463.907302
 20
441.379203
 40
5.801026
100
AcDbArc
 50
270.0
 51
360.0
  0
ARC
  5
1B0
100
AcDbEntity
  8
M1
  6
CONTINUOUS
370
25
 62
     7
100
AcDbCircle
 10
480.907302
 20
460.934197
 40
14.000558
100
AcDbArc
 50
119.99868
 51
180.0
  0
ARC
  5
1B1
100
AcDbEntity
  8
M1
  6
CONTINUOUS
370
25
 62
     7
100
AcDbCircle
 10
480.907302
 20
460.934197
 40
11.200434
100
AcDbArc
 50
119.998756
 51
180.0
  0
ARC
  5
1B2
100
AcDbEntity
  8
M1
  6
CONTINUOUS
370
25
 62
     7
100
AcDbCircle
 10
455.70729
 20
460.934197
 40
13.999802
100
AcDbArc
 50
25.840195
 51
60.001476
  0
ARC
  5
1B3
100
AcDbEntity
  8
M1
  6
CONTINUOUS
370
25
 62
     7
100
AcDbCircle
 10
455.70729
 20
460.934197
 40
11.200012
100
AcDbArc
 50
0.0
 51
60.001175
  0
ARC
  5
1B4
100
AcDbEntity
  8
M1
  6
CONTINUOUS
370
25
 62
     7
100
AcDbCircle
 10
397.808304
 20
432.579185
 40
2.0
100
AcDbArc
 50
90.0
 51
180.0
  0
ARC
  5
1B5
100
AcDbEntity
  8
M1
  6
CONTINUOUS
370
25
 62
     7
100
AcDbCircle
 10
389.808304
 20
404.579185
 40
6.0
100
AcDbArc
 50
270.0
 51
360.0
  0
ARC
  5
1B6
100
AcDbEntity
  8
M1
  6
CONTINUOUS
370
25
 62
     7
100
AcDbCircle
 10
472.308304
 20
432.579185
 40
2.0
100
AcDbArc
 50
0.0
 51
90.0
  0
ARC
  5
1B7
100
AcDbEntity
  8
M1
  6
CONTINUOUS
370
25
 62
     7
100
AcDbCircle
 10
480.308304
 20
404.579185
 40
6.0
100
AcDbArc
 50
180.0
 51
270.0
  0
ARC
  5
1B8
100
AcDbEntity
  8
M1
  6
CONTINUOUS
370
25
 62
     7
100
AcDbCircle
 10
359.315598
 20
353.579185
 40
2.5
100
AcDbArc
 50
270.0
 51
450.0
  0
ARC
  5
1B9
100
AcDbEntity
  8
M1
  6
CONTINUOUS
370
25
 62
     7
100
AcDbCircle
 10
389.808304
 20
302.579185
 40
6.0
100
AcDbArc
 50
0.0
 51
90.0
  0
ARC
  5
1BA
100
AcDbEntity
  8
M1
  6
CONTINUOUS
370
25
 62
     7
100
AcDbCircle
 10
397.808304
 20
274.579185
 40
2.0
100
AcDbArc
 50
180.0
 51
270.0
  0
ARC
  5
1BB
100
AcDbEntity
  8
M1
  6
CONTINUOUS
370
25
 62
     7
100
AcDbCircle
 10
472.308304
 20
274.579185
 40
2.0
100
AcDbArc
 50
270.0
 51
360.0
  0
ARC
  5
1BC
100
AcDbEntity
  8
M1
  6
CONTINUOUS
370
25
 62
     7
100
AcDbCircle
 10
480.308304
 20
302.579185
 40
6.0
100
AcDbArc
 50
90.0
 51
180.0
  0
ARC
  5
1BD
100
AcDbEntity
  8
M1
  6
CONTINUOUS
370
25
 62
     7
100
AcDbCircle
 10
510.815598
 20
353.567497
 40
2.5
100
AcDbArc
 50
90.0
 51
270.0
  0
ARC
  5
1BE
100
AcDbEntity
  8
M1
  6
CONTINUOUS
370
25
 62
     7
100
AcDbCircle
 10
391.369308
 20
430.466179
 40
2.060762
100
AcDbArc
 50
137.733902
 51
222.285217
  0
ARC
  5
1BF
100
AcDbEntity
  8
M1
  6
CONTINUOUS
370
25
 62
     7
100
AcDbCircle
 10
391.369308
 20
421.692191
 40
2.06142
100
AcDbArc
 50
137.713821
 51
222.286194
  0
ARC
  5
1C0
100
AcDbEntity
  8
M1
  6
CONTINUOUS
370
25
 62
     7
100
AcDbCircle
 10
397.968308
 20
426.079185
 40
8.66024
100
AcDbArc
 50
159.732071
 51
200.267941
  0
CIRCLE
  5
1C1
100
AcDbEntity
  8
M1
  6
CONTINUOUS
370
25
 62
     7
100
AcDbCircle
 10
172.471116
 20
353.579185
 40
91.0
  0
CIRCLE
  5
1C2
100
AcDbEntity
  8
M1
  6
CONTINUOUS
370
25
 62
     7
100
AcDbCircle
 10
172.471116
 20
353.579185
 40
81.0
  0
CIRCLE
  5
1C3
100
AcDbEntity
  8
M1
  6
CONTINUOUS
370
25
 62
     7
100
AcDbCircle
 10
235.25792
 20
389.829185
 40
5.0
  0
CIRCLE
  5
1C4
100
AcDbEntity
  8
M1
  6
CONTINUOUS
370
25
 62
     7
100
AcDbCircle
 10
172.471116
 20
426.079185
 40
5.0
  0
CIRCLE
  5
1C5
100
AcDbEntity
  8
M1
  6
CONTINUOUS
370
25
 62
     7
100
AcDbCircle
 10
109.684188
 20
389.829185
 40
5.0
  0
CIRCLE
  5
1C6
100
AcDbEntity
  8
M1
  6
CONTINUOUS
370
25
 62
     7
100
AcDbCircle
 10
109.684188
 20
317.329185
 40
5.0
  0
CIRCLE
  5
1C7
100
AcDbEntity
  8
M1
  6
CONTINUOUS
370
25
 62
     7
100
AcDbCircle
 10
172.471116
 20
281.079185
 40
5.0
  0
CIRCLE
  5
1C8
100
AcDbEntity
  8
M1
  6
CONTINUOUS
370
25
 62
     7
100
AcDbCircle
 10
235.25792
 20
317.329185
 40
5.0
  0
ARC
  5
1C9
100
AcDbEntity
  8
M1
  6
CONTINUOUS
370
13
 62
     7
100
AcDbCircle
 10
172.471116
 20
353.579185
 40
39.000058
100
AcDbArc
 50
203.515793
 51
216.73724
  0
ARC
  5
1CA
100
AcDbEntity
  8
M1
  6
CONTINUOUS
370
25
 62
     7
100
AcDbCircle
 10
172.471116
 20
353.579185
 40
9.999918
100
AcDbArc
 50
14.473478
 51
345.518217
  0
ARC
  5
1CB
100
AcDbEntity
  8
M1
  6
CONTINUOUS
370
25
 62
     7
100
AcDbCircle
 10
391.369308
 20
394.216301
 40
2.06068
100
AcDbArc
 50
137.73642
 51
222.287735
  0
ARC
  5
1CC
100
AcDbEntity
  8
M1
  6
CONTINUOUS
370
25
 62
     7
100
AcDbCircle
 10
391.369308
 20
385.442191
 40
2.06142
100
AcDbArc
 50
137.713821
 51
222.286194
  0
ARC
  5
1CD
100
AcDbEntity
  8
M1
  6
CONTINUOUS
370
25
 62
     7
100
AcDbCircle
 10
397.968308
 20
389.829185
 40
8.66024
100
AcDbArc
 50
159.732071
 51
200.267941
  0
ARC
  5
1CE
100
AcDbEntity
  8
M1
  6
CONTINUOUS
370
25
 62
     7
100
AcDbCircle
 10
391.369308
 20
276.692191
 40
2.060696
100
AcDbArc
 50
137.714462
 51
222.265778
  0
ARC
  5
1CF
100
AcDbEntity
  8
M1
  6
CONTINUOUS
370
25
 62
     7
100
AcDbCircle
 10
391.369308
 20
321.716193
 40
2.06142
100
AcDbArc
 50
137.713821
 51
222.286507
  0
ARC
  5
1D0
100
AcDbEntity
  8
M1
  6
CONTINUOUS
370
25
 62
     7
100
AcDbCircle
 10
397.968308
 20
317.329185
 40
8.66024
100
AcDbArc
 50
159.732071
 51
200.267941
  0
ARC
  5
1D1
100
AcDbEntity
  8
M1
  6
CONTINUOUS
370
25
 62
     7
100
AcDbCircle
 10
391.369308
 20
312.942085
 40
2.060768
100
AcDbArc
 50
137.712265
 51
222.26358
  0
ARC
  5
1D2
100
AcDbEntity
  8
M1
  6
CONTINUOUS
370
25
 62
     7
100
AcDbCircle
 10
397.968308
 20
281.079185
 40
8.66024
100
AcDbArc
 50
159.732071
 51
200.267941
  0
ARC
  5
1D3
100
AcDbEntity
  8
M1
  6
CONTINUOUS
370
25
 62
     7
100
AcDbCircle
 10
391.369308
 20
285.466193
 40
2.06142
100
AcDbArc
 50
137.713821
 51
222.286507
  0
ARC
  5
1D4
100
AcDbEntity
  8
M1
  6
CONTINUOUS
370
25
 62
     7
100
AcDbCircle
 10
478.74739
 20
430.466301
 40
2.0607
100
AcDbArc
 50
317.710571
 51
402.264168
  0
ARC
  5
1D5
100
AcDbEntity
  8
M1
  6
CONTINUOUS
370
25
 62
     7
100
AcDbCircle
 10
478.74739
 20
421.692191
 40
2.061396
100
AcDbArc
 50
317.713257
 51
402.286766
  0
ARC
  5
1D6
100
AcDbEntity
  8
M1
  6
CONTINUOUS
370
25
 62
     7
100
AcDbCircle
 10
472.148392
 20
426.079185
 40
8.660212
100
AcDbArc
 50
339.731995
 51
380.268005
  0
ARC
  5
1D7
100
AcDbEntity
  8
M1
  6
CONTINUOUS
370
25
 62
     7
100
AcDbCircle
 10
478.74739
 20
394.216301
 40
2.0607
100
AcDbArc
 50
317.710571
 51
402.264168
  0
ARC
  5
1D8
100
AcDbEntity
  8
M1
  6
CONTINUOUS
370
25
 62
     7
100
AcDbCircle
 10
478.74739
 20
385.442191
 40
2.061396
100
AcDbArc
 50
317.713257
 51
402.286766
  0
ARC
  5
1D9
100
AcDbEntity
  8
M1
  6
CONTINUOUS
370
25
 62
     7
100
AcDbCircle
 10
472.148392
 20
389.829185
 40
8.660212
100
AcDbArc
 50
339.731995
 51
380.268005
  0
ARC
  5
1DA
100
AcDbEntity
  8
M1
  6
CONTINUOUS
370
25
 62
     7
100
AcDbCircle
 10
478.74739
 20
321.716193
 40
2.060712
100
AcDbArc
 50
317.710236
 51
402.26635
  0
ARC
  5
1DB
100
AcDbEntity
  8
M1
  6
CONTINUOUS
370
25
 62
     7
100
AcDbCircle
 10
478.74739
 20
312.942191
 40
2.061408
100
AcDbArc
 50
317.712921
 51
402.286743
  0
ARC
  5
1DC
100
AcDbEntity
  8
M1
  6
CONTINUOUS
370
25
 62
     7
100
AcDbCircle
 10
472.148392
 20
317.329185
 40
8.660212
100
AcDbArc
 50
339.731995
 51
380.268005
  0
ARC
  5
1DD
100
AcDbEntity
  8
M1
  6
CONTINUOUS
370
25
 62
     7
100
AcDbCircle
 10
478.74739
 20
285.466193
 40
2.06064
100
AcDbArc
 50
317.712433
 51
402.26635
  0
ARC
  5
1DE
100
AcDbEntity
  8
M1
  6
CONTINUOUS
370
25
 62
     7
100
AcDbCircle
 10
478.74739
 20
276.692191
 40
2.061408
100
AcDbArc
 50
317.712921
 51
402.286743
  0
ARC
  5
1DF
100
AcDbEntity
  8
M1
  6
CONTINUOUS
370
25
 62
     7
100
AcDbCircle
 10
472.148392
 20
281.079185
 40
8.660212
100
AcDbArc
 50
339.731995
 51
380.268005
  0
CIRCLE
  5
1E0
100
AcDbEntity
  8
M1
  6
CONTINUOUS
370
13
 62
     7
100
AcDbCircle
 10
138.69609
 20
334.079185
 40
3.0
  0
CIRCLE
  5
1E1
100
AcDbEntity
  8
M1
  6
CONTINUOUS
370
25
 62
     7
100
AcDbCircle
 10
138.69609
 20
334.079185
 40
2.455018
  0
ARC
  5
1E2
100
AcDbEntity
  8
M1
  6
CONTINUOUS
370
25
 62
     7
100
AcDbCircle
 10
206.246018
 20
373.079185
 40
6.00004
100
AcDbArc
 50
299.999786
 51
480.000229
  0
CIRCLE
  5
1E3
100
AcDbEntity
  8
M1
  6
CONTINUOUS
370
25
 62
     7
100
AcDbCircle
 10
172.471116
 20
353.579185
 40
27.5
  0
CIRCLE
  5
1E4
100
AcDbEntity
  8
M1
  6
CONTINUOUS
370
25
 62
     7
100
AcDbCircle
 10
172.471116
 20
353.579185
 40
23.5
  0
ARC
  5
1E5
100
AcDbEntity
  8
M1
  6
CONTINUOUS
370
25
 62
     7
100
AcDbCircle
 10
172.471116
 20
353.579185
 40
42.999996
100
AcDbArc
 50
343.002747
 51
344.819251
  0
ARC
  5
1E6
100
AcDbEntity
  8
M1
  6
CONTINUOUS
370
25
 62
     7
100
AcDbCircle
 10
210.7238
 20
365.272087
 40
3.00007
100
AcDbArc
 50
16.997574
 51
119.999641
  0
ARC
  5
1E7
100
AcDbEntity
  8
M1
  6
CONTINUOUS
370
25
 62
     7
100
AcDbCircle
 10
172.471116
 20
353.579185
 40
43.000016
100
AcDbArc
 50
15.180744
 51
16.997131
  0
ARC
  5
1E8
100
AcDbEntity
  8
M1
  6
CONTINUOUS
370
25
 62
     7
100
AcDbCircle
 10
172.471116
 20
353.579185
 40
43.0
100
AcDbArc
 50
359.180756
 51
360.819101
  0
ARC
  5
1E9
100
AcDbEntity
  8
M1
  6
CONTINUOUS
370
25
 62
     7
100
AcDbCircle
 10
211.07518
 20
364.053795
 40
3.000002
100
AcDbArc
 50
278.001587
 51
375.179863
  0
ARC
  5
1EA
100
AcDbEntity
  8
M1
  6
CONTINUOUS
370
25
 62
     7
100
AcDbCircle
 10
212.467026
 20
354.151085
 40
3.000002
100
AcDbArc
 50
0.819504
 51
98.001603
  0
ARC
  5
1EB
100
AcDbEntity
  8
M1
  6
CONTINUOUS
370
25
 62
     7
100
AcDbCircle
 10
212.467026
 20
353.007285
 40
2.999994
100
AcDbArc
 50
261.999542
 51
359.180481
  0
ARC
  5
1EC
100
AcDbEntity
  8
M1
  6
CONTINUOUS
370
25
 62
     7
100
AcDbCircle
 10
211.07518
 20
343.104575
 40
3.000126
100
AcDbArc
 50
344.820129
 51
441.998489
  0
ARC
  5
1ED
100
AcDbEntity
  8
M1
  6
CONTINUOUS
370
25
 62
     7
100
AcDbCircle
 10
210.723922
 20
341.886191
 40
2.999928
100
AcDbArc
 50
239.999191
 51
343.003967
  0
ARC
  5
1EE
100
AcDbEntity
  8
M1
  6
CONTINUOUS
370
25
 62
     7
100
AcDbCircle
 10
172.471116
 20
353.579185
 40
52.499958
100
AcDbArc
 50
356.208862
 51
363.790957
  0
ARC
  5
1EF
100
AcDbEntity
  8
M1
  6
CONTINUOUS
370
25
 62
     7
100
AcDbCircle
 10
172.471116
 20
353.579185
 40
64.499946
100
AcDbArc
 50
355.669403
 51
364.330539
  0
ARC
  5
1F0
100
AcDbEntity
  8
M1
  6
CONTINUOUS
370
25
 62
     7
100
AcDbCircle
 10
234.79271
 20
358.298575
 40
1.99991
100
AcDbArc
 50
4.330174
 51
98.001141
  0
ARC
  5
1F1
100
AcDbEntity
  8
M1
  6
CONTINUOUS
370
25
 62
     7
100
AcDbCircle
 10
226.851792
 20
357.182579
 40
1.999968
100
AcDbArc
 50
98.001144
 51
183.792732
  0
ARC
  5
1F2
100
AcDbEntity
  8
M1
  6
CONTINUOUS
370
25
 62
     7
100
AcDbCircle
 10
234.79271
 20
348.859795
 40
2.00006
100
AcDbArc
 50
261.999207
 51
355.667198
  0
ARC
  5
1F3
100
AcDbEntity
  8
M1
  6
CONTINUOUS
370
25
 62
     7
100
AcDbCircle
 10
226.851792
 20
349.975701
 40
1.99998
100
AcDbArc
 50
176.209885
 51
262.000587
  0
ARC
  5
1F4
100
AcDbEntity
  8
M1
  6
CONTINUOUS
370
25
 62
     7
100
AcDbCircle
 10
172.471116
 20
353.579185
 40
29.999896
100
AcDbArc
 50
345.826569
 51
374.173409
  0
ARC
  5
1F5
100
AcDbEntity
  8
M1
  6
CONTINUOUS
370
25
 62
     7
100
AcDbCircle
 10
204.466476
 20
361.659477
 40
3.000032
100
AcDbArc
 50
119.999641
 51
194.173645
  0
ARC
  5
1F6
100
AcDbEntity
  8
M1
  6
CONTINUOUS
370
25
 62
     7
100
AcDbCircle
 10
203.354416
 20
361.958793
 40
2.000022
100
AcDbArc
 50
195.180054
 51
278.001144
  0
ARC
  5
1F7
100
AcDbEntity
  8
M1
  6
CONTINUOUS
370
25
 62
     7
100
AcDbCircle
 10
204.46782
 20
354.036675
 40
2.000098
100
AcDbArc
 50
98.002388
 51
180.815659
  0
ARC
  5
1F8
100
AcDbEntity
  8
M1
  6
CONTINUOUS
370
25
 62
     7
100
AcDbCircle
 10
204.46782
 20
353.121575
 40
2.000144
100
AcDbArc
 50
179.179977
 51
261.997131
  0
ARC
  5
1F9
100
AcDbEntity
  8
M1
  6
CONTINUOUS
370
25
 62
     7
100
AcDbCircle
 10
203.354416
 20
345.199577
 40
1.999968
100
AcDbArc
 50
81.998856
 51
164.819946
  0
ARC
  5
1FA
100
AcDbEntity
  8
M1
  6
CONTINUOUS
370
25
 62
     7
100
AcDbCircle
 10
204.466476
 20
345.498893
 40
3.000018
100
AcDbArc
 50
165.826355
 51
240.000359
  0
ARC
  5
1FB
100
AcDbEntity
  8
M1
  6
CONTINUOUS
370
25
 62
     7
100
AcDbCircle
 10
172.471116
 20
392.579185
 40
6.0
100
AcDbArc
 50
0.0
 51
180.0
  0
ARC
  5
1FC
100
AcDbEntity
  8
M1
  6
CONTINUOUS
370
25
 62
     7
100
AcDbCircle
 10
181.471116
 20
385.328179
 40
3.0
100
AcDbArc
 50
180.0
 51
254.172447
  0
ARC
  5
1FD
100
AcDbEntity
  8
M1
  6
CONTINUOUS
370
25
 62
     7
100
AcDbCircle
 10
172.471116
 20
353.579185
 40
29.999938
100
AcDbArc
 50
45.826645
 51
74.173462
  0
ARC
  5
1FE
100
AcDbEntity
  8
M1
  6
CONTINUOUS
370
25
 62
     7
100
AcDbCircle
 10
195.169724
 20
376.135093
 40
2.00006
100
AcDbArc
 50
141.999115
 51
224.818863
  0
ARC
  5
1FF
100
AcDbEntity
  8
M1
  6
CONTINUOUS
370
25
 62
     7
100
AcDbCircle
 10
172.471116
 20
353.579185
 40
42.999946
100
AcDbArc
 50
43.002956
 51
44.819313
  0
ARC
  5
200
100
AcDbEntity
  8
M1
  6
CONTINUOUS
370
25
 62
     7
100
AcDbCircle
 10
200.844406
 20
381.774101
 40
2.999974
100
AcDbArc
 50
44.819073
 51
141.999775
  0
ARC
  5
201
100
AcDbEntity
  8
M1
  6
CONTINUOUS
370
25
 62
     7
100
AcDbCircle
 10
201.723922
 20
380.860587
 40
3.000032
100
AcDbArc
 50
299.999634
 51
403.00441
  0
ARC
  5
202
100
AcDbEntity
  8
M1
  6
CONTINUOUS
370
25
 62
     7
100
AcDbCircle
 10
195.466476
 20
377.247887
 40
2.99997
100
AcDbArc
 50
225.827179
 51
299.999924
  0
ARC
  5
203
100
AcDbEntity
  8
M1
  6
CONTINUOUS
370
25
 62
     7
100
AcDbCircle
 10
188.073226
 20
381.517875
 40
2.000102
100
AcDbArc
 50
157.99762
 51
240.815987
  0
ARC
  5
204
100
AcDbEntity
  8
M1
  6
CONTINUOUS
370
25
 62
     7
100
AcDbCircle
 10
180.655686
 20
384.514793
 40
2.00001
100
AcDbArc
 50
255.182785
 51
338.000847
  0
ARC
  5
205
100
AcDbEntity
  8
M1
  6
CONTINUOUS
370
25
 62
     7
100
AcDbCircle
 10
182.70189
 20
392.248679
 40
2.999932
100
AcDbArc
 50
338.000305
 51
435.180313
  0
ARC
  5
206
100
AcDbEntity
  8
M1
  6
CONTINUOUS
370
25
 62
     7
100
AcDbCircle
 10
181.471116
 20
392.553489
 40
2.999988
100
AcDbArc
 50
76.999702
 51
180.0
  0
ARC
  5
207
100
AcDbEntity
  8
M1
  6
CONTINUOUS
370
25
 62
     7
100
AcDbCircle
 10
172.471116
 20
353.579185
 40
42.99998
100
AcDbArc
 50
75.180779
 51
76.997286
  0
ARC
  5
208
100
AcDbEntity
  8
M1
  6
CONTINUOUS
370
25
 62
     7
100
AcDbCircle
 10
191.973678
 20
388.502587
 40
3.000036
100
AcDbArc
 50
60.819439
 51
157.999767
  0
ARC
  5
209
100
AcDbEntity
  8
M1
  6
CONTINUOUS
370
25
 62
     7
100
AcDbCircle
 10
172.471116
 20
353.579185
 40
43.000016
100
AcDbArc
 50
59.180824
 51
60.819346
  0
ARC
  5
20A
100
AcDbEntity
  8
M1
  6
CONTINUOUS
370
25
 62
     7
100
AcDbCircle
 10
192.96428
 20
387.930687
 40
3.000026
100
AcDbArc
 50
322.002594
 51
419.180382
  0
ARC
  5
20B
100
AcDbEntity
  8
M1
  6
CONTINUOUS
370
25
 62
     7
100
AcDbCircle
 10
188.865586
 20
381.060387
 40
1.99998
100
AcDbArc
 50
239.182587
 51
321.998039
  0
ARC
  5
20C
100
AcDbEntity
  8
M1
  6
CONTINUOUS
370
25
 62
     7
100
AcDbCircle
 10
138.69609
 20
373.079185
 40
6.00004
100
AcDbArc
 50
60.000214
 51
239.999771
  0
ARC
  5
20D
100
AcDbEntity
  8
M1
  6
CONTINUOUS
370
25
 62
     7
100
AcDbCircle
 10
149.47557
 20
377.247887
 40
3.000006
100
AcDbArc
 50
240.000076
 51
314.17366
  0
ARC
  5
20E
100
AcDbEntity
  8
M1
  6
CONTINUOUS
370
25
 62
     7
100
AcDbCircle
 10
172.471116
 20
353.579185
 40
29.999996
100
AcDbArc
 50
105.826874
 51
134.173521
  0
ARC
  5
20F
100
AcDbEntity
  8
M1
  6
CONTINUOUS
370
25
 62
     7
100
AcDbCircle
 10
164.286422
 20
384.514793
 40
2.000056
100
AcDbArc
 50
201.999146
 51
284.820595
  0
ARC
  5
210
100
AcDbEntity
  8
M1
  6
CONTINUOUS
370
25
 62
     7
100
AcDbCircle
 10
172.471116
 20
353.579185
 40
42.99997
100
AcDbArc
 50
103.002869
 51
104.819375
  0
ARC
  5
211
100
AcDbEntity
  8
M1
  6
CONTINUOUS
370
25
 62
     7
100
AcDbCircle
 10
162.24022
 20
392.248679
 40
3.0
100
AcDbArc
 50
104.819687
 51
201.999695
  0
ARC
  5
212
100
AcDbEntity
  8
M1
  6
CONTINUOUS
370
25
 62
     7
100
AcDbCircle
 10
163.471116
 20
392.553581
 40
3.0
100
AcDbArc
 50
0.0
 51
103.002571
  0
ARC
  5
213
100
AcDbEntity
  8
M1
  6
CONTINUOUS
370
25
 62
     7
100
AcDbCircle
 10
163.471116
 20
385.328301
 40
3.000012
100
AcDbArc
 50
285.824036
 51
360.000008
  0
ARC
  5
214
100
AcDbEntity
  8
M1
  6
CONTINUOUS
370
25
 62
     7
100
AcDbCircle
 10
156.076522
 20
381.060387
 40
2.000052
100
AcDbArc
 50
217.997742
 51
300.817421
  0
ARC
  5
215
100
AcDbEntity
  8
M1
  6
CONTINUOUS
370
25
 62
     7
100
AcDbCircle
 10
149.772384
 20
376.135185
 40
2.000056
100
AcDbArc
 50
315.180511
 51
397.999901
  0
ARC
  5
216
100
AcDbEntity
  8
M1
  6
CONTINUOUS
370
25
 62
     7
100
AcDbCircle
 10
144.097702
 20
381.774101
 40
2.999986
100
AcDbArc
 50
38.000225
 51
135.180927
  0
ARC
  5
217
100
AcDbEntity
  8
M1
  6
CONTINUOUS
370
25
 62
     7
100
AcDbCircle
 10
143.218308
 20
380.860587
 40
3.000058
100
AcDbArc
 50
136.997971
 51
240.000359
  0
ARC
  5
218
100
AcDbEntity
  8
M1
  6
CONTINUOUS
370
25
 62
     7
100
AcDbCircle
 10
172.471116
 20
353.579185
 40
43.000022
100
AcDbArc
 50
135.180801
 51
136.997209
  0
ARC
  5
219
100
AcDbEntity
  8
M1
  6
CONTINUOUS
370
25
 62
     7
100
AcDbCircle
 10
151.977768
 20
387.930687
 40
3.000042
100
AcDbArc
 50
120.818619
 51
218.000938
  0
ARC
  5
21A
100
AcDbEntity
  8
M1
  6
CONTINUOUS
370
25
 62
     7
100
AcDbCircle
 10
172.471116
 20
353.579185
 40
43.00002
100
AcDbArc
 50
119.180794
 51
120.819313
  0
ARC
  5
21B
100
AcDbEntity
  8
M1
  6
CONTINUOUS
370
25
 62
     7
100
AcDbCircle
 10
152.968368
 20
388.502587
 40
3.000034
100
AcDbArc
 50
22.001419
 51
119.179543
  0
ARC
  5
21C
100
AcDbEntity
  8
M1
  6
CONTINUOUS
370
25
 62
     7
100
AcDbCircle
 10
156.868882
 20
381.517875
 40
1.999974
100
AcDbArc
 50
299.184021
 51
382.002388
  0
ARC
  5
21D
100
AcDbEntity
  8
M1
  6
CONTINUOUS
370
25
 62
     7
100
AcDbCircle
 10
138.69609
 20
334.079185
 40
6.00004
100
AcDbArc
 50
119.999786
 51
300.00029
  0
ARC
  5
21E
100
AcDbEntity
  8
M1
  6
CONTINUOUS
370
25
 62
     7
100
AcDbCircle
 10
140.47557
 20
345.498893
 40
3.000032
100
AcDbArc
 50
299.999634
 51
374.173355
  0
ARC
  5
21F
100
AcDbEntity
  8
M1
  6
CONTINUOUS
370
25
 62
     7
100
AcDbCircle
 10
172.471116
 20
353.579185
 40
30.000014
100
AcDbArc
 50
165.82663
 51
194.173355
  0
ARC
  5
220
100
AcDbEntity
  8
M1
  6
CONTINUOUS
370
25
 62
     7
100
AcDbCircle
 10
141.587692
 20
361.958885
 40
2.00006
100
AcDbArc
 50
261.999207
 51
344.82032
  0
ARC
  5
221
100
AcDbEntity
  8
M1
  6
CONTINUOUS
370
25
 62
     7
100
AcDbCircle
 10
172.471116
 20
353.579185
 40
42.999996
100
AcDbArc
 50
163.002747
 51
164.819293
  0
ARC
  5
222
100
AcDbEntity
  8
M1
  6
CONTINUOUS
370
25
 62
     7
100
AcDbCircle
 10
133.866928
 20
364.053795
 40
3.000126
100
AcDbArc
 50
164.820129
 51
261.998405
  0
ARC
  5
223
100
AcDbEntity
  8
M1
  6
CONTINUOUS
370
25
 62
     7
100
AcDbCircle
 10
134.218186
 20
365.272179
 40
2.999954
100
AcDbArc
 50
59.999485
 51
163.003414
  0
ARC
  5
224
100
AcDbEntity
  8
M1
  6
CONTINUOUS
370
25
 62
     7
100
AcDbCircle
 10
140.47557
 20
361.659477
 40
3.000076
100
AcDbArc
 50
345.82663
 51
420.000351
  0
ARC
  5
225
100
AcDbEntity
  8
M1
  6
CONTINUOUS
370
25
 62
     7
100
AcDbCircle
 10
140.474412
 20
353.121697
 40
2.000072
100
AcDbArc
 50
277.997192
 51
360.816582
  0
ARC
  5
226
100
AcDbEntity
  8
M1
  6
CONTINUOUS
370
25
 62
     7
100
AcDbCircle
 10
141.587692
 20
345.199577
 40
1.999964
100
AcDbArc
 50
15.18051
 51
98.001143
  0
ARC
  5
227
100
AcDbEntity
  8
M1
  6
CONTINUOUS
370
25
 62
     7
100
AcDbCircle
 10
133.866928
 20
343.104575
 40
3.000032
100
AcDbArc
 50
98.001518
 51
195.179878
  0
ARC
  5
228
100
AcDbEntity
  8
M1
  6
CONTINUOUS
370
25
 62
     7
100
AcDbCircle
 10
134.218308
 20
341.886283
 40
2.999944
100
AcDbArc
 50
196.997696
 51
299.999931
  0
ARC
  5
229
100
AcDbEntity
  8
M1
  6
CONTINUOUS
370
25
 62
     7
100
AcDbCircle
 10
172.471116
 20
353.579185
 40
43.000134
100
AcDbArc
 50
195.180695
 51
196.997086
  0
ARC
  5
22A
100
AcDbEntity
  8
M1
  6
CONTINUOUS
370
25
 62
     7
100
AcDbCircle
 10
132.475082
 20
353.007285
 40
2.99988
100
AcDbArc
 50
180.819534
 51
278.001595
  0
ARC
  5
22B
100
AcDbEntity
  8
M1
  6
CONTINUOUS
370
25
 62
     7
100
AcDbCircle
 10
172.471116
 20
353.579185
 40
43.0
100
AcDbArc
 50
179.180771
 51
180.819238
  0
ARC
  5
22C
100
AcDbEntity
  8
M1
  6
CONTINUOUS
370
25
 62
     7
100
AcDbCircle
 10
132.475082
 20
354.151085
 40
2.999994
100
AcDbArc
 50
81.999557
 51
179.180466
  0
ARC
  5
22D
100
AcDbEntity
  8
M1
  6
CONTINUOUS
370
25
 62
     7
100
AcDbCircle
 10
140.474412
 20
354.036675
 40
2.00002
100
AcDbArc
 50
359.184296
 51
442.002808
  0
ARC
  5
22E
100
AcDbEntity
  8
M1
  6
CONTINUOUS
370
25
 62
     7
100
AcDbCircle
 10
172.471116
 20
314.579185
 40
6.0
100
AcDbArc
 50
180.0
 51
360.0
  0
ARC
  5
22F
100
AcDbEntity
  8
M1
  6
CONTINUOUS
370
25
 62
     7
100
AcDbCircle
 10
163.471116
 20
321.830085
 40
3.0
100
AcDbArc
 50
0.0
 51
74.175896
  0
ARC
  5
230
100
AcDbEntity
  8
M1
  6
CONTINUOUS
370
25
 62
     7
100
AcDbCircle
 10
172.471116
 20
353.579185
 40
30.000024
100
AcDbArc
 50
225.826477
 51
254.173124
  0
ARC
  5
231
100
AcDbEntity
  8
M1
  6
CONTINUOUS
370
25
 62
     7
100
AcDbCircle
 10
149.772384
 20
331.023293
 40
2.000022
100
AcDbArc
 50
321.997681
 51
404.818542
  0
ARC
  5
232
100
AcDbEntity
  8
M1
  6
CONTINUOUS
370
25
 62
     7
100
AcDbCircle
 10
172.471116
 20
353.579185
 40
43.000068
100
AcDbArc
 50
223.002777
 51
224.819185
  0
ARC
  5
233
100
AcDbEntity
  8
M1
  6
CONTINUOUS
370
25
 62
     7
100
AcDbCircle
 10
144.097702
 20
325.384285
 40
2.999974
100
AcDbArc
 50
224.819077
 51
321.99955
  0
ARC
  5
234
100
AcDbEntity
  8
M1
  6
CONTINUOUS
370
25
 62
     7
100
AcDbCircle
 10
143.218186
 20
326.297783
 40
2.99994
100
AcDbArc
 50
120.000656
 51
223.003403
  0
ARC
  5
235
100
AcDbEntity
  8
M1
  6
CONTINUOUS
370
25
 62
     7
100
AcDbCircle
 10
149.47557
 20
329.910393
 40
3.000014
100
AcDbArc
 50
45.826351
 51
119.999935
  0
ARC
  5
236
100
AcDbEntity
  8
M1
  6
CONTINUOUS
370
25
 62
     7
100
AcDbCircle
 10
156.868882
 20
325.640495
 40
2.000056
100
AcDbArc
 50
338.000854
 51
420.815979
  0
ARC
  5
237
100
AcDbEntity
  8
M1
  6
CONTINUOUS
370
25
 62
     7
100
AcDbCircle
 10
164.286422
 20
322.643593
 40
2.00001
100
AcDbArc
 50
75.182793
 51
158.001266
  0
ARC
  5
238
100
AcDbEntity
  8
M1
  6
CONTINUOUS
370
25
 62
     7
100
AcDbCircle
 10
162.24022
 20
314.909691
 40
2.999938
100
AcDbArc
 50
158.000031
 51
255.180305
  0
ARC
  5
239
100
AcDbEntity
  8
M1
  6
CONTINUOUS
370
25
 62
     7
100
AcDbCircle
 10
163.471116
 20
314.604897
 40
3.00003
100
AcDbArc
 50
256.997498
 51
360.0
  0
ARC
  5
23A
100
AcDbEntity
  8
M1
  6
CONTINUOUS
370
25
 62
     7
100
AcDbCircle
 10
172.471116
 20
353.579185
 40
43.000016
100
AcDbArc
 50
255.180618
 51
256.997124
  0
ARC
  5
23B
100
AcDbEntity
  8
M1
  6
CONTINUOUS
370
25
 62
     7
100
AcDbCircle
 10
152.968368
 20
318.655785
 40
3.000006
100
AcDbArc
 50
240.82045
 51
338.000465
  0
ARC
  5
23C
100
AcDbEntity
  8
M1
  6
CONTINUOUS
370
25
 62
     7
100
AcDbCircle
 10
172.471116
 20
353.579185
 40
43.000064
100
AcDbArc
 50
239.180679
 51
240.819209
  0
ARC
  5
23D
100
AcDbEntity
  8
M1
  6
CONTINUOUS
370
25
 62
     7
100
AcDbCircle
 10
151.977768
 20
319.227683
 40
2.99989
100
AcDbArc
 50
142.000198
 51
239.181221
  0
ARC
  5
23E
100
AcDbEntity
  8
M1
  6
CONTINUOUS
370
25
 62
     7
100
AcDbCircle
 10
156.076522
 20
326.097983
 40
1.999992
100
AcDbArc
 50
59.182804
 51
142.000835
  0
ARC
  5
23F
100
AcDbEntity
  8
M1
  6
CONTINUOUS
370
25
 62
     7
100
AcDbCircle
 10
206.246018
 20
334.079185
 40
6.00004
100
AcDbArc
 50
240.000214
 51
419.999771
  0
ARC
  5
240
100
AcDbEntity
  8
M1
  6
CONTINUOUS
370
25
 62
     7
100
AcDbCircle
 10
195.466476
 20
329.910393
 40
3.000006
100
AcDbArc
 50
60.000069
 51
134.172813
  0
ARC
  5
241
100
AcDbEntity
  8
M1
  6
CONTINUOUS
370
25
 62
     7
100
AcDbCircle
 10
172.471116
 20
353.579185
 40
30.000034
100
AcDbArc
 50
285.826477
 51
314.173342
  0
ARC
  5
242
100
AcDbEntity
  8
M1
  6
CONTINUOUS
370
25
 62
     7
100
AcDbCircle
 10
180.655686
 20
322.643593
 40
2.00005
100
AcDbArc
 50
21.998737
 51
104.817211
  0
ARC
  5
243
100
AcDbEntity
  8
M1
  6
CONTINUOUS
370
25
 62
     7
100
AcDbCircle
 10
172.471116
 20
353.579185
 40
42.999942
100
AcDbArc
 50
283.002716
 51
284.819223
  0
ARC
  5
244
100
AcDbEntity
  8
M1
  6
CONTINUOUS
370
25
 62
     7
100
AcDbCircle
 10
182.70189
 20
314.909691
 40
3.0
100
AcDbArc
 50
284.819672
 51
381.999947
  0
ARC
  5
245
100
AcDbEntity
  8
M1
  6
CONTINUOUS
370
25
 62
     7
100
AcDbCircle
 10
181.471116
 20
314.604789
 40
3.0
100
AcDbArc
 50
180.0
 51
283.000298
  0
ARC
  5
246
100
AcDbEntity
  8
M1
  6
CONTINUOUS
370
25
 62
     7
100
AcDbCircle
 10
181.471116
 20
321.830085
 40
3.000046
100
AcDbArc
 50
105.827469
 51
180.0
  0
ARC
  5
247
100
AcDbEntity
  8
M1
  6
CONTINUOUS
370
25
 62
     7
100
AcDbCircle
 10
188.865586
 20
326.097983
 40
2.000062
100
AcDbArc
 50
37.998085
 51
120.817192
  0
ARC
  5
248
100
AcDbEntity
  8
M1
  6
CONTINUOUS
370
25
 62
     7
100
AcDbCircle
 10
195.169724
 20
331.023185
 40
2.000056
100
AcDbArc
 50
135.180511
 51
217.998817
  0
ARC
  5
249
100
AcDbEntity
  8
M1
  6
CONTINUOUS
370
25
 62
     7
100
AcDbCircle
 10
200.844406
 20
325.384285
 40
2.999994
100
AcDbArc
 50
218.000458
 51
315.179482
  0
ARC
  5
24A
100
AcDbEntity
  8
M1
  6
CONTINUOUS
370
25
 62
     7
100
AcDbCircle
 10
201.7238
 20
326.297783
 40
3.000002
100
AcDbArc
 50
316.997375
 51
420.000198
  0
ARC
  5
24B
100
AcDbEntity
  8
M1
  6
CONTINUOUS
370
25
 62
     7
100
AcDbCircle
 10
172.471116
 20
353.579185
 40
43.0
100
AcDbArc
 50
315.180603
 51
316.997061
  0
ARC
  5
24C
100
AcDbEntity
  8
M1
  6
CONTINUOUS
370
25
 62
     7
100
AcDbCircle
 10
192.96428
 20
319.227683
 40
3.00006
100
AcDbArc
 50
300.819763
 51
398.00045
  0
ARC
  5
24D
100
AcDbEntity
  8
M1
  6
CONTINUOUS
370
25
 62
     7
100
AcDbCircle
 10
172.471116
 20
353.579185
 40
42.999958
100
AcDbArc
 50
299.180664
 51
300.819196
  0
ARC
  5
24E
100
AcDbEntity
  8
M1
  6
CONTINUOUS
370
25
 62
     7
100
AcDbCircle
 10
191.973678
 20
318.655785
 40
2.999978
100
AcDbArc
 50
202.001862
 51
299.180565
  0
ARC
  5
24F
100
AcDbEntity
  8
M1
  6
CONTINUOUS
370
25
 62
     7
100
AcDbCircle
 10
188.073226
 20
325.640495
 40
1.999944
100
AcDbArc
 50
119.182495
 51
201.999146
  0
CIRCLE
  5
250
100
AcDbEntity
  8
M1
  6
CONTINUOUS
370
25
 62
     7
100
AcDbCircle
 10
172.471116
 20
314.579185
 40
2.454956
  0
CIRCLE
  5
251
100
AcDbEntity
  8
M1
  6
CONTINUOUS
370
13
 62
     7
100
AcDbCircle
 10
172.471116
 20
314.579185
 40
3.0
  0
ARC
  5
252
100
AcDbEntity
  8
M1
  6
CONTINUOUS
370
13
 62
     7
100
AcDbCircle
 10
172.471116
 20
353.579185
 40
38.999984
100
AcDbArc
 50
263.515808
 51
276.737132
  0
CIRCLE
  5
253
100
AcDbEntity
  8
M1
  6
CONTINUOUS
370
25
 62
     7
100
AcDbCircle
 10
206.246018
 20
334.079185
 40
2.454956
  0
CIRCLE
  5
254
100
AcDbEntity
  8
M1
  6
CONTINUOUS
370
13
 62
     7
100
AcDbCircle
 10
206.246018
 20
334.079185
 40
3.0
  0
ARC
  5
255
100
AcDbEntity
  8
M1
  6
CONTINUOUS
370
13
 62
     7
100
AcDbCircle
 10
172.471116
 20
353.579185
 40
38.99997
100
AcDbArc
 50
323.515869
 51
336.737247
  0
CIRCLE
  5
256
100
AcDbEntity
  8
M1
  6
CONTINUOUS
370
25
 62
     7
100
AcDbCircle
 10
206.246018
 20
373.079185
 40
2.454956
  0
CIRCLE
  5
257
100
AcDbEntity
  8
M1
  6
CONTINUOUS
370
13
 62
     7
100
AcDbCircle
 10
206.246018
 20
373.079185
 40
3.0
  0
ARC
  5
258
100
AcDbEntity
  8
M1
  6
CONTINUOUS
370
13
 62
     7
100
AcDbCircle
 10
172.471116
 20
353.579185
 40
38.999946
100
AcDbArc
 50
23.515867
 51
36.73735
  0
CIRCLE
  5
259
100
AcDbEntity
  8
M1
  6
CONTINUOUS
370
25
 62
     7
100
AcDbCircle
 10
172.471116
 20
392.579185
 40
2.454956
  0
CIRCLE
  5
25A
100
AcDbEntity
  8
M1
  6
CONTINUOUS
370
13
 62
     7
100
AcDbCircle
 10
172.471116
 20
392.579185
 40
3.0
  0
ARC
  5
25B
100
AcDbEntity
  8
M1
  6
CONTINUOUS
370
13
 62
     7
100
AcDbCircle
 10
172.471116
 20
353.579185
 40
38.99998
100
AcDbArc
 50
83.516075
 51
96.737393
  0
CIRCLE
  5
25C
100
AcDbEntity
  8
M1
  6
CONTINUOUS
370
25
 62
     7
100
AcDbCircle
 10
138.69609
 20
373.079185
 40
2.455018
  0
CIRCLE
  5
25D
100
AcDbEntity
  8
M1
  6
CONTINUOUS
370
13
 62
     7
100
AcDbCircle
 10
138.69609
 20
373.079185
 40
3.0
  0
ARC
  5
25E
100
AcDbEntity
  8
M1
  6
CONTINUOUS
370
13
 62
     7
100
AcDbCircle
 10
172.471116
 20
353.579185
 40
39.000064
100
AcDbArc
 50
143.515961
 51
156.737261
  0
ARC
  5
25F
100
AcDbEntity
  8
M1
  6
CONTINUOUS
370
25
 62
     7
100
AcDbCircle
 10
172.471116
 20
353.579185
 40
52.499938
100
AcDbArc
 50
56.20895
 51
63.79105
  0
ARC
  5
260
100
AcDbEntity
  8
M1
  6
CONTINUOUS
370
25
 62
     7
100
AcDbCircle
 10
196.540818
 20
402.475975
 40
2.000056
100
AcDbArc
 50
158.000854
 51
243.790741
  0
ARC
  5
261
100
AcDbEntity
  8
M1
  6
CONTINUOUS
370
25
 62
     7
100
AcDbCircle
 10
199.544724
 20
409.911003
 40
1.999984
100
AcDbArc
 50
64.32917
 51
158.000359
  0
ARC
  5
262
100
AcDbEntity
  8
M1
  6
CONTINUOUS
370
25
 62
     7
100
AcDbCircle
 10
172.471116
 20
353.579185
 40
64.499946
100
AcDbArc
 50
55.669464
 51
64.330573
  0
ARC
  5
263
100
AcDbEntity
  8
M1
  6
CONTINUOUS
370
25
 62
     7
100
AcDbCircle
 10
207.718978
 20
405.191581
 40
2.00006
100
AcDbArc
 50
321.999115
 51
415.668304
  0
ARC
  5
264
100
AcDbEntity
  8
M1
  6
CONTINUOUS
370
25
 62
     7
100
AcDbCircle
 10
202.78209
 20
398.872581
 40
1.999932
100
AcDbArc
 50
236.208572
 51
322.000107
  0
ARC
  5
265
100
AcDbEntity
  8
M1
  6
CONTINUOUS
370
25
 62
     7
100
AcDbCircle
 10
172.471116
 20
353.579185
 40
52.49997
100
AcDbArc
 50
116.208946
 51
123.791028
  0
ARC
  5
266
100
AcDbEntity
  8
M1
  6
CONTINUOUS
370
25
 62
     7
100
AcDbCircle
 10
142.16008
 20
398.872581
 40
1.999956
100
AcDbArc
 50
217.999893
 51
303.791428
  0
ARC
  5
267
100
AcDbEntity
  8
M1
  6
CONTINUOUS
370
25
 62
     7
100
AcDbCircle
 10
137.223068
 20
405.191581
 40
1.999902
100
AcDbArc
 50
124.330254
 51
218.001961
  0
ARC
  5
268
100
AcDbEntity
  8
M1
  6
CONTINUOUS
370
25
 62
     7
100
AcDbCircle
 10
172.471116
 20
353.579185
 40
64.500016
100
AcDbArc
 50
115.669426
 51
124.330625
  0
ARC
  5
269
100
AcDbEntity
  8
M1
  6
CONTINUOUS
370
25
 62
     7
100
AcDbCircle
 10
145.397384
 20
409.911003
 40
2.000044
100
AcDbArc
 50
21.998333
 51
115.667683
  0
ARC
  5
26A
100
AcDbEntity
  8
M1
  6
CONTINUOUS
370
25
 62
     7
100
AcDbCircle
 10
148.401412
 20
402.475975
 40
1.999998
100
AcDbArc
 50
296.209259
 51
382.000458
  0
ARC
  5
26B
100
AcDbEntity
  8
M1
  6
CONTINUOUS
370
25
 62
     7
100
AcDbCircle
 10
172.471116
 20
353.579185
 40
52.500072
100
AcDbArc
 50
176.208954
 51
183.790932
  0
ARC
  5
26C
100
AcDbEntity
  8
M1
  6
CONTINUOUS
370
25
 62
     7
100
AcDbCircle
 10
118.090316
 20
349.975791
 40
1.999968
100
AcDbArc
 50
278.001129
 51
363.792717
  0
ARC
  5
26D
100
AcDbEntity
  8
M1
  6
CONTINUOUS
370
25
 62
     7
100
AcDbCircle
 10
110.14952
 20
348.859795
 40
2.00004
100
AcDbArc
 50
184.33252
 51
277.997307
  0
ARC
  5
26E
100
AcDbEntity
  8
M1
  6
CONTINUOUS
370
25
 62
     7
100
AcDbCircle
 10
172.471116
 20
353.579185
 40
64.500062
100
AcDbArc
 50
175.669479
 51
184.330518
  0
ARC
  5
26F
100
AcDbEntity
  8
M1
  6
CONTINUOUS
370
25
 62
     7
100
AcDbCircle
 10
110.14952
 20
358.298575
 40
1.999952
100
AcDbArc
 50
82.002319
 51
175.67009
  0
ARC
  5
270
100
AcDbEntity
  8
M1
  6
CONTINUOUS
370
25
 62
     7
100
AcDbCircle
 10
118.090316
 20
357.182701
 40
1.999988
100
AcDbArc
 50
356.20639
 51
442.002312
  0
ARC
  5
271
100
AcDbEntity
  8
M1
  6
CONTINUOUS
370
25
 62
     7
100
AcDbCircle
 10
172.471116
 20
353.579185
 40
52.500008
100
AcDbArc
 50
236.208847
 51
243.790931
  0
ARC
  5
272
100
AcDbEntity
  8
M1
  6
CONTINUOUS
370
25
 62
     7
100
AcDbCircle
 10
148.40129
 20
304.682395
 40
2.000056
100
AcDbArc
 50
338.000854
 51
423.790939
  0
ARC
  5
273
100
AcDbEntity
  8
M1
  6
CONTINUOUS
370
25
 62
     7
100
AcDbCircle
 10
145.397384
 20
297.247383
 40
1.999946
100
AcDbArc
 50
244.332504
 51
338.001259
  0
ARC
  5
274
100
AcDbEntity
  8
M1
  6
CONTINUOUS
370
25
 62
     7
100
AcDbCircle
 10
172.471116
 20
353.579185
 40
64.500076
100
AcDbArc
 50
235.669418
 51
244.330579
  0
ARC
  5
275
100
AcDbEntity
  8
M1
  6
CONTINUOUS
370
25
 62
     7
100
AcDbCircle
 10
137.223068
 20
301.966789
 40
2.000022
100
AcDbArc
 50
141.997696
 51
235.670982
  0
ARC
  5
276
100
AcDbEntity
  8
M1
  6
CONTINUOUS
370
25
 62
     7
100
AcDbCircle
 10
142.160018
 20
308.285789
 40
2.000034
100
AcDbArc
 50
56.210518
 51
141.998772
  0
ARC
  5
277
100
AcDbEntity
  8
M1
  6
CONTINUOUS
370
25
 62
     7
100
AcDbCircle
 10
172.471116
 20
353.579185
 40
52.500038
100
AcDbArc
 50
296.208923
 51
303.79094
  0
ARC
  5
278
100
AcDbEntity
  8
M1
  6
CONTINUOUS
370
25
 62
     7
100
AcDbCircle
 10
202.782028
 20
308.285789
 40
1.999956
100
AcDbArc
 50
37.999893
 51
123.791183
  0
ARC
  5
279
100
AcDbEntity
  8
M1
  6
CONTINUOUS
370
25
 62
     7
100
AcDbCircle
 10
207.718978
 20
301.966789
 40
1.999998
100
AcDbArc
 50
304.330475
 51
397.998833
  0
ARC
  5
27A
100
AcDbEntity
  8
M1
  6
CONTINUOUS
370
25
 62
     7
100
AcDbCircle
 10
172.471116
 20
353.579185
 40
64.500016
100
AcDbArc
 50
295.669434
 51
304.330504
  0
ARC
  5
27B
100
AcDbEntity
  8
M1
  6
CONTINUOUS
370
25
 62
     7
100
AcDbCircle
 10
199.544724
 20
297.247383
 40
1.999938
100
AcDbArc
 50
202.000046
 51
295.670639
  0
ARC
  5
27C
100
AcDbEntity
  8
M1
  6
CONTINUOUS
370
25
 62
     7
100
AcDbCircle
 10
196.540818
 20
304.682395
 40
1.99993
100
AcDbArc
 50
116.21022
 51
201.999146
  0
ARC
  5
27D
100
AcDbEntity
  8
M1
  6
CONTINUOUS
370
25
 62
     7
100
AcDbCircle
 10
117.92302
 20
468.059197
 40
7.999858
100
AcDbArc
 50
149.99942
 51
210.000591
  0
ARC
  5
27E
100
AcDbEntity
  8
M1
  6
CONTINUOUS
370
25
 62
     7
100
AcDbCircle
 10
100.603074
 20
458.059197
 40
9.99981
100
AcDbArc
 50
30.000629
 51
90.0
  0
ARC
  5
27F
100
AcDbEntity
  8
M1
  6
CONTINUOUS
370
25
 62
     7
100
AcDbCircle
 10
117.92302
 20
468.059197
 40
9.99981
100
AcDbArc
 50
149.999374
 51
210.000633
  0
ARC
  5
280
100
AcDbEntity
  8
M1
  6
CONTINUOUS
370
25
 62
     7
100
AcDbCircle
 10
100.603074
 20
458.059197
 40
7.999858
100
AcDbArc
 50
30.000586
 51
90.0
  0
ARC
  5
281
100
AcDbEntity
  8
M1
  6
CONTINUOUS
370
25
 62
     7
100
AcDbCircle
 10
692.660096
 20
353.523003
 40
91.000046
100
AcDbArc
 50
0.0
 51
58.731918
  0
CIRCLE
  5
282
100
AcDbEntity
  8
M1
  6
CONTINUOUS
370
25
 62
     7
100
AcDbCircle
 10
692.660096
 20
353.523003
 40
81.000046
  0
CIRCLE
  5
283
100
AcDbEntity
  8
M1
  6
CONTINUOUS
370
25
 62
     7
100
AcDbCircle
 10
629.878892
 20
389.782799
 40
5.0
  0
CIRCLE
  5
284
100
AcDbEntity
  8
M1
  6
CONTINUOUS
370
25
 62
     7
100
AcDbCircle
 10
692.671402
 20
426.023003
 40
5.0
  0
CIRCLE
  5
285
100
AcDbEntity
  8
M1
  6
CONTINUOUS
370
25
 62
     7
100
AcDbCircle
 10
755.452622
 20
389.763297
 40
4.999996
  0
CIRCLE
  5
286
100
AcDbEntity
  8
M1
  6
CONTINUOUS
370
25
 62
     7
100
AcDbCircle
 10
755.441392
 20
317.263283
 40
4.999996
  0
CIRCLE
  5
287
100
AcDbEntity
  8
M1
  6
CONTINUOUS
370
25
 62
     7
100
AcDbCircle
 10
692.648896
 20
281.022987
 40
5.0
  0
CIRCLE
  5
288
100
AcDbEntity
  8
M1
  6
CONTINUOUS
370
25
 62
     7
100
AcDbCircle
 10
629.867692
 20
317.282691
 40
5.0
  0
ARC
  5
289
100
AcDbEntity
  8
M1
  6
CONTINUOUS
370
13
 62
     7
100
AcDbCircle
 10
692.660096
 20
353.523003
 40
39.000022
100
AcDbArc
 50
323.253937
 51
336.475328
  0
ARC
  5
28A
100
AcDbEntity
  8
M1
  6
CONTINUOUS
370
25
 62
     7
100
AcDbCircle
 10
692.660096
 20
353.523003
 40
9.99994
100
AcDbArc
 50
194.4729
 51
525.5177
  0
CIRCLE
  5
28B
100
AcDbEntity
  8
M1
  6
CONTINUOUS
370
13
 62
     7
100
AcDbCircle
 10
726.432046
 20
334.017783
 40
3.0
  0
CIRCLE
  5
28C
100
AcDbEntity
  8
M1
  6
CONTINUOUS
370
25
 62
     7
100
AcDbCircle
 10
726.432046
 20
334.017783
 40
2.45501
  0
ARC
  5
28D
100
AcDbEntity
  8
M1
  6
CONTINUOUS
370
25
 62
     7
100
AcDbCircle
 10
658.888198
 20
373.028191
 40
6.000012
100
AcDbArc
 50
59.991322
 51
239.991322
  0
CIRCLE
  5
28E
100
AcDbEntity
  8
M1
  6
CONTINUOUS
370
25
 62
     7
100
AcDbCircle
 10
692.660096
 20
353.523003
 40
27.500046
  0
CIRCLE
  5
28F
100
AcDbEntity
  8
M1
  6
CONTINUOUS
370
25
 62
     7
100
AcDbCircle
 10
692.660096
 20
353.523003
 40
23.5
  0
ARC
  5
290
100
AcDbEntity
  8
M1
  6
CONTINUOUS
370
25
 62
     7
100
AcDbCircle
 10
692.660096
 20
353.523003
 40
42.999942
100
AcDbArc
 50
195.171844
 51
196.988351
  0
ARC
  5
291
100
AcDbEntity
  8
M1
  6
CONTINUOUS
370
25
 62
     7
100
AcDbCircle
 10
654.409194
 20
365.221885
 40
2.999966
100
AcDbArc
 50
59.990887
 51
162.9939
  0
ARC
  5
292
100
AcDbEntity
  8
M1
  6
CONTINUOUS
370
25
 62
     7
100
AcDbCircle
 10
692.660096
 20
353.523003
 40
42.999908
100
AcDbArc
 50
162.993958
 51
164.810382
  0
ARC
  5
293
100
AcDbEntity
  8
M1
  6
CONTINUOUS
370
25
 62
     7
100
AcDbCircle
 10
692.660096
 20
353.523003
 40
42.999988
100
AcDbArc
 50
179.17186
 51
180.810328
  0
ARC
  5
294
100
AcDbEntity
  8
M1
  6
CONTINUOUS
370
25
 62
     7
100
AcDbCircle
 10
654.057602
 20
364.003593
 40
3.000002
100
AcDbArc
 50
164.811035
 51
261.990662
  0
ARC
  5
295
100
AcDbEntity
  8
M1
  6
CONTINUOUS
370
25
 62
     7
100
AcDbCircle
 10
652.664292
 20
354.101097
 40
2.999966
100
AcDbArc
 50
81.990654
 51
179.17292
  0
ARC
  5
296
100
AcDbEntity
  8
M1
  6
CONTINUOUS
370
25
 62
     7
100
AcDbCircle
 10
652.664094
 20
352.957297
 40
2.999994
100
AcDbArc
 50
180.810181
 51
277.990021
  0
ARC
  5
297
100
AcDbEntity
  8
M1
  6
CONTINUOUS
370
25
 62
     7
100
AcDbCircle
 10
654.05429
 20
343.054375
 40
3.000052
100
AcDbArc
 50
97.991753
 51
195.171181
  0
ARC
  5
298
100
AcDbEntity
  8
M1
  6
CONTINUOUS
370
25
 62
     7
100
AcDbCircle
 10
654.405502
 20
341.835991
 40
3.000032
100
AcDbArc
 50
196.989258
 51
299.991325
  0
ARC
  5
299
100
AcDbEntity
  8
M1
  6
CONTINUOUS
370
25
 62
     7
100
AcDbCircle
 10
692.660096
 20
353.523003
 40
52.499908
100
AcDbArc
 50
176.200104
 51
183.782203
  0
ARC
  5
29A
100
AcDbEntity
  8
M1
  6
CONTINUOUS
370
25
 62
     7
100
AcDbCircle
 10
692.660096
 20
353.523003
 40
64.5
100
AcDbArc
 50
175.660553
 51
184.321628
  0
ARC
  5
29B
100
AcDbEntity
  8
M1
  6
CONTINUOUS
370
25
 62
     7
100
AcDbCircle
 10
630.339294
 20
358.252097
 40
2.0
100
AcDbArc
 50
81.992363
 51
175.661308
  0
ARC
  5
29C
100
AcDbEntity
  8
M1
  6
CONTINUOUS
370
25
 62
     7
100
AcDbCircle
 10
638.279998
 20
357.134789
 40
2.0
100
AcDbArc
 50
356.201172
 51
441.992805
  0
ARC
  5
29D
100
AcDbEntity
  8
M1
  6
CONTINUOUS
370
25
 62
     7
100
AcDbCircle
 10
630.3378
 20
348.813285
 40
2.0
100
AcDbArc
 50
184.323837
 51
277.992981
  0
ARC
  5
29E
100
AcDbEntity
  8
M1
  6
CONTINUOUS
370
25
 62
     7
100
AcDbCircle
 10
638.2789
 20
349.928001
 40
2.000036
100
AcDbArc
 50
277.989838
 51
363.781395
  0
ARC
  5
29F
100
AcDbEntity
  8
M1
  6
CONTINUOUS
370
25
 62
     7
100
AcDbCircle
 10
692.660096
 20
353.523003
 40
29.999958
100
AcDbArc
 50
165.81778
 51
194.164549
  0
ARC
  5
2A0
100
AcDbEntity
  8
M1
  6
CONTINUOUS
370
25
 62
     7
100
AcDbCircle
 10
660.665894
 20
361.608299
 40
2.999944
100
AcDbArc
 50
345.817596
 51
419.990349
  0
ARC
  5
2A1
100
AcDbEntity
  8
M1
  6
CONTINUOUS
370
25
 62
     7
100
AcDbCircle
 10
661.778092
 20
361.907401
 40
2.00001
100
AcDbArc
 50
261.990204
 51
344.810486
  0
ARC
  5
2A2
100
AcDbEntity
  8
M1
  6
CONTINUOUS
370
25
 62
     7
100
AcDbCircle
 10
660.663498
 20
353.985497
 40
2.00001
100
AcDbArc
 50
359.174683
 51
441.992805
  0
ARC
  5
2A3
100
AcDbEntity
  8
M1
  6
CONTINUOUS
370
25
 62
     7
100
AcDbCircle
 10
660.663392
 20
353.070397
 40
2.000036
100
AcDbArc
 50
277.989838
 51
360.810471
  0
ARC
  5
2A4
100
AcDbEntity
  8
M1
  6
CONTINUOUS
370
25
 62
     7
100
AcDbCircle
 10
661.775498
 20
345.148185
 40
2.000002
100
AcDbArc
 50
15.171156
 51
97.992987
  0
ARC
  5
2A5
100
AcDbEntity
  8
M1
  6
CONTINUOUS
370
25
 62
     7
100
AcDbCircle
 10
660.663392
 20
345.447685
 40
2.999994
100
AcDbArc
 50
299.991333
 51
374.16404
  0
ARC
  5
2A6
100
AcDbEntity
  8
M1
  6
CONTINUOUS
370
25
 62
     7
100
AcDbCircle
 10
692.666198
 20
392.523003
 40
6.0
100
AcDbArc
 50
0.0
 51
179.99942
  0
ARC
  5
2A7
100
AcDbEntity
  8
M1
  6
CONTINUOUS
370
25
 62
     7
100
AcDbCircle
 10
683.6651
 20
385.273399
 40
3.000004
100
AcDbArc
 50
285.817108
 51
359.992432
  0
ARC
  5
2A8
100
AcDbEntity
  8
M1
  6
CONTINUOUS
370
25
 62
     7
100
AcDbCircle
 10
692.660096
 20
353.523003
 40
30.000048
100
AcDbArc
 50
105.817612
 51
134.164436
  0
ARC
  5
2A9
100
AcDbEntity
  8
M1
  6
CONTINUOUS
370
25
 62
     7
100
AcDbCircle
 10
669.964996
 20
376.082481
 40
1.99999
100
AcDbArc
 50
315.170013
 51
397.989937
  0
ARC
  5
2AA
100
AcDbEntity
  8
M1
  6
CONTINUOUS
370
25
 62
     7
100
AcDbCircle
 10
692.660096
 20
353.523003
 40
42.999992
100
AcDbArc
 50
135.171753
 51
136.98823
  0
ARC
  5
2AB
100
AcDbEntity
  8
M1
  6
CONTINUOUS
370
25
 62
     7
100
AcDbCircle
 10
664.291092
 20
381.722373
 40
2.999988
100
AcDbArc
 50
37.991306
 51
135.17104
  0
ARC
  5
2AC
100
AcDbEntity
  8
M1
  6
CONTINUOUS
370
25
 62
     7
100
AcDbCircle
 10
663.4115
 20
380.808983
 40
2.999954
100
AcDbArc
 50
136.988144
 51
239.99176
  0
ARC
  5
2AD
100
AcDbEntity
  8
M1
  6
CONTINUOUS
370
25
 62
     7
100
AcDbCircle
 10
669.668304
 20
377.195273
 40
2.999948
100
AcDbArc
 50
239.990341
 51
314.165604
  0
ARC
  5
2AE
100
AcDbEntity
  8
M1
  6
CONTINUOUS
370
25
 62
     7
100
AcDbCircle
 10
677.062394
 20
381.464195
 40
1.99996
100
AcDbArc
 50
299.170715
 51
381.991348
  0
ARC
  5
2AF
100
AcDbEntity
  8
M1
  6
CONTINUOUS
370
25
 62
     7
100
AcDbCircle
 10
684.480194
 20
384.459891
 40
2.000032
100
AcDbArc
 50
201.992813
 51
284.808929
  0
ARC
  5
2B0
100
AcDbEntity
  8
M1
  6
CONTINUOUS
370
25
 62
     7
100
AcDbCircle
 10
682.435302
 20
392.194083
 40
3.000068
100
AcDbArc
 50
104.810905
 51
201.991142
  0
ARC
  5
2B1
100
AcDbEntity
  8
M1
  6
CONTINUOUS
370
25
 62
     7
100
AcDbCircle
 10
683.666198
 20
392.498679
 40
3.0
100
AcDbArc
 50
0.0
 51
103.000534
  0
ARC
  5
2B2
100
AcDbEntity
  8
M1
  6
CONTINUOUS
370
25
 62
     7
100
AcDbCircle
 10
692.660096
 20
353.523003
 40
43.000058
100
AcDbArc
 50
102.993973
 51
104.810358
  0
ARC
  5
2B3
100
AcDbEntity
  8
M1
  6
CONTINUOUS
370
25
 62
     7
100
AcDbCircle
 10
673.162902
 20
388.449485
 40
2.999932
100
AcDbArc
 50
21.989628
 51
119.17281
  0
ARC
  5
2B4
100
AcDbEntity
  8
M1
  6
CONTINUOUS
370
25
 62
     7
100
AcDbCircle
 10
692.660096
 20
353.523003
 40
43.000026
100
AcDbArc
 50
119.171806
 51
120.810235
  0
ARC
  5
2B5
100
AcDbEntity
  8
M1
  6
CONTINUOUS
370
25
 62
     7
100
AcDbCircle
 10
672.172196
 20
387.877677
 40
2.999996
100
AcDbArc
 50
120.810326
 51
217.989471
  0
ARC
  5
2B6
100
AcDbEntity
  8
M1
  6
CONTINUOUS
370
25
 62
     7
100
AcDbCircle
 10
676.26979
 20
381.006675
 40
1.99998
100
AcDbArc
 50
217.991577
 51
300.811569
  0
ARC
  5
2B7
100
AcDbEntity
  8
M1
  6
CONTINUOUS
370
25
 62
     7
100
AcDbCircle
 10
726.438096
 20
373.017783
 40
5.999986
100
AcDbArc
 50
299.991333
 51
479.991272
  0
ARC
  5
2B8
100
AcDbEntity
  8
M1
  6
CONTINUOUS
370
25
 62
     7
100
AcDbCircle
 10
715.659302
 20
377.188193
 40
2.999996
100
AcDbArc
 50
225.818314
 51
299.991196
  0
ARC
  5
2B9
100
AcDbEntity
  8
M1
  6
CONTINUOUS
370
25
 62
     7
100
AcDbCircle
 10
692.660096
 20
353.523003
 40
30.000008
100
AcDbArc
 50
45.81773
 51
74.164486
  0
ARC
  5
2BA
100
AcDbEntity
  8
M1
  6
CONTINUOUS
370
25
 62
     7
100
AcDbCircle
 10
700.849602
 20
384.457389
 40
2.00003
100
AcDbArc
 50
255.170288
 51
337.99128
  0
ARC
  5
2BB
100
AcDbEntity
  8
M1
  6
CONTINUOUS
370
25
 62
     7
100
AcDbCircle
 10
692.660096
 20
353.523003
 40
42.999992
100
AcDbArc
 50
75.171837
 51
76.988252
  0
ARC
  5
2BC
100
AcDbEntity
  8
M1
  6
CONTINUOUS
370
25
 62
     7
100
AcDbCircle
 10
702.896996
 20
392.191001
 40
2.99995
100
AcDbArc
 50
337.989746
 51
435.172501
  0
ARC
  5
2BD
100
AcDbEntity
  8
M1
  6
CONTINUOUS
370
25
 62
     7
100
AcDbCircle
 10
701.666198
 20
392.495995
 40
3.00002
100
AcDbArc
 50
76.989372
 51
179.990677
  0
ARC
  5
2BE
100
AcDbEntity
  8
M1
  6
CONTINUOUS
370
25
 62
     7
100
AcDbCircle
 10
701.6651
 20
385.270683
 40
3.0
100
AcDbArc
 50
179.990097
 51
254.162949
  0
ARC
  5
2BF
100
AcDbEntity
  8
M1
  6
CONTINUOUS
370
25
 62
     7
100
AcDbCircle
 10
709.058998
 20
381.001701
 40
2.000056
100
AcDbArc
 50
239.173737
 51
321.989861
  0
ARC
  5
2C0
100
AcDbEntity
  8
M1
  6
CONTINUOUS
370
25
 62
     7
100
AcDbCircle
 10
715.362298
 20
376.075493
 40
1.999936
100
AcDbArc
 50
141.991913
 51
224.809898
  0
ARC
  5
2C1
100
AcDbEntity
  8
M1
  6
CONTINUOUS
370
25
 62
     7
100
AcDbCircle
 10
721.037826
 20
381.713585
 40
3.000008
100
AcDbArc
 50
44.811039
 51
141.991863
  0
ARC
  5
2C2
100
AcDbEntity
  8
M1
  6
CONTINUOUS
370
25
 62
     7
100
AcDbCircle
 10
721.9171
 20
380.799889
 40
2.99999
100
AcDbArc
 50
299.991211
 51
402.993217
  0
ARC
  5
2C3
100
AcDbEntity
  8
M1
  6
CONTINUOUS
370
25
 62
     7
100
AcDbCircle
 10
692.660096
 20
353.523003
 40
43.000076
100
AcDbArc
 50
42.994007
 51
44.810457
  0
ARC
  5
2C4
100
AcDbEntity
  8
M1
  6
CONTINUOUS
370
25
 62
     7
100
AcDbCircle
 10
713.1587
 20
387.871391
 40
2.999928
100
AcDbArc
 50
321.991516
 51
419.171646
  0
ARC
  5
2C5
100
AcDbEntity
  8
M1
  6
CONTINUOUS
370
25
 62
     7
100
AcDbCircle
 10
692.660096
 20
353.523003
 40
43.000046
100
AcDbArc
 50
59.171864
 51
60.810358
  0
ARC
  5
2C6
100
AcDbEntity
  8
M1
  6
CONTINUOUS
370
25
 62
     7
100
AcDbCircle
 10
712.168296
 20
388.443381
 40
2.999988
100
AcDbArc
 50
60.810265
 51
157.99041
  0
ARC
  5
2C7
100
AcDbEntity
  8
M1
  6
CONTINUOUS
370
25
 62
     7
100
AcDbCircle
 10
708.266602
 20
381.459403
 40
2.000004
100
AcDbArc
 50
157.994598
 51
240.811829
  0
ARC
  5
2C8
100
AcDbEntity
  8
M1
  6
CONTINUOUS
370
25
 62
     7
100
AcDbCircle
 10
726.432046
 20
334.017783
 40
6.0
100
AcDbArc
 50
239.991257
 51
419.991135
  0
ARC
  5
2C9
100
AcDbEntity
  8
M1
  6
CONTINUOUS
370
25
 62
     7
100
AcDbCircle
 10
724.654336
 20
345.437675
 40
3.000012
100
AcDbArc
 50
165.816101
 51
239.990585
  0
ARC
  5
2CA
100
AcDbEntity
  8
M1
  6
CONTINUOUS
370
25
 62
     7
100
AcDbCircle
 10
692.660096
 20
353.523003
 40
30.000032
100
AcDbArc
 50
345.817932
 51
374.164629
  0
ARC
  5
2CB
100
AcDbEntity
  8
M1
  6
CONTINUOUS
370
25
 62
     7
100
AcDbCircle
 10
723.544784
 20
361.897881
 40
1.999994
100
AcDbArc
 50
195.170319
 51
277.991692
  0
ARC
  5
2CC
100
AcDbEntity
  8
M1
  6
CONTINUOUS
370
25
 62
     7
100
AcDbCircle
 10
692.660096
 20
353.523003
 40
43.000054
100
AcDbArc
 50
15.171883
 51
16.9883
  0
ARC
  5
2CD
100
AcDbEntity
  8
M1
  6
CONTINUOUS
370
25
 62
     7
100
AcDbCircle
 10
731.265946
 20
363.991599
 40
2.99996
100
AcDbArc
 50
277.991577
 51
375.172615
  0
ARC
  5
2CE
100
AcDbEntity
  8
M1
  6
CONTINUOUS
370
25
 62
     7
100
AcDbCircle
 10
730.91478
 20
365.210075
 40
2.999994
100
AcDbArc
 50
16.988272
 51
119.990782
  0
ARC
  5
2CF
100
AcDbEntity
  8
M1
  6
CONTINUOUS
370
25
 62
     7
100
AcDbCircle
 10
724.656846
 20
361.598289
 40
3.000064
100
AcDbArc
 50
119.990204
 51
194.164139
  0
ARC
  5
2D0
100
AcDbEntity
  8
M1
  6
CONTINUOUS
370
25
 62
     7
100
AcDbCircle
 10
724.656792
 20
353.060477
 40
2.00001
100
AcDbArc
 50
179.172043
 51
261.991493
  0
ARC
  5
2D1
100
AcDbEntity
  8
M1
  6
CONTINUOUS
370
25
 62
     7
100
AcDbCircle
 10
723.542222
 20
345.138603
 40
2.000006
100
AcDbArc
 50
81.991066
 51
164.811501
  0
ARC
  5
2D2
100
AcDbEntity
  8
M1
  6
CONTINUOUS
370
25
 62
     7
100
AcDbCircle
 10
731.26268
 20
343.042503
 40
2.999994
100
AcDbArc
 50
344.811005
 51
441.99073
  0
ARC
  5
2D3
100
AcDbEntity
  8
M1
  6
CONTINUOUS
370
25
 62
     7
100
AcDbCircle
 10
730.911056
 20
341.824181
 40
3.000046
100
AcDbArc
 50
239.99176
 51
342.992401
  0
ARC
  5
2D4
100
AcDbEntity
  8
M1
  6
CONTINUOUS
370
25
 62
     7
100
AcDbCircle
 10
692.660096
 20
353.523003
 40
43.000004
100
AcDbArc
 50
342.99411
 51
344.810522
  0
ARC
  5
2D5
100
AcDbEntity
  8
M1
  6
CONTINUOUS
370
25
 62
     7
100
AcDbCircle
 10
732.65593
 20
352.944877
 40
2.999966
100
AcDbArc
 50
261.990784
 51
359.173485
  0
ARC
  5
2D6
100
AcDbEntity
  8
M1
  6
CONTINUOUS
370
25
 62
     7
100
AcDbCircle
 10
692.660096
 20
353.523003
 40
43.000042
100
AcDbArc
 50
359.171997
 51
360.810422
  0
ARC
  5
2D7
100
AcDbEntity
  8
M1
  6
CONTINUOUS
370
25
 62
     7
100
AcDbCircle
 10
732.656106
 20
354.088677
 40
3.00001
100
AcDbArc
 50
0.810176
 51
97.990451
  0
ARC
  5
2D8
100
AcDbEntity
  8
M1
  6
CONTINUOUS
370
25
 62
     7
100
AcDbCircle
 10
724.656906
 20
353.975577
 40
2.000044
100
AcDbArc
 50
97.99157
 51
180.810471
  0
ARC
  5
2D9
100
AcDbEntity
  8
M1
  6
CONTINUOUS
370
25
 62
     7
100
AcDbCircle
 10
692.654098
 20
314.522987
 40
6.0
100
AcDbArc
 50
179.990387
 51
359.991409
  0
ARC
  5
2DA
100
AcDbEntity
  8
M1
  6
CONTINUOUS
370
25
 62
     7
100
AcDbCircle
 10
701.655198
 20
321.772591
 40
2.999986
100
AcDbArc
 50
105.817039
 51
179.992424
  0
ARC
  5
2DB
100
AcDbEntity
  8
M1
  6
CONTINUOUS
370
25
 62
     7
100
AcDbCircle
 10
692.660096
 20
353.523003
 40
30.00002
100
AcDbArc
 50
285.817841
 51
314.164671
  0
ARC
  5
2DC
100
AcDbEntity
  8
M1
  6
CONTINUOUS
370
25
 62
     7
100
AcDbCircle
 10
715.3553
 20
330.963585
 40
1.99993
100
AcDbArc
 50
135.172012
 51
217.991638
  0
ARC
  5
2DD
100
AcDbEntity
  8
M1
  6
CONTINUOUS
370
25
 62
     7
100
AcDbCircle
 10
692.660096
 20
353.523003
 40
43.000016
100
AcDbArc
 50
315.171967
 51
316.988408
  0
ARC
  5
2DE
100
AcDbEntity
  8
M1
  6
CONTINUOUS
370
25
 62
     7
100
AcDbCircle
 10
721.029098
 20
325.323691
 40
2.99998
100
AcDbArc
 50
217.991074
 51
315.170929
  0
ARC
  5
2DF
100
AcDbEntity
  8
M1
  6
CONTINUOUS
370
25
 62
     7
100
AcDbCircle
 10
721.908738
 20
326.237083
 40
3.00005
100
AcDbArc
 50
316.987885
 51
419.990646
  0
ARC
  5
2E0
100
AcDbEntity
  8
M1
  6
CONTINUOUS
370
25
 62
     7
100
AcDbCircle
 10
715.652
 20
329.850685
 40
2.999954
100
AcDbArc
 50
59.990738
 51
134.165306
  0
ARC
  5
2E1
100
AcDbEntity
  8
M1
  6
CONTINUOUS
370
25
 62
     7
100
AcDbCircle
 10
708.257896
 20
325.581885
 40
2.000004
100
AcDbArc
 50
119.173019
 51
201.992729
  0
ARC
  5
2E2
100
AcDbEntity
  8
M1
  6
CONTINUOUS
370
25
 62
     7
100
AcDbCircle
 10
700.839996
 20
322.586189
 40
2.000006
100
AcDbArc
 50
21.990299
 51
104.809597
  0
ARC
  5
2E3
100
AcDbEntity
  8
M1
  6
CONTINUOUS
370
25
 62
     7
100
AcDbCircle
 10
702.884994
 20
314.851891
 40
2.99998
100
AcDbArc
 50
284.81134
 51
381.991455
  0
ARC
  5
2E4
100
AcDbEntity
  8
M1
  6
CONTINUOUS
370
25
 62
     7
100
AcDbCircle
 10
701.654098
 20
314.547295
 40
3.0
100
AcDbArc
 50
179.990677
 51
282.993027
  0
ARC
  5
2E5
100
AcDbEntity
  8
M1
  6
CONTINUOUS
370
25
 62
     7
100
AcDbCircle
 10
692.660096
 20
353.523003
 40
42.999984
100
AcDbArc
 50
282.993988
 51
284.810509
  0
ARC
  5
2E6
100
AcDbEntity
  8
M1
  6
CONTINUOUS
370
25
 62
     7
100
AcDbCircle
 10
712.157394
 20
318.596595
 40
2.999978
100
AcDbArc
 50
201.991791
 51
299.171829
  0
ARC
  5
2E7
100
AcDbEntity
  8
M1
  6
CONTINUOUS
370
25
 62
     7
100
AcDbCircle
 10
692.660096
 20
353.523003
 40
43.000008
100
AcDbArc
 50
299.171967
 51
300.810508
  0
ARC
  5
2E8
100
AcDbEntity
  8
M1
  6
CONTINUOUS
370
25
 62
     7
100
AcDbCircle
 10
713.148102
 20
319.168281
 40
3.0
100
AcDbArc
 50
300.810455
 51
397.991173
  0
ARC
  5
2E9
100
AcDbEntity
  8
M1
  6
CONTINUOUS
370
25
 62
     7
100
AcDbCircle
 10
709.050498
 20
326.039283
 40
2.000012
100
AcDbArc
 50
37.991993
 51
120.810749
  0
ARC
  5
2EA
100
AcDbEntity
  8
M1
  6
CONTINUOUS
370
25
 62
     7
100
AcDbCircle
 10
658.882096
 20
334.028191
 40
6.000058
100
AcDbArc
 50
119.990768
 51
299.991333
  0
ARC
  5
2EB
100
AcDbEntity
  8
M1
  6
CONTINUOUS
370
25
 62
     7
100
AcDbCircle
 10
669.660996
 20
329.857795
 40
2.999996
100
AcDbArc
 50
45.818317
 51
119.991474
  0
ARC
  5
2EC
100
AcDbEntity
  8
M1
  6
CONTINUOUS
370
25
 62
     7
100
AcDbCircle
 10
692.660096
 20
353.523003
 40
29.999948
100
AcDbArc
 50
225.817886
 51
254.164637
  0
ARC
  5
2ED
100
AcDbEntity
  8
M1
  6
CONTINUOUS
370
25
 62
     7
100
AcDbCircle
 10
684.470596
 20
322.588691
 40
2.000016
100
AcDbArc
 50
75.170174
 51
157.9907
  0
ARC
  5
2EE
100
AcDbEntity
  8
M1
  6
CONTINUOUS
370
25
 62
     7
100
AcDbCircle
 10
692.660096
 20
353.523003
 40
42.99998
100
AcDbArc
 50
255.171967
 51
256.988364
  0
ARC
  5
2EF
100
AcDbEntity
  8
M1
  6
CONTINUOUS
370
25
 62
     7
100
AcDbCircle
 10
682.423294
 20
314.855095
 40
3.0
100
AcDbArc
 50
157.992355
 51
255.171341
  0
ARC
  5
2F0
100
AcDbEntity
  8
M1
  6
CONTINUOUS
370
25
 62
     7
100
AcDbCircle
 10
683.654098
 20
314.549995
 40
2.99993
100
AcDbArc
 50
256.988983
 51
359.992134
  0
ARC
  5
2F1
100
AcDbEntity
  8
M1
  6
CONTINUOUS
370
25
 62
     7
100
AcDbCircle
 10
683.655198
 20
321.775383
 40
3.0
100
AcDbArc
 50
0.0
 51
74.174095
  0
ARC
  5
2F2
100
AcDbEntity
  8
M1
  6
CONTINUOUS
370
25
 62
     7
100
AcDbCircle
 10
676.261292
 20
326.044395
 40
1.999964
100
AcDbArc
 50
59.172161
 51
141.994015
  0
ARC
  5
2F3
100
AcDbEntity
  8
M1
  6
CONTINUOUS
370
25
 62
     7
100
AcDbCircle
 10
669.957992
 20
330.970589
 40
2.0
100
AcDbArc
 50
321.98999
 51
404.809601
  0
ARC
  5
2F4
100
AcDbEntity
  8
M1
  6
CONTINUOUS
370
25
 62
     7
100
AcDbCircle
 10
664.282394
 20
325.332497
 40
2.999988
100
AcDbArc
 50
224.811035
 51
321.989754
  0
ARC
  5
2F5
100
AcDbEntity
  8
M1
  6
CONTINUOUS
370
25
 62
     7
100
AcDbCircle
 10
663.403198
 20
326.246193
 40
2.999994
100
AcDbArc
 50
119.991325
 51
222.994186
  0
ARC
  5
2F6
100
AcDbEntity
  8
M1
  6
CONTINUOUS
370
25
 62
     7
100
AcDbCircle
 10
692.660096
 20
353.523003
 40
42.999932
100
AcDbArc
 50
222.994049
 51
224.81044
  0
ARC
  5
2F7
100
AcDbEntity
  8
M1
  6
CONTINUOUS
370
25
 62
     7
100
AcDbCircle
 10
672.161606
 20
319.174689
 40
2.999942
100
AcDbArc
 50
141.991364
 51
239.172279
  0
ARC
  5
2F8
100
AcDbEntity
  8
M1
  6
CONTINUOUS
370
25
 62
     7
100
AcDbCircle
 10
692.660096
 20
353.523003
 40
43.000012
100
AcDbArc
 50
239.171982
 51
240.810427
  0
ARC
  5
2F9
100
AcDbEntity
  8
M1
  6
CONTINUOUS
370
25
 62
     7
100
AcDbCircle
 10
673.151992
 20
318.602593
 40
2.999968
100
AcDbArc
 50
240.810379
 51
337.992088
  0
ARC
  5
2FA
100
AcDbEntity
  8
M1
  6
CONTINUOUS
370
25
 62
     7
100
AcDbCircle
 10
677.053696
 20
325.586693
 40
2.000052
100
AcDbArc
 50
337.991852
 51
420.810127
  0
CIRCLE
  5
2FB
100
AcDbEntity
  8
M1
  6
CONTINUOUS
370
25
 62
     7
100
AcDbCircle
 10
692.654098
 20
314.522987
 40
2.455002
  0
CIRCLE
  5
2FC
100
AcDbEntity
  8
M1
  6
CONTINUOUS
370
13
 62
     7
100
AcDbCircle
 10
692.654098
 20
314.522987
 40
3.0
  0
ARC
  5
2FD
100
AcDbEntity
  8
M1
  6
CONTINUOUS
370
13
 62
     7
100
AcDbCircle
 10
692.660096
 20
353.523003
 40
38.999936
100
AcDbArc
 50
263.253937
 51
276.475282
  0
CIRCLE
  5
2FE
100
AcDbEntity
  8
M1
  6
CONTINUOUS
370
25
 62
     7
100
AcDbCircle
 10
658.882096
 20
334.028281
 40
2.455002
  0
CIRCLE
  5
2FF
100
AcDbEntity
  8
M1
  6
CONTINUOUS
370
13
 62
     7
100
AcDbCircle
 10
658.882096
 20
334.028281
 40
3.0
  0
ARC
  5
300
100
AcDbEntity
  8
M1
  6
CONTINUOUS
370
13
 62
     7
100
AcDbCircle
 10
692.660096
 20
353.523003
 40
38.999974
100
AcDbArc
 50
203.25383
 51
216.475235
  0
CIRCLE
  5
301
100
AcDbEntity
  8
M1
  6
CONTINUOUS
370
25
 62
     7
100
AcDbCircle
 10
658.888198
 20
373.028191
 40
2.455002
  0
CIRCLE
  5
302
100
AcDbEntity
  8
M1
  6
CONTINUOUS
370
13
 62
     7
100
AcDbCircle
 10
658.888198
 20
373.028191
 40
3.0
  0
ARC
  5
303
100
AcDbEntity
  8
M1
  6
CONTINUOUS
370
13
 62
     7
100
AcDbCircle
 10
692.660096
 20
353.523003
 40
38.999958
100
AcDbArc
 50
143.253769
 51
156.475211
  0
CIRCLE
  5
304
100
AcDbEntity
  8
M1
  6
CONTINUOUS
370
25
 62
     7
100
AcDbCircle
 10
692.666198
 20
392.523003
 40
2.455002
  0
CIRCLE
  5
305
100
AcDbEntity
  8
M1
  6
CONTINUOUS
370
13
 62
     7
100
AcDbCircle
 10
692.666198
 20
392.523003
 40
3.0
  0
ARC
  5
306
100
AcDbEntity
  8
M1
  6
CONTINUOUS
370
13
 62
     7
100
AcDbCircle
 10
692.660096
 20
353.523003
 40
39.000008
100
AcDbArc
 50
83.253777
 51
96.475261
  0
CIRCLE
  5
307
100
AcDbEntity
  8
M1
  6
CONTINUOUS
370
25
 62
     7
100
AcDbCircle
 10
726.438096
 20
373.017783
 40
2.455002
  0
CIRCLE
  5
308
100
AcDbEntity
  8
M1
  6
CONTINUOUS
370
13
 62
     7
100
AcDbCircle
 10
726.438096
 20
373.017783
 40
3.0
  0
ARC
  5
309
100
AcDbEntity
  8
M1
  6
CONTINUOUS
370
13
 62
     7
100
AcDbCircle
 10
692.660096
 20
353.523003
 40
39.000038
100
AcDbArc
 50
23.253798
 51
36.475284
  0
ARC
  5
30A
100
AcDbEntity
  8
M1
  6
CONTINUOUS
370
25
 62
     7
100
AcDbCircle
 10
692.660096
 20
353.523003
 40
52.50003
100
AcDbArc
 50
116.200027
 51
123.782126
  0
ARC
  5
30B
100
AcDbEntity
  8
M1
  6
CONTINUOUS
370
25
 62
     7
100
AcDbCircle
 10
668.5979
 20
402.423575
 40
2.000102
100
AcDbArc
 50
296.201447
 51
381.990372
  0
ARC
  5
30C
100
AcDbEntity
  8
M1
  6
CONTINUOUS
370
25
 62
     7
100
AcDbCircle
 10
665.5952
 20
409.859001
 40
1.999998
100
AcDbArc
 50
21.990381
 51
115.66221
  0
ARC
  5
30D
100
AcDbEntity
  8
M1
  6
CONTINUOUS
370
25
 62
     7
100
AcDbCircle
 10
692.660096
 20
353.523003
 40
64.49997
100
AcDbArc
 50
115.660576
 51
124.321683
  0
ARC
  5
30E
100
AcDbEntity
  8
M1
  6
CONTINUOUS
370
25
 62
     7
100
AcDbCircle
 10
657.420196
 20
405.140801
 40
2.000034
100
AcDbArc
 50
124.321846
 51
217.991997
  0
ARC
  5
30F
100
AcDbEntity
  8
M1
  6
CONTINUOUS
370
25
 62
     7
100
AcDbCircle
 10
662.356094
 20
398.821097
 40
1.999954
100
AcDbArc
 50
217.989929
 51
303.782814
  0
ARC
  5
310
100
AcDbEntity
  8
M1
  6
CONTINUOUS
370
25
 62
     7
100
AcDbCircle
 10
692.660096
 20
353.523003
 40
52.500058
100
AcDbArc
 50
56.20013
 51
63.782194
  0
ARC
  5
311
100
AcDbEntity
  8
M1
  6
CONTINUOUS
370
25
 62
     7
100
AcDbCircle
 10
722.978142
 20
398.811791
 40
2.000012
100
AcDbArc
 50
236.200394
 51
321.99012
  0
ARC
  5
312
100
AcDbEntity
  8
M1
  6
CONTINUOUS
370
25
 62
     7
100
AcDbCircle
 10
727.916062
 20
405.129875
 40
2.000018
100
AcDbArc
 50
321.990387
 51
415.660324
  0
ARC
  5
313
100
AcDbEntity
  8
M1
  6
CONTINUOUS
370
25
 62
     7
100
AcDbCircle
 10
692.660096
 20
353.523003
 40
64.500016
100
AcDbArc
 50
55.660526
 51
64.321671
  0
ARC
  5
314
100
AcDbEntity
  8
M1
  6
CONTINUOUS
370
25
 62
     7
100
AcDbCircle
 10
719.7425
 20
409.850577
 40
2.000048
100
AcDbArc
 50
64.32132
 51
157.990295
  0
ARC
  5
315
100
AcDbEntity
  8
M1
  6
CONTINUOUS
370
25
 62
     7
100
AcDbCircle
 10
716.737396
 20
402.416099
 40
1.99994
100
AcDbArc
 50
157.991028
 51
243.781174
  0
ARC
  5
316
100
AcDbEntity
  8
M1
  6
CONTINUOUS
370
25
 62
     7
100
AcDbCircle
 10
692.660096
 20
353.523003
 40
52.50005
100
AcDbArc
 50
356.200195
 51
363.78231
  0
ARC
  5
317
100
AcDbEntity
  8
M1
  6
CONTINUOUS
370
25
 62
     7
100
AcDbCircle
 10
747.04033
 20
349.911277
 40
1.999992
100
AcDbArc
 50
176.201141
 51
261.990845
  0
ARC
  5
318
100
AcDbEntity
  8
M1
  6
CONTINUOUS
370
25
 62
     7
100
AcDbCircle
 10
754.980996
 20
348.793877
 40
2.000006
100
AcDbArc
 50
261.991272
 51
355.662125
  0
ARC
  5
319
100
AcDbEntity
  8
M1
  6
CONTINUOUS
370
25
 62
     7
100
AcDbCircle
 10
692.660096
 20
353.523003
 40
64.500038
100
AcDbArc
 50
355.660645
 51
364.321686
  0
ARC
  5
31A
100
AcDbEntity
  8
M1
  6
CONTINUOUS
370
25
 62
     7
100
AcDbCircle
 10
754.982468
 20
358.232781
 40
1.999998
100
AcDbArc
 50
4.321217
 51
97.991566
  0
ARC
  5
31B
100
AcDbEntity
  8
M1
  6
CONTINUOUS
370
25
 62
     7
100
AcDbCircle
 10
747.041428
 20
357.118095
 40
2.000012
100
AcDbArc
 50
97.991043
 51
183.781334
  0
ARC
  5
31C
100
AcDbEntity
  8
M1
  6
CONTINUOUS
370
25
 62
     7
100
AcDbCircle
 10
692.660096
 20
353.523003
 40
52.499924
100
AcDbArc
 50
296.200226
 51
303.782308
  0
ARC
  5
31D
100
AcDbEntity
  8
M1
  6
CONTINUOUS
370
25
 62
     7
100
AcDbCircle
 10
716.722298
 20
304.622489
 40
1.999976
100
AcDbArc
 50
116.200066
 51
201.991371
  0
ARC
  5
31E
100
AcDbEntity
  8
M1
  6
CONTINUOUS
370
25
 62
     7
100
AcDbCircle
 10
719.725098
 20
297.186989
 40
2.000006
100
AcDbArc
 50
201.990295
 51
295.660248
  0
ARC
  5
31F
100
AcDbEntity
  8
M1
  6
CONTINUOUS
370
25
 62
     7
100
AcDbCircle
 10
692.660096
 20
353.523003
 40
64.499946
100
AcDbArc
 50
295.660675
 51
304.321785
  0
ARC
  5
320
100
AcDbEntity
  8
M1
  6
CONTINUOUS
370
25
 62
     7
100
AcDbCircle
 10
727.90007
 20
301.905189
 40
2.000024
100
AcDbArc
 50
304.321472
 51
397.991776
  0
ARC
  5
321
100
AcDbEntity
  8
M1
  6
CONTINUOUS
370
25
 62
     7
100
AcDbCircle
 10
722.964158
 20
308.224891
 40
2.000014
100
AcDbArc
 50
37.991379
 51
123.78051
  0
ARC
  5
322
100
AcDbEntity
  8
M1
  6
CONTINUOUS
370
25
 62
     7
100
AcDbCircle
 10
692.660096
 20
353.523003
 40
52.499894
100
AcDbArc
 50
236.200226
 51
243.782268
  0
ARC
  5
323
100
AcDbEntity
  8
M1
  6
CONTINUOUS
370
25
 62
     7
100
AcDbCircle
 10
662.342102
 20
308.234291
 40
2.00003
100
AcDbArc
 50
56.200455
 51
141.989983
  0
ARC
  5
324
100
AcDbEntity
  8
M1
  6
CONTINUOUS
370
25
 62
     7
100
AcDbCircle
 10
657.404206
 20
301.916083
 40
2.0
100
AcDbArc
 50
141.98999
 51
235.659836
  0
ARC
  5
325
100
AcDbEntity
  8
M1
  6
CONTINUOUS
370
25
 62
     7
100
AcDbCircle
 10
692.660096
 20
353.523003
 40
64.499954
100
AcDbArc
 50
235.660629
 51
244.321758
  0
ARC
  5
326
100
AcDbEntity
  8
M1
  6
CONTINUOUS
370
25
 62
     7
100
AcDbCircle
 10
665.577698
 20
297.195397
 40
2.000002
100
AcDbArc
 50
244.323105
 51
337.994118
  0
ARC
  5
327
100
AcDbEntity
  8
M1
  6
CONTINUOUS
370
25
 62
     7
100
AcDbCircle
 10
668.582902
 20
304.629891
 40
1.999952
100
AcDbArc
 50
337.990692
 51
423.782318
  0
ARC
  5
328
100
AcDbEntity
  8
M1
  6
CONTINUOUS
370
25
 62
     7
100
AcDbCircle
 10
747.225906
 20
467.994591
 40
7.99984
100
AcDbArc
 50
329.990265
 51
389.991711
  0
ARC
  5
329
100
AcDbEntity
  8
M1
  6
CONTINUOUS
370
25
 62
     7
100
AcDbCircle
 10
764.5443
 20
457.991875
 40
9.999816
100
AcDbArc
 50
90.0
 51
149.990593
  0
ARC
  5
32A
100
AcDbEntity
  8
M1
  6
CONTINUOUS
370
25
 62
     7
100
AcDbCircle
 10
747.225906
 20
467.994591
 40
9.999812
100
AcDbArc
 50
329.990082
 51
389.991539
  0
ARC
  5
32B
100
AcDbEntity
  8
M1
  6
CONTINUOUS
370
25
 62
     7
100
AcDbCircle
 10
764.5443
 20
457.991875
 40
7.999816
100
AcDbArc
 50
90.0
 51
149.990089
  0
ARC
  5
32C
100
AcDbEntity
  8
M1
  6
CONTINUOUS
370
25
 62
     7
100
AcDbCircle
 10
735.720986
 20
428.071403
 40
4.000002
100
AcDbArc
 50
90.062729
 51
390.06636
  0
ARC
  5
32D
100
AcDbEntity
  8
M1
  6
CONTINUOUS
370
25
 62
     7
100
AcDbCircle
 10
734.851226
 20
428.573691
 40
0.999928
100
AcDbArc
 50
149.991592
 51
329.990936
  0
ARC
  5
32E
100
AcDbEntity
  8
M1
  6
CONTINUOUS
370
25
 62
     7
100
AcDbCircle
 10
736.583
 20
427.573479
 40
0.999912
100
AcDbArc
 50
149.988983
 51
329.99115
  0
ARC
  5
32F
100
AcDbEntity
  8
M1
  6
CONTINUOUS
370
25
 62
     7
100
AcDbCircle
 10
692.660096
 20
353.523003
 40
91.000084
100
AcDbArc
 50
61.250507
 51
359.999989
  0
TEXT
  5
330
100
AcDbEntity
  8
M1
 62
     7
100
AcDbText
 10
651.981751
 20
107.55724
 40
18.9
  1
ＰＯＣ－２．５
 41
0.713889
  7
STANDARD
100
AcDbText
  0
TEXT
  5
331
100
AcDbEntity
  8
M1
 62
     7
100
AcDbText
 10
167.245499
 20
210.362923
 40
13.5
  1
Ｄ１
 41
0.713889
  7
STANDARD
100
AcDbText
  0
TEXT
  5
332
100
AcDbEntity
  8
M1
 62
     7
100
AcDbText
 10
416.910126
 20
213.501168
 40
13.5
  1
Ｄ２
 41
0.713889
  7
STANDARD
100
AcDbText
  0
TEXT
  5
333
100
AcDbEntity
  8
M1
 62
     7
100
AcDbText
 10
691.146912
 20
217.027199
 40
13.5
  1
Ｄ３
 41
0.713889
  7
STANDARD
100
AcDbText
  0
TEXT
  5
334
100
AcDbEntity
  8
M1
 62
     7
100
AcDbText
 10
634.598938
 20
81.483235
 40
18.9
  1
（ＳＤＫ６０２４）
 41
0.713889
  7
STANDARD
100
AcDbText
  0
ARC
  5
335
100
AcDbEntity
  8
M1
  6
CONTINUOUS
370
25
 62
     7
100
AcDbCircle
 10
173.799768
 20
353.573277
 40
13.28652
100
AcDbArc
 50
220.750103
 51
499.249897
  0
ARC
  5
336
100
AcDbEntity
  8
M1
  6
CONTINUOUS
370
25
 62
     7
100
AcDbCircle
 10
162.550218
 20
363.266545
 40
1.56312
100
AcDbArc
 50
285.0
 51
319.249897
  0
LINE
  5
337
100
AcDbEntity
  8
M1
  6
CONTINUOUS
370
25
 62
     7
100
AcDbLine
 10
162.954782
 20
361.756687
 11
158.36542
 21
360.526971
  0
ARC
  5
338
100
AcDbEntity
  8
M1
  6
CONTINUOUS
370
25
 62
     7
100
AcDbCircle
 10
158.769986
 20
359.017113
 40
1.56312
100
AcDbArc
 50
105.0
 51
180.0
  0
LINE
  5
339
100
AcDbEntity
  8
M1
  6
CONTINUOUS
370
25
 62
     7
100
AcDbLine
 10
157.206866
 20
354.901929
 11
157.206866
 21
359.017113
  0
LINE
  5
33A
100
AcDbEntity
  8
M1
  6
CONTINUOUS
370
25
 62
     7
100
AcDbLine
 10
157.206866
 20
354.901929
 11
162.559066
 21
354.901929
  0
CIRCLE
  5
33B
100
AcDbEntity
  8
M1
  6
CONTINUOUS
370
25
 62
     7
100
AcDbCircle
 10
160.872986
 20
357.853501
 40
1.328652
  0
LINE
  5
33C
100
AcDbEntity
  8
M1
  6
CONTINUOUS
370
25
 62
     7
100
AcDbLine
 10
157.206866
 20
352.244625
 11
162.56065
 21
352.244625
  0
LINE
  5
33D
100
AcDbEntity
  8
M1
  6
CONTINUOUS
370
25
 62
     7
100
AcDbLine
 10
157.206866
 20
348.129441
 11
157.206866
 21
352.244625
  0
CIRCLE
  5
33E
100
AcDbEntity
  8
M1
  6
CONTINUOUS
370
25
 62
     7
100
AcDbCircle
 10
160.872986
 20
349.293055
 40
1.328652
  0
ARC
  5
33F
100
AcDbEntity
  8
M1
  6
CONTINUOUS
370
25
 62
     7
100
AcDbCircle
 10
158.769986
 20
348.129441
 40
1.56312
100
AcDbArc
 50
180.0
 51
255.0
  0
LINE
  5
340
100
AcDbEntity
  8
M1
  6
CONTINUOUS
370
25
 62
     7
100
AcDbLine
 10
162.954782
 20
345.389869
 11
158.36542
 21
346.619583
  0
ARC
  5
341
100
AcDbEntity
  8
M1
  6
CONTINUOUS
370
25
 62
     7
100
AcDbCircle
 10
162.550218
 20
343.880011
 40
1.56312
100
AcDbArc
 50
40.750103
 51
75.0
  0
ARC
  5
342
100
AcDbEntity
  8
M1
  6
CONTINUOUS
370
25
 62
     7
100
AcDbCircle
 10
691.331458
 20
353.517587
 40
13.28652
100
AcDbArc
 50
40.732265
 51
319.232059
  0
ARC
  5
343
100
AcDbEntity
  8
M1
  6
CONTINUOUS
370
25
 62
     7
100
AcDbCircle
 10
702.584026
 20
363.207351
 40
1.56312
100
AcDbArc
 50
220.732265
 51
254.982162
  0
LINE
  5
344
100
AcDbEntity
  8
M1
  6
CONTINUOUS
370
25
 62
     7
100
AcDbLine
 10
702.17899
 20
361.697619
 11
706.767968
 21
360.466475
  0
ARC
  5
345
100
AcDbEntity
  8
M1
  6
CONTINUOUS
370
25
 62
     7
100
AcDbCircle
 10
706.362934
 20
358.956743
 40
1.56312
100
AcDbArc
 50
359.982162
 51
434.982162
  0
LINE
  5
346
100
AcDbEntity
  8
M1
  6
CONTINUOUS
370
25
 62
     7
100
AcDbLine
 10
707.924772
 20
354.841073
 11
707.926054
 21
358.956257
  0
LINE
  5
347
100
AcDbEntity
  8
M1
  6
CONTINUOUS
370
25
 62
     7
100
AcDbLine
 10
707.924772
 20
354.841073
 11
702.572574
 21
354.842739
  0
CIRCLE
  5
348
100
AcDbEntity
  8
M1
  6
CONTINUOUS
370
25
 62
     7
100
AcDbCircle
 10
704.259572
 20
357.793785
 40
1.328652
  0
LINE
  5
349
100
AcDbEntity
  8
M1
  6
CONTINUOUS
370
25
 62
     7
100
AcDbLine
 10
707.923944
 20
352.183769
 11
702.570162
 21
352.185435
  0
LINE
  5
34A
100
AcDbEntity
  8
M1
  6
CONTINUOUS
370
25
 62
     7
100
AcDbLine
 10
707.922664
 20
348.068585
 11
707.923944
 21
352.183769
  0
CIRCLE
  5
34B
100
AcDbEntity
  8
M1
  6
CONTINUOUS
370
25
 62
     7
100
AcDbCircle
 10
704.256906
 20
349.233339
 40
1.328652
  0
ARC
  5
34C
100
AcDbEntity
  8
M1
  6
CONTINUOUS
370
25
 62
     7
100
AcDbCircle
 10
706.359544
 20
348.069071
 40
1.56312
100
AcDbArc
 50
284.982162
 51
359.982162
  0
LINE
  5
34D
100
AcDbEntity
  8
M1
  6
CONTINUOUS
370
25
 62
     7
100
AcDbLine
 10
702.173894
 20
345.330801
 11
706.763638
 21
346.559087
  0
ARC
  5
34E
100
AcDbEntity
  8
M1
  6
CONTINUOUS
370
25
 62
     7
100
AcDbCircle
 10
702.57799
 20
343.820817
 40
1.56312
100
AcDbArc
 50
104.982162
 51
139.232059
  0
LINE
  5
34F
100
AcDbEntity
  8
M1
  6
CONTINUOUS
370
25
 62
     7
100
AcDbLine
 10
372.108304
 20
369.829185
 11
373.308304
 21
369.829185
  0
LINE
  5
350
100
AcDbEntity
  8
M1
  6
CONTINUOUS
370
25
 62
     7
100
AcDbLine
 10
372.108304
 20
369.829185
 11
372.108304
 21
337.329185
  0
LINE
  5
351
100
AcDbEntity
  8
M1
  6
CONTINUOUS
370
25
 62
     7
100
AcDbLine
 10
364.316542
 20
366.079185
 11
372.108304
 21
366.079185
  0
LINE
  5
352
100
AcDbEntity
  8
M1
  6
CONTINUOUS
370
25
 62
     7
100
AcDbLine
 10
364.314652
 20
341.079185
 11
372.108304
 21
341.079185
  0
LINE
  5
353
100
AcDbEntity
  8
M1
  6
CONTINUOUS
370
25
 62
     7
100
AcDbLine
 10
372.108304
 20
337.329185
 11
373.308304
 21
337.329185
  0
LINE
  5
354
100
AcDbEntity
  8
M1
  6
CONTINUOUS
370
25
 62
     7
100
AcDbLine
 10
498.006898
 20
369.819451
 11
496.8069
 21
369.819637
  0
LINE
  5
355
100
AcDbEntity
  8
M1
  6
CONTINUOUS
370
25
 62
     7
100
AcDbLine
 10
498.006898
 20
369.819451
 11
498.001874
 21
337.319451
  0
LINE
  5
356
100
AcDbEntity
  8
M1
  6
CONTINUOUS
370
25
 62
     7
100
AcDbLine
 10
505.79808
 20
366.068247
 11
498.00632
 21
366.069451
  0
LINE
  5
357
100
AcDbEntity
  8
M1
  6
CONTINUOUS
370
25
 62
     7
100
AcDbLine
 10
505.796104
 20
341.068247
 11
498.002454
 21
341.069451
  0
LINE
  5
358
100
AcDbEntity
  8
M1
  6
CONTINUOUS
370
25
 62
     7
100
AcDbLine
 10
498.001874
 20
337.319451
 11
496.801874
 21
337.319637
  0
ENDSEC
  0
SECTION
  2
OBJECTS
  0
DICTIONARY
  5
C
100
AcDbDictionary
  3
ACAD_GROUP
350
D
  3
ACAD_MLINESTYLE
350
E
  0
DICTIONARY
  5
D
102
{ACAD_REACTORS
330
C
102
}
100
AcDbDictionary
  0
DICTIONARY
  5
E
102
{ACAD_REACTORS
330
C
102
}
100
AcDbDictionary
  3
STANDARD
350
13
  0
MLINESTYLE
  5
13
102
{ACAD_REACTORS
330
E
102
}
100
AcDbMlineStyle
  2
STANDARD
 70
     0
  3

 62
     0
 51
90.0
 52
90.0
 71
     2
 49
0.5
 62
   256
  6
BYLAYER
 49
-0.5
 62
   256
  6
BYLAYER
  0
ENDSEC
  0
EOF
