  0
SECTION
  2
HEADER
  9
$ACADVER
  1
AC1015
  9
$INSBASE
 10
0.0
 20
0.0
  9
$VIEWCTR
 10
7.531722
 20
4.5
  9
$VIEWSIZE
 40
9.0
  9
$SNAPMODE
 70
     0
  9
$SNAPUNIT
 10
1.0
 20
1.0
  9
$SNAPBASE
 10
0.0
 20
0.0
  9
$SNAPANG
 50
0.0
  9
$SNAPSTYLE
 70
     0
  9
$SNAPISOPAIR
 70
     0
  9
$GRIDMODE
 70
     0
  9
$GRIDUNIT
 10
0.0
 20
0.0
  9
$ORTHOMODE
 70
     0
  9
$REGENMODE
 70
     1
  9
$FILLMODE
 70
     1
  9
$QTEXTMODE
 70
     0
  9
$DRAGMODE
 70
     2
  9
$LTSCALE
 40
1.0
  9
$OSMODE
 70
     0
  9
$ATTMODE
 70
     1
  9
$TEXTSIZE
 40
0.2
  9
$TRACEWID
 40
0.05
  9
$TEXTSTYLE
  7
STANDARD
  9
$CELTYPE
  6
BYLAYER
  9
$CECOLOR
 62
   256
  9
$DIMSCALE
 40
1.0
  9
$DIMASZ
 40
0.18
  9
$DIMEXO
 40
0.0625
  9
$DIMDLI
 40
0.38
  9
$DIMRND
 40
0.0
  9
$DIMDLE
 40
0.0
  9
$DIMEXE
 40
0.18
  9
$DIMTP
 40
0.0
  9
$DIMTM
 40
0.0
  9
$DIMTXT
 40
0.18
  9
$DIMCEN
 40
0.09
  9
$DIMTSZ
 40
0.0
  9
$DIMADEC
 70
     0
  9
$DIMALTRND
 40
0.000000
  9
$DIMAZIN
 70
     0
  9
$DIMDSEP
 70
    46
  9
$DIMATFIT
 70
     3
  9
$DIMFRAC
 70
     0
  9
$DIMLDRBLK
  1

  9
$DIMLUNIT
 70
     2
  9
$DIMLWD
 70
   13
  9
$DIMLWE
 70
   13
  9
$DIMTMOVE
 70
     0
  9
$CELWEIGHT
370
    25
  9
$LWDISPLAY
290
    1
  9
$EXTNAMES
290
    1
  9
$DIMTOL
 70
     0
  9
$DIMLIM
 70
     0
  9
$DIMTIH
 70
     1
  9
$DIMTOH
 70
     1
  9
$DIMSE1
 70
     0
  9
$DIMSE2
 70
     0
  9
$DIMTAD
 70
     0
  9
$DIMZIN
 70
     0
  9
$DIMBLK
  1

  9
$LUNITS
 70
     2
  9
$LUPREC
 70
     4
  9
$AXISMODE
 70
     0
  9
$AXISUNIT
 10
0.0
 20
0.0
  9
$SKETCHINC
 40
0.1
  9
$FILLETRAD
 40
0.0
  9
$AUNITS
 70
     0
  9
$AUPREC
 70
     0
  9
$MENU
  1
ACAD
  9
$ELEVATION
 40
0.0
  9
$THICKNESS
 40
0.0
  9
$VIEWDIR
 10
0.0
 20
0.0
 30
1.0
  9
$LIMCHECK
 70
     0
  9
$BLIPMODE
 70
     1
  9
$CHAMFERA
 40
0.0
  9
$CHAMFERB
 40
0.0
  9
$FASTZOOM
 70
     1
  9
$SKPOLY
 70
     0
  9
$TDCREATE
 40
0000000.0000000000
  9
$TDUPDATE
 40
0000000.0000000000
  9
$TDINDWG
 40
0.0000000000
  9
$TDUSRTIMER
 40
0.0000000000
  9
$USRTIMER
 70
     1
  9
$ANGBASE
 50
0.0
  9
$ANGDIR
 70
     0
  9
$PDMODE
 70
     0
  9
$PDSIZE
 40
0.0
  9
$PLINEWID
 40
0.0
  9
$COORDS
 70
     0
  9
$USERI1
 70
     0
  9
$USERI2
 70
     0
  9
$USERI3
 70
     0
  9
$USERI4
 70
     0
  9
$USERI5
 70
     0
  9
$USERR1
 40
0.0
  9
$USERR2
 40
0.0
  9
$USERR3
 40
0.0
  9
$USERR4
 40
0.0
  9
$USERR5
 40
0.0
  9
$CLAYER
  8
M1
  9
$EXTMIN
 10
0.0
 20
0.0
  9
$EXTMAX
 10
841.0
 20
594.0
  9
$LIMMIN
 10
0.0
 20
0.0
  9
$LIMMAX
 10
841.0
 20
594.0
  9
$HANDSEED
  5
3B1
  0
ENDSEC
  0
SECTION
  2
CLASSES
  0
ENDSEC
  0
SECTION
  2
TABLES
  0
TABLE
  2
VPORT
  5
8
100
AcDbSymbolTable
 70
     2
  0
VPORT
  5
14
100
AcDbSymbolTableRecord
100
AcDbViewportTableRecord
  2
*ACTIVE
 70
     0
 10
0.0
 20
0.0
 11
1.0
 21
1.0
 12
484.0
 22
297.0
 13
0.0
 23
0.0
 14
1.0
 24
1.0
 15
0.0
 25
0.0
 16
0.0
 26
0.0
 36
1.0
 17
0.0
 27
0.0
 37
0.0
 40
594.0
 41
2.0
 42
50.0
 43
0.0
 44
0.0
 50
0.0
 51
0.0
 71
     0
 72
   100
 73
     1
 74
     1
 75
     0
 76
     0
 77
     0
 78
     0
  0
ENDTAB
  0
TABLE
  2
LTYPE
  5
5
100
AcDbSymbolTable
 70
     5
  0
LTYPE
  5
15
100
AcDbSymbolTableRecord
100
AcDbLinetypeTableRecord
  2
BYBLOCK
 70
     0
  3

 72
    65
 73
     0
 40
0.0
  0
LTYPE
  5
16
100
AcDbSymbolTableRecord
100
AcDbLinetypeTableRecord
  2
BYLAYER
 70
     0
  3

 72
    65
 73
     0
 40
0.0
  0
LTYPE
  5
17
100
AcDbSymbolTableRecord
100
AcDbLinetypeTableRecord
  2
CONTINUOUS
 70
    64
  3
Solid line
 72
    65
 73
     0
 40
0.0
  0
LTYPE
  5
18
100
AcDbSymbolTableRecord
100
AcDbLinetypeTableRecord
  2
DASHED
 70
    64
  3
__ __ __ __ __ __ __ __ __ __ __ __ __ __ __ __
 72
    65
 73
     2
 40
0.75
 49
0.5
 74
     0
 49
-0.25
 74
     0
  0
LTYPE
  5
19
100
AcDbSymbolTableRecord
100
AcDbLinetypeTableRecord
  2
DASHDOT
 70
    64
  3
__ . __ . __ . __ . __ . __ . __ . __ . __ . __
 72
    65
 73
     4
 40
1.0
 49
0.5
 74
     0
 49
-0.25
 74
     0
 49
0.0
 74
     0
 49
-0.25
 74
     0
  0
LTYPE
  5
1A
100
AcDbSymbolTableRecord
100
AcDbLinetypeTableRecord
  2
DIVIDE
 70
    64
  3
____ . . ____ . . ____ . . ____ . . ____ . . __
 72
    65
 73
     6
 40
1.25
 49
0.5
 74
     0
 49
-0.25
 74
     0
 49
0.0
 74
     0
 49
-0.25
 74
     0
 49
0.0
 74
     0
 49
-0.25
 74
     0
  0
LTYPE
  5
1B
100
AcDbSymbolTableRecord
100
AcDbLinetypeTableRecord
  2
DOT
 70
    64
  3
. . . . . . . . . . . . . . . . . . . . . . . .
 72
    65
 73
     2
 40
0.25
 49
0.0
 74
     0
 49
-0.25
 74
     0
  0
ENDTAB
  0
TABLE
  2
LAYER
  5
2
100
AcDbSymbolTable
 70
   102
  0
LAYER
  5
F
100
AcDbSymbolTableRecord
100
AcDbLayerTableRecord
  2
0
 70
     0
 62
     7
  6
CONTINUOUS
370
     -3
390
F
  0
LAYER
  5
1C
100
AcDbSymbolTableRecord
100
AcDbLayerTableRecord
  2
M1
 70
     0
 62
     3
  6
CONTINUOUS
370
     -3
390
F
  0
ENDTAB
  0
TABLE
  2
STYLE
  5
3
100
AcDbSymbolTable
 70
     2
  0
STYLE
  5
10
100
AcDbSymbolTableRecord
100
AcDbTextStyleTableRecord
  2
STANDARD
 70
     0
 40
0.0
 41
1.0
 50
0.0
 71
     0
 42
0.2
  3
txt
  4
BIGFONT
  0
ENDTAB
  0
TABLE
  2
VIEW
  5
6
100
AcDbSymbolTable
 70
     0
  0
ENDTAB
  0
TABLE
  2
UCS
  5
7
100
AcDbSymbolTable
 70
     0
  0
ENDTAB
  0
TABLE
  2
APPID
  5
9
100
AcDbSymbolTable
 70
     1
  0
APPID
  5
11
100
AcDbSymbolTableRecord
100
AcDbRegAppTableRecord
  2
ACAD
 70
     0
  0
ENDTAB
  0
TABLE
  2
DIMSTYLE
  5
A
100
AcDbSymbolTable
 70
     2
100
AcDbDimStyleTable
 71
     1
  0
DIMSTYLE
105
23
100
AcDbSymbolTableRecord
100
AcDbDimStyleTableRecord
  2
STANDARD
 70
     0
  3

  4

  5

  6
_OPEN
  7
_OPEN
 40
1.0
 41
3.0
 42
0.5
 43
8.0
 44
1.5
 45
0.0
 46
0.0
 47
0.0
 48
0.0
140
3.15
141
0.09
142
0.0
143
0.03937
144
1.0
145
0.0
146
1.0
147
1.0
148
0.000000
 71
     0
 72
     0
 73
     0
 74
     0
 75
     0
 76
     0
 77
     3
 78
     8
170
     0
171
     2
172
     0
173
     1
174
     0
175
     0
176
     0
177
     0
178
     0
270
     2
271
     2
272
     4
273
     2
274
     2
340
10
275
     0
278
    46
280
     0
281
     0
282
     0
283
     1
284
     0
285
     0
286
     0
287
     3
288
     0
371
   13
372
   13
  0
DIMSTYLE
105
24
100
AcDbSymbolTableRecord
100
AcDbDimStyleTableRecord
  2
LEADSTYL
 70
     0
  3

  4

  5

  6
_OPEN
  7
_OPEN
 40
1.0
 41
3.0
 42
0.0625
 43
0.38
 44
0.18
 45
0.0
 46
0.0
 47
0.0
 48
0.0
140
3.15
141
0.09
142
0.0
143
25.4
144
1.0
145
0.0
146
1.0
147
1.0
 71
     0
 72
     0
 73
     1
 74
     1
 75
     0
 76
     0
 77
     0
 78
     0
170
     0
171
     2
172
     0
173
     1
174
     0
175
     0
176
     0
177
     0
178
     0
270
     2
271
     4
272
     4
273
     2
274
     2
340
10
275
     0
280
     0
281
     0
282
     0
283
     1
284
     0
285
     0
286
     0
287
     3
288
     0
  0
ENDTAB
  0
TABLE
  2
BLOCK_RECORD
  5
1
100
AcDbSymbolTable
 70
     6
  0
BLOCK_RECORD
  5
1D
100
AcDbSymbolTableRecord
100
AcDbBlockTableRecord
  2
*MODEL_SPACE
  0
BLOCK_RECORD
  5
20
100
AcDbSymbolTableRecord
100
AcDbBlockTableRecord
  2
*PAPER_SPACE
  0
BLOCK_RECORD
  5
25
100
AcDbSymbolTableRecord
100
AcDbBlockTableRecord
  2
_NONE
  0
BLOCK_RECORD
  5
29
100
AcDbSymbolTableRecord
100
AcDbBlockTableRecord
  2
_OPEN
  0
BLOCK_RECORD
  5
2F
100
AcDbSymbolTableRecord
100
AcDbBlockTableRecord
  2
_CLOSED
  0
BLOCK_RECORD
  5
36
100
AcDbSymbolTableRecord
100
AcDbBlockTableRecord
  2
_ORIGIN
  0
BLOCK_RECORD
  5
3B
100
AcDbSymbolTableRecord
100
AcDbBlockTableRecord
  2
_DOT
  0
BLOCK_RECORD
  5
43
100
AcDbSymbolTableRecord
100
AcDbBlockTableRecord
  2
_OBLIQUE
  0
ENDTAB
  0
ENDSEC
  0
SECTION
  2
BLOCKS
  0
BLOCK
  5
1E
100
AcDbEntity
  8
0
100
AcDbBlockBegin
  2
*MODEL_SPACE
 70
     0
 10
0.0
 20
0.0
 30
0.0
  3
*MODEL_SPACE
  1

  0
ENDBLK
  5
1F
100
AcDbEntity
  8
0
100
AcDbBlockEnd
  0
BLOCK
  5
21
100
AcDbEntity
 67
     1
  8
0
100
AcDbBlockBegin
  2
*PAPER_SPACE
 70
     0
 10
0.0
 20
0.0
 30
0.0
  3
*PAPER_SPACE
  1

  0
ENDBLK
  5
22
100
AcDbEntity
 67
     1
  8
0
100
AcDbBlockEnd
  0
BLOCK
  5
26
100
AcDbEntity
  8
0
100
AcDbBlockBegin
  2
_NONE
 70
     0
 10
0.0
 20
0.0
  0
CIRCLE
  5
27
100
AcDbEntity
  8
0
 62
     0
370
13
100
AcDbCircle
 10
0.0
 20
0.0
 40
0.25
  0
ENDBLK
  5
28
100
AcDbEntity
  8
0
100
AcDbBlockEnd
  0
BLOCK
  5
2A
100
AcDbEntity
  8
0
100
AcDbBlockBegin
  2
_OPEN
 70
     0
 10
0.0
 20
0.0
  0
LINE
  5
2B
100
AcDbEntity
  8
0
 62
     0
370
13
100
AcDbLine
 10
-0.965926
 20
0.258819
 11
0.0
 21
0.0
  0
LINE
  5
2C
100
AcDbEntity
  8
0
 62
     0
370
13
100
AcDbLine
 10
0.0
 20
0.0
 11
-0.965926
 21
-0.258819
  0
LINE
  5
2D
100
AcDbEntity
  8
0
 62
     0
370
13
100
AcDbLine
 10
0.0
 20
0.0
 11
-1.0
 21
0.0
  0
ENDBLK
  5
2E
100
AcDbEntity
  8
0
100
AcDbBlockEnd
  0
BLOCK
  5
30
100
AcDbEntity
  8
0
100
AcDbBlockBegin
  2
_CLOSED
 70
     0
 10
0.0
 20
0.0
  0
LINE
  5
31
100
AcDbEntity
  8
0
 62
     0
370
13
100
AcDbLine
 10
-0.965926
 20
0.258819
 11
0.0
 21
0.0
  0
LINE
  5
32
100
AcDbEntity
  8
0
 62
     0
370
13
100
AcDbLine
 10
0.0
 20
0.0
 11
-0.965926
 21
-0.258819
  0
LINE
  5
33
100
AcDbEntity
  8
0
 62
     0
370
13
100
AcDbLine
 10
-0.965926
 20
0.258819
 11
-0.965926
 21
-0.258819
  0
LINE
  5
34
100
AcDbEntity
  8
0
 62
     0
370
13
100
AcDbLine
 10
0.0
 20
0.0
 11
-1.0
 21
0.0
  0
ENDBLK
  5
35
100
AcDbEntity
  8
0
100
AcDbBlockEnd
  0
BLOCK
  5
37
100
AcDbEntity
  8
0
100
AcDbBlockBegin
  2
_ORIGIN
 70
     0
 10
0.0
 20
0.0
  0
CIRCLE
  5
38
100
AcDbEntity
  8
0
 62
     0
370
13
100
AcDbCircle
 10
0.0
 20
0.0
 40
0.5
  0
LINE
  5
39
100
AcDbEntity
  8
0
 62
     0
370
13
100
AcDbLine
 10
0.0
 20
0.0
 11
-1.0
 21
0.0
  0
ENDBLK
  5
3A
100
AcDbEntity
  8
0
100
AcDbBlockEnd
  0
BLOCK
  5
3C
100
AcDbEntity
  8
0
100
AcDbBlockBegin
  2
_DOT
 70
     0
 10
0.0
 20
0.0
  0
POLYLINE
  5
3D
100
AcDbEntity
  8
0
 62
     0
100
AcDb2dPolyline
 66
     1
 70
     1
 40
0.5
 41
0.5
  0
VERTEX
  5
3E
100
AcDbEntity
  8
0
 62
     0
100
AcDbVertex
100
AcDb2dVertex
 10
-0.25
 20
0.0
 42
1.0
  0
VERTEX
  5
3F
100
AcDbEntity
  8
0
 62
     0
100
AcDbVertex
100
AcDb2dVertex
 10
0.25
 20
0.0
 42
1.0
  0
SEQEND
  5
40
100
AcDbEntity
  8
0
 62
     0
  0
LINE
  5
41
100
AcDbEntity
  8
0
 62
     0
370
13
100
AcDbLine
 10
-0.5
 20
0.0
 11
-1.0
 21
0.0
  0
ENDBLK
  5
42
100
AcDbEntity
  8
0
100
AcDbBlockEnd
  0
BLOCK
  5
44
100
AcDbEntity
  8
0
100
AcDbBlockBegin
  2
_OBLIQUE
 70
     0
 10
0.0
 20
0.0
  0
LINE
  5
45
100
AcDbEntity
  8
0
 62
     0
370
13
100
AcDbLine
 10
-0.353553
 20
-0.353553
 11
0.353553
 21
0.353553
  0
ENDBLK
  5
46
100
AcDbEntity
  8
0
100
AcDbBlockEnd
  0
ENDSEC
  0
SECTION
  2
ENTITIES
  0
LINE
  5
47
100
AcDbEntity
  8
M1
  6
CONTINUOUS
370
13
 62
     7
100
AcDbLine
 10
127.437008
 20
341.194869
 11
127.437008
 21
329.804061
  0
LINE
  5
48
100
AcDbEntity
  8
M1
  6
CONTINUOUS
370
25
 62
     7
100
AcDbLine
 10
120.437008
 20
433.249159
 11
120.437008
 21
376.523848
  0
LINE
  5
49
100
AcDbEntity
  8
M1
  6
CONTINUOUS
370
25
 62
     7
100
AcDbLine
 10
46.283321
 20
390.436476
 11
95.408932
 21
362.073867
  0
LINE
  5
4A
100
AcDbEntity
  8
M1
  6
CONTINUOUS
370
25
 62
     7
100
AcDbLine
 10
109.494015
 20
385.249251
 11
113.629513
 21
375.013472
  0
LINE
  5
4B
100
AcDbEntity
  8
M1
  6
CONTINUOUS
370
25
 62
     7
100
AcDbLine
 10
96.776485
 20
406.047072
 11
100.903622
 21
395.831954
  0
LINE
  5
4C
100
AcDbEntity
  8
M1
  6
CONTINUOUS
370
25
 62
     7
100
AcDbLine
 10
81.671078
 20
397.325759
 11
88.45422
 21
388.643965
  0
LINE
  5
4D
100
AcDbEntity
  8
M1
  6
CONTINUOUS
370
25
 62
     7
100
AcDbLine
 10
93.323971
 20
375.913649
 11
100.120785
 21
367.214278
  0
LINE
  5
4E
100
AcDbEntity
  8
M1
  6
CONTINUOUS
370
25
 62
     7
100
AcDbLine
 10
96.476009
 20
378.376265
 11
103.272823
 21
369.676863
  0
LINE
  5
4F
100
AcDbEntity
  8
M1
  6
CONTINUOUS
370
25
 62
     7
100
AcDbLine
 10
105.785091
 20
383.750868
 11
109.920589
 21
373.515059
  0
LINE
  5
50
100
AcDbEntity
  8
M1
  6
CONTINUOUS
370
13
 62
     7
100
AcDbLine
 10
79.717281
 20
363.05046
 11
88.690792
 21
357.869673
  0
LINE
  5
51
100
AcDbEntity
  8
M1
  6
CONTINUOUS
370
25
 62
     7
100
AcDbLine
 10
74.824215
 20
340.874068
 11
85.756527
 21
339.33766
  0
LINE
  5
52
100
AcDbEntity
  8
M1
  6
CONTINUOUS
370
25
 62
     7
100
AcDbLine
 10
74.824215
 20
330.124861
 11
85.756527
 21
331.66136
  0
LINE
  5
53
100
AcDbEntity
  8
M1
  6
CONTINUOUS
370
25
 62
     7
100
AcDbLine
 10
75.380672
 20
326.16397
 11
86.313107
 21
327.700362
  0
LINE
  5
54
100
AcDbEntity
  8
M1
  6
CONTINUOUS
370
25
 62
     7
100
AcDbLine
 10
51.010982
 20
326.778166
 11
61.921078
 21
328.311461
  0
LINE
  5
55
100
AcDbEntity
  8
M1
  6
CONTINUOUS
370
25
 62
     7
100
AcDbLine
 10
51.011105
 20
344.220763
 11
61.9212
 21
342.687361
  0
LINE
  5
56
100
AcDbEntity
  8
M1
  6
CONTINUOUS
370
25
 62
     7
100
AcDbLine
 10
75.380672
 20
344.835265
 11
86.312984
 21
343.298766
  0
LINE
  5
57
100
AcDbEntity
  8
M1
  6
CONTINUOUS
370
25
 62
     7
100
AcDbLine
 10
39.283321
 20
292.686766
 11
88.408932
 21
321.049559
  0
LINE
  5
58
100
AcDbEntity
  8
M1
  6
CONTINUOUS
370
25
 62
     7
100
AcDbLine
 10
39.283321
 20
378.312148
 11
88.40881
 21
349.949462
  0
LINE
  5
59
100
AcDbEntity
  8
M1
  6
CONTINUOUS
370
13
 62
     7
100
AcDbLine
 10
79.717281
 20
307.948561
 11
88.690792
 21
313.129363
  0
LINE
  5
5A
100
AcDbEntity
  8
M1
  6
CONTINUOUS
370
25
 62
     7
100
AcDbLine
 10
96.476131
 20
292.622664
 11
103.272884
 21
301.322066
  0
LINE
  5
5B
100
AcDbEntity
  8
M1
  6
CONTINUOUS
370
25
 62
     7
100
AcDbLine
 10
105.785091
 20
287.248061
 11
109.920589
 21
297.483962
  0
LINE
  5
5C
100
AcDbEntity
  8
M1
  6
CONTINUOUS
370
25
 62
     7
100
AcDbLine
 10
109.493832
 20
285.74977
 11
113.629391
 21
295.985564
  0
LINE
  5
5D
100
AcDbEntity
  8
M1
  6
CONTINUOUS
370
25
 62
     7
100
AcDbLine
 10
96.776302
 20
264.952162
 11
100.903378
 21
275.167266
  0
LINE
  5
5E
100
AcDbEntity
  8
M1
  6
CONTINUOUS
370
25
 62
     7
100
AcDbLine
 10
81.671322
 20
273.673064
 11
88.45422
 21
282.354857
  0
LINE
  5
5F
100
AcDbEntity
  8
M1
  6
CONTINUOUS
370
25
 62
     7
100
AcDbLine
 10
93.324093
 20
295.085356
 11
100.120785
 21
303.784758
  0
LINE
  5
60
100
AcDbEntity
  8
M1
  6
CONTINUOUS
370
25
 62
     7
100
AcDbLine
 10
120.437008
 20
237.749861
 11
120.437008
 21
294.475066
  0
LINE
  5
61
100
AcDbEntity
  8
M1
  6
CONTINUOUS
370
25
 62
     7
100
AcDbLine
 10
46.283321
 20
280.562468
 11
95.40881
 21
308.925063
  0
LINE
  5
62
100
AcDbEntity
  8
M1
  6
CONTINUOUS
370
25
 62
     7
100
AcDbLine
 10
149.088924
 20
287.248168
 11
144.953304
 21
297.483962
  0
LINE
  5
63
100
AcDbEntity
  8
M1
  6
CONTINUOUS
370
25
 62
     7
100
AcDbLine
 10
158.397884
 20
292.622756
 11
151.601192
 21
301.322158
  0
LINE
  5
64
100
AcDbEntity
  8
M1
  6
CONTINUOUS
370
25
 62
     7
100
AcDbLine
 10
161.550106
 20
295.085356
 11
154.753292
 21
303.784865
  0
LINE
  5
65
100
AcDbEntity
  8
M1
  6
CONTINUOUS
370
25
 62
     7
100
AcDbLine
 10
173.202877
 20
273.673262
 11
166.419918
 21
282.355162
  0
LINE
  5
66
100
AcDbEntity
  8
M1
  6
CONTINUOUS
370
25
 62
     7
100
AcDbLine
 10
158.096676
 20
264.951857
 11
153.969601
 21
275.16696
  0
LINE
  5
67
100
AcDbEntity
  8
M1
  6
CONTINUOUS
370
25
 62
     7
100
AcDbLine
 10
145.380184
 20
285.749663
 11
141.244625
 21
295.985564
  0
LINE
  5
68
100
AcDbEntity
  8
M1
  6
CONTINUOUS
370
25
 62
     7
100
AcDbLine
 10
208.590572
 20
280.562468
 11
159.465084
 21
308.925063
  0
LINE
  5
69
100
AcDbEntity
  8
M1
  6
CONTINUOUS
370
25
 62
     7
100
AcDbLine
 10
134.437008
 20
237.749861
 11
134.437008
 21
294.475066
  0
LINE
  5
6A
100
AcDbEntity
  8
M1
  6
CONTINUOUS
370
13
 62
     7
100
AcDbLine
 10
175.156673
 20
307.94847
 11
166.183285
 21
313.129256
  0
LINE
  5
6B
100
AcDbEntity
  8
M1
  6
CONTINUOUS
370
25
 62
     7
100
AcDbLine
 10
180.049801
 20
330.124968
 11
169.117428
 21
331.66136
  0
LINE
  5
6C
100
AcDbEntity
  8
M1
  6
CONTINUOUS
370
25
 62
     7
100
AcDbLine
 10
180.049984
 20
340.873961
 11
169.117611
 21
339.337462
  0
LINE
  5
6D
100
AcDbEntity
  8
M1
  6
CONTINUOUS
370
25
 62
     7
100
AcDbLine
 10
179.492977
 20
344.835265
 11
168.560726
 21
343.298857
  0
LINE
  5
6E
100
AcDbEntity
  8
M1
  6
CONTINUOUS
370
25
 62
     7
100
AcDbLine
 10
203.862972
 20
344.220763
 11
192.952877
 21
342.687468
  0
LINE
  5
6F
100
AcDbEntity
  8
M1
  6
CONTINUOUS
370
25
 62
     7
100
AcDbLine
 10
203.862911
 20
326.778258
 11
192.952816
 21
328.311568
  0
LINE
  5
70
100
AcDbEntity
  8
M1
  6
CONTINUOUS
370
25
 62
     7
100
AcDbLine
 10
179.493099
 20
326.163863
 11
168.560726
 21
327.700362
  0
LINE
  5
71
100
AcDbEntity
  8
M1
  6
CONTINUOUS
370
25
 62
     7
100
AcDbLine
 10
215.590572
 20
378.312148
 11
166.465023
 21
349.949462
  0
LINE
  5
72
100
AcDbEntity
  8
M1
  6
CONTINUOUS
370
25
 62
     7
100
AcDbLine
 10
215.590572
 20
292.686858
 11
166.465023
 21
321.049559
  0
LINE
  5
73
100
AcDbEntity
  8
M1
  6
CONTINUOUS
370
13
 62
     7
100
AcDbLine
 10
175.156795
 20
363.050276
 11
166.183407
 21
357.86946
  0
LINE
  5
74
100
AcDbEntity
  8
M1
  6
CONTINUOUS
370
25
 62
     7
100
AcDbLine
 10
158.397884
 20
378.376357
 11
151.601131
 21
369.676863
  0
LINE
  5
75
100
AcDbEntity
  8
M1
  6
CONTINUOUS
370
25
 62
     7
100
AcDbLine
 10
149.088985
 20
383.750868
 11
144.953487
 21
373.514968
  0
LINE
  5
76
100
AcDbEntity
  8
M1
  6
CONTINUOUS
370
25
 62
     7
100
AcDbLine
 10
145.380184
 20
385.249251
 11
141.244686
 21
375.013472
  0
LINE
  5
77
100
AcDbEntity
  8
M1
  6
CONTINUOUS
370
25
 62
     7
100
AcDbLine
 10
158.096615
 20
406.047255
 11
153.969479
 21
395.832076
  0
LINE
  5
78
100
AcDbEntity
  8
M1
  6
CONTINUOUS
370
25
 62
     7
100
AcDbLine
 10
173.202877
 20
397.325667
 11
166.419979
 21
388.643874
  0
LINE
  5
79
100
AcDbEntity
  8
M1
  6
CONTINUOUS
370
25
 62
     7
100
AcDbLine
 10
161.549984
 20
375.913558
 11
154.753292
 21
367.214064
  0
LINE
  5
7A
100
AcDbEntity
  8
M1
  6
CONTINUOUS
370
25
 62
     7
100
AcDbLine
 10
134.437008
 20
433.249159
 11
134.437008
 21
376.523848
  0
LINE
  5
7B
100
AcDbEntity
  8
M1
  6
CONTINUOUS
370
25
 62
     7
100
AcDbLine
 10
208.590694
 20
390.436476
 11
159.465084
 21
362.073867
  0
LINE
  5
7C
100
AcDbEntity
  8
M1
  6
CONTINUOUS
370
25
 62
     7
100
AcDbLine
 10
272.22293
 20
347.999465
 11
272.22293
 21
322.999465
  0
LINE
  5
7D
100
AcDbEntity
  8
M1
  6
CONTINUOUS
370
25
 62
     7
100
AcDbLine
 10
556.22293
 20
347.999465
 11
556.22293
 21
322.999465
  0
LINE
  5
7E
100
AcDbEntity
  8
M1
  6
CONTINUOUS
370
25
 62
     7
100
AcDbLine
 10
319.22293
 20
338.999465
 11
319.22293
 21
331.999465
  0
LINE
  5
7F
100
AcDbEntity
  8
M1
  6
CONTINUOUS
370
25
 62
     7
100
AcDbLine
 10
329.22293
 20
350.499465
 11
329.22293
 21
320.499465
  0
LINE
  5
80
100
AcDbEntity
  8
M1
  6
CONTINUOUS
370
25
 62
     7
100
AcDbLine
 10
272.22293
 20
322.999465
 11
329.22293
 21
322.999465
  0
LINE
  5
81
100
AcDbEntity
  8
M1
  6
CONTINUOUS
370
25
 62
     7
100
AcDbLine
 10
272.22293
 20
347.999465
 11
329.22293
 21
347.999465
  0
LINE
  5
82
100
AcDbEntity
  8
M1
  6
CONTINUOUS
370
25
 62
     7
100
AcDbLine
 10
509.22293
 20
338.999465
 11
509.22293
 21
331.999465
  0
LINE
  5
83
100
AcDbEntity
  8
M1
  6
CONTINUOUS
370
25
 62
     7
100
AcDbLine
 10
499.22293
 20
347.999465
 11
499.22293
 21
322.999465
  0
LINE
  5
84
100
AcDbEntity
  8
M1
  6
CONTINUOUS
370
25
 62
     7
100
AcDbLine
 10
499.22293
 20
347.999465
 11
556.22293
 21
347.999465
  0
LINE
  5
85
100
AcDbEntity
  8
M1
  6
CONTINUOUS
370
25
 62
     7
100
AcDbLine
 10
499.22293
 20
322.999465
 11
556.22293
 21
322.999465
  0
LINE
  5
86
100
AcDbEntity
  8
M1
  6
CONTINUOUS
370
25
 62
     7
100
AcDbLine
 10
272.22293
 20
338.999465
 11
319.22293
 21
338.999465
  0
LINE
  5
87
100
AcDbEntity
  8
M1
  6
CONTINUOUS
370
25
 62
     7
100
AcDbLine
 10
272.22293
 20
331.999465
 11
319.22293
 21
331.999465
  0
LINE
  5
88
100
AcDbEntity
  8
M1
  6
CONTINUOUS
370
25
 62
     7
100
AcDbLine
 10
509.22293
 20
338.999465
 11
556.22293
 21
338.999465
  0
LINE
  5
89
100
AcDbEntity
  8
M1
  6
CONTINUOUS
370
25
 62
     7
100
AcDbLine
 10
509.22293
 20
331.999465
 11
556.22293
 21
331.999465
  0
LINE
  5
8A
100
AcDbEntity
  8
M1
  6
CONTINUOUS
370
25
 62
     7
100
AcDbLine
 10
385.72293
 20
225.999465
 11
414.22293
 21
225.999465
  0
LINE
  5
8B
100
AcDbEntity
  8
M1
  6
CONTINUOUS
370
25
 62
     7
100
AcDbLine
 10
385.72293
 20
444.999465
 11
414.22293
 21
444.999465
  0
LINE
  5
8C
100
AcDbEntity
  8
M1
  6
CONTINUOUS
370
25
 62
     7
100
AcDbLine
 10
338.72293
 20
372.499465
 11
338.72293
 21
298.499465
  0
LINE
  5
8D
100
AcDbEntity
  8
M1
  6
CONTINUOUS
370
25
 62
     7
100
AcDbLine
 10
369.72293
 20
433.499465
 11
384.72293
 21
433.499465
  0
LINE
  5
8E
100
AcDbEntity
  8
M1
  6
CONTINUOUS
370
25
 62
     7
100
AcDbLine
 10
369.72293
 20
237.499465
 11
384.72293
 21
237.499465
  0
LINE
  5
8F
100
AcDbEntity
  8
M1
  6
CONTINUOUS
370
25
 62
     7
100
AcDbLine
 10
361.72293
 20
392.499465
 11
361.72293
 21
278.499465
  0
LINE
  5
90
100
AcDbEntity
  8
M1
  6
CONTINUOUS
370
25
 62
     7
100
AcDbLine
 10
338.72293
 20
372.499465
 11
361.72293
 21
372.499465
  0
LINE
  5
91
100
AcDbEntity
  8
M1
  6
CONTINUOUS
370
25
 62
     7
100
AcDbLine
 10
338.72293
 20
298.499465
 11
361.72293
 21
298.499465
  0
LINE
  5
92
100
AcDbEntity
  8
M1
  6
CONTINUOUS
370
25
 62
     7
100
AcDbLine
 10
369.72293
 20
433.499465
 11
369.72293
 21
237.499465
  0
LINE
  5
93
100
AcDbEntity
  8
M1
  6
CONTINUOUS
370
25
 62
     7
100
AcDbLine
 10
361.72293
 20
392.499465
 11
363.72293
 21
392.499465
  0
LINE
  5
94
100
AcDbEntity
  8
M1
  6
CONTINUOUS
370
25
 62
     7
100
AcDbLine
 10
361.72293
 20
278.499465
 11
363.72293
 21
278.499465
  0
LINE
  5
95
100
AcDbEntity
  8
M1
  6
CONTINUOUS
370
25
 62
     7
100
AcDbLine
 10
368.22293
 20
427.599471
 11
368.22293
 21
415.399459
  0
LINE
  5
96
100
AcDbEntity
  8
M1
  6
CONTINUOUS
370
25
 62
     7
100
AcDbLine
 10
368.22293
 20
427.599471
 11
369.72293
 21
427.599471
  0
LINE
  5
97
100
AcDbEntity
  8
M1
  6
CONTINUOUS
370
25
 62
     7
100
AcDbLine
 10
368.22293
 20
415.399459
 11
369.72293
 21
415.399459
  0
LINE
  5
98
100
AcDbEntity
  8
M1
  6
CONTINUOUS
370
25
 62
     7
100
AcDbLine
 10
368.223358
 20
421.499159
 11
369.723236
 21
423.021956
  0
LINE
  5
99
100
AcDbEntity
  8
M1
  6
CONTINUOUS
370
25
 62
     7
100
AcDbLine
 10
369.72293
 20
421.499465
 11
368.22293
 21
420.048049
  0
LINE
  5
9A
100
AcDbEntity
  8
M1
  6
CONTINUOUS
370
25
 62
     7
100
AcDbLine
 10
364.22293
 20
425.886275
 11
364.22293
 21
417.112776
  0
LINE
  5
9B
100
AcDbEntity
  8
M1
  6
CONTINUOUS
370
25
 62
     7
100
AcDbLine
 10
364.22293
 20
382.886275
 11
364.22293
 21
374.112776
  0
LINE
  5
9C
100
AcDbEntity
  8
M1
  6
CONTINUOUS
370
25
 62
     7
100
AcDbLine
 10
369.723053
 20
378.499465
 11
368.223053
 21
377.048049
  0
LINE
  5
9D
100
AcDbEntity
  8
M1
  6
CONTINUOUS
370
25
 62
     7
100
AcDbLine
 10
368.223114
 20
378.499251
 11
369.723114
 21
380.02217
  0
LINE
  5
9E
100
AcDbEntity
  8
M1
  6
CONTINUOUS
370
25
 62
     7
100
AcDbLine
 10
368.22293
 20
372.399459
 11
369.72293
 21
372.399459
  0
LINE
  5
9F
100
AcDbEntity
  8
M1
  6
CONTINUOUS
370
25
 62
     7
100
AcDbLine
 10
368.22293
 20
384.599471
 11
369.72293
 21
384.599471
  0
LINE
  5
A0
100
AcDbEntity
  8
M1
  6
CONTINUOUS
370
25
 62
     7
100
AcDbLine
 10
368.22293
 20
384.599471
 11
368.22293
 21
372.399459
  0
LINE
  5
A1
100
AcDbEntity
  8
M1
  6
CONTINUOUS
370
25
 62
     7
100
AcDbLine
 10
368.22293
 20
286.399459
 11
368.22293
 21
298.599456
  0
LINE
  5
A2
100
AcDbEntity
  8
M1
  6
CONTINUOUS
370
25
 62
     7
100
AcDbLine
 10
368.22293
 20
286.399459
 11
369.72293
 21
286.399459
  0
LINE
  5
A3
100
AcDbEntity
  8
M1
  6
CONTINUOUS
370
25
 62
     7
100
AcDbLine
 10
368.22293
 20
298.599456
 11
369.72293
 21
298.599456
  0
LINE
  5
A4
100
AcDbEntity
  8
M1
  6
CONTINUOUS
370
25
 62
     7
100
AcDbLine
 10
368.223053
 20
292.499465
 11
369.723053
 21
294.022261
  0
LINE
  5
A5
100
AcDbEntity
  8
M1
  6
CONTINUOUS
370
25
 62
     7
100
AcDbLine
 10
369.722808
 20
292.499556
 11
368.222808
 21
291.048155
  0
LINE
  5
A6
100
AcDbEntity
  8
M1
  6
CONTINUOUS
370
25
 62
     7
100
AcDbLine
 10
364.22293
 20
288.112761
 11
364.22293
 21
296.88626
  0
LINE
  5
A7
100
AcDbEntity
  8
M1
  6
CONTINUOUS
370
25
 62
     7
100
AcDbLine
 10
364.22293
 20
245.112761
 11
364.22293
 21
253.88626
  0
LINE
  5
A8
100
AcDbEntity
  8
M1
  6
CONTINUOUS
370
25
 62
     7
100
AcDbLine
 10
369.72293
 20
249.499465
 11
368.22293
 21
248.048064
  0
LINE
  5
A9
100
AcDbEntity
  8
M1
  6
CONTINUOUS
370
25
 62
     7
100
AcDbLine
 10
368.222747
 20
249.499556
 11
369.722747
 21
251.02246
  0
LINE
  5
AA
100
AcDbEntity
  8
M1
  6
CONTINUOUS
370
25
 62
     7
100
AcDbLine
 10
368.22293
 20
255.599456
 11
369.72293
 21
255.599456
  0
LINE
  5
AB
100
AcDbEntity
  8
M1
  6
CONTINUOUS
370
25
 62
     7
100
AcDbLine
 10
368.22293
 20
243.399459
 11
369.72293
 21
243.399459
  0
LINE
  5
AC
100
AcDbEntity
  8
M1
  6
CONTINUOUS
370
25
 62
     7
100
AcDbLine
 10
368.22293
 20
243.399459
 11
368.22293
 21
255.599456
  0
LINE
  5
AD
100
AcDbEntity
  8
M1
  6
CONTINUOUS
370
25
 62
     7
100
AcDbLine
 10
384.72293
 20
443.999465
 11
384.72293
 21
226.999465
  0
LINE
  5
AE
100
AcDbEntity
  8
M1
  6
CONTINUOUS
370
25
 62
     7
100
AcDbLine
 10
443.72293
 20
443.999465
 11
443.72293
 21
226.999465
  0
LINE
  5
AF
100
AcDbEntity
  8
M1
  6
CONTINUOUS
370
25
 62
     7
100
AcDbLine
 10
460.22293
 20
243.399459
 11
460.22293
 21
255.599456
  0
LINE
  5
B0
100
AcDbEntity
  8
M1
  6
CONTINUOUS
370
25
 62
     7
100
AcDbLine
 10
460.22293
 20
243.399459
 11
458.72293
 21
243.399459
  0
LINE
  5
B1
100
AcDbEntity
  8
M1
  6
CONTINUOUS
370
25
 62
     7
100
AcDbLine
 10
460.22293
 20
255.599456
 11
458.72293
 21
255.599456
  0
LINE
  5
B2
100
AcDbEntity
  8
M1
  6
CONTINUOUS
370
25
 62
     7
100
AcDbLine
 10
460.223144
 20
249.499358
 11
458.723144
 21
247.976561
  0
LINE
  5
B3
100
AcDbEntity
  8
M1
  6
CONTINUOUS
370
25
 62
     7
100
AcDbLine
 10
458.72293
 20
249.499465
 11
460.22293
 21
250.950957
  0
LINE
  5
B4
100
AcDbEntity
  8
M1
  6
CONTINUOUS
370
25
 62
     7
100
AcDbLine
 10
464.22293
 20
245.112761
 11
464.22293
 21
253.88626
  0
LINE
  5
B5
100
AcDbEntity
  8
M1
  6
CONTINUOUS
370
25
 62
     7
100
AcDbLine
 10
464.22293
 20
288.112761
 11
464.22293
 21
296.88626
  0
LINE
  5
B6
100
AcDbEntity
  8
M1
  6
CONTINUOUS
370
25
 62
     7
100
AcDbLine
 10
458.723144
 20
292.499465
 11
460.223022
 21
293.950865
  0
LINE
  5
B7
100
AcDbEntity
  8
M1
  6
CONTINUOUS
370
25
 62
     7
100
AcDbLine
 10
460.223022
 20
292.499465
 11
458.723022
 21
290.976561
  0
LINE
  5
B8
100
AcDbEntity
  8
M1
  6
CONTINUOUS
370
25
 62
     7
100
AcDbLine
 10
460.22293
 20
298.599456
 11
458.72293
 21
298.599456
  0
LINE
  5
B9
100
AcDbEntity
  8
M1
  6
CONTINUOUS
370
25
 62
     7
100
AcDbLine
 10
460.22293
 20
286.399459
 11
458.72293
 21
286.399459
  0
LINE
  5
BA
100
AcDbEntity
  8
M1
  6
CONTINUOUS
370
25
 62
     7
100
AcDbLine
 10
460.22293
 20
286.399459
 11
460.22293
 21
298.599456
  0
LINE
  5
BB
100
AcDbEntity
  8
M1
  6
CONTINUOUS
370
25
 62
     7
100
AcDbLine
 10
460.22293
 20
384.599471
 11
460.22293
 21
372.399459
  0
LINE
  5
BC
100
AcDbEntity
  8
M1
  6
CONTINUOUS
370
25
 62
     7
100
AcDbLine
 10
460.22293
 20
384.599471
 11
458.72293
 21
384.599471
  0
LINE
  5
BD
100
AcDbEntity
  8
M1
  6
CONTINUOUS
370
25
 62
     7
100
AcDbLine
 10
460.22293
 20
372.399459
 11
458.72293
 21
372.399459
  0
LINE
  5
BE
100
AcDbEntity
  8
M1
  6
CONTINUOUS
370
25
 62
     7
100
AcDbLine
 10
460.223236
 20
378.499251
 11
458.723236
 21
376.976454
  0
LINE
  5
BF
100
AcDbEntity
  8
M1
  6
CONTINUOUS
370
25
 62
     7
100
AcDbLine
 10
458.72293
 20
378.499465
 11
460.22293
 21
379.95085
  0
LINE
  5
C0
100
AcDbEntity
  8
M1
  6
CONTINUOUS
370
25
 62
     7
100
AcDbLine
 10
464.22293
 20
382.886275
 11
464.22293
 21
374.112776
  0
LINE
  5
C1
100
AcDbEntity
  8
M1
  6
CONTINUOUS
370
25
 62
     7
100
AcDbLine
 10
464.22293
 20
425.886275
 11
464.22293
 21
417.112776
  0
LINE
  5
C2
100
AcDbEntity
  8
M1
  6
CONTINUOUS
370
25
 62
     7
100
AcDbLine
 10
458.723022
 20
421.499465
 11
460.223022
 21
422.95085
  0
LINE
  5
C3
100
AcDbEntity
  8
M1
  6
CONTINUOUS
370
25
 62
     7
100
AcDbLine
 10
460.222839
 20
421.499648
 11
458.722717
 21
419.97676
  0
LINE
  5
C4
100
AcDbEntity
  8
M1
  6
CONTINUOUS
370
25
 62
     7
100
AcDbLine
 10
460.22293
 20
415.399459
 11
458.72293
 21
415.399459
  0
LINE
  5
C5
100
AcDbEntity
  8
M1
  6
CONTINUOUS
370
25
 62
     7
100
AcDbLine
 10
460.22293
 20
427.599471
 11
458.72293
 21
427.599471
  0
LINE
  5
C6
100
AcDbEntity
  8
M1
  6
CONTINUOUS
370
25
 62
     7
100
AcDbLine
 10
460.22293
 20
427.599471
 11
460.22293
 21
415.399459
  0
LINE
  5
C7
100
AcDbEntity
  8
M1
  6
CONTINUOUS
370
25
 62
     7
100
AcDbLine
 10
466.72293
 20
278.499465
 11
464.72293
 21
278.499465
  0
LINE
  5
C8
100
AcDbEntity
  8
M1
  6
CONTINUOUS
370
25
 62
     7
100
AcDbLine
 10
466.72293
 20
392.499465
 11
464.72293
 21
392.499465
  0
LINE
  5
C9
100
AcDbEntity
  8
M1
  6
CONTINUOUS
370
25
 62
     7
100
AcDbLine
 10
458.72293
 20
433.499465
 11
458.72293
 21
237.499465
  0
LINE
  5
CA
100
AcDbEntity
  8
M1
  6
CONTINUOUS
370
25
 62
     7
100
AcDbLine
 10
489.72293
 20
298.499465
 11
466.72293
 21
298.499465
  0
LINE
  5
CB
100
AcDbEntity
  8
M1
  6
CONTINUOUS
370
25
 62
     7
100
AcDbLine
 10
489.72293
 20
372.499465
 11
466.72293
 21
372.499465
  0
LINE
  5
CC
100
AcDbEntity
  8
M1
  6
CONTINUOUS
370
25
 62
     7
100
AcDbLine
 10
466.72293
 20
392.499465
 11
466.72293
 21
278.499465
  0
LINE
  5
CD
100
AcDbEntity
  8
M1
  6
CONTINUOUS
370
25
 62
     7
100
AcDbLine
 10
458.72293
 20
237.499465
 11
443.72293
 21
237.499465
  0
LINE
  5
CE
100
AcDbEntity
  8
M1
  6
CONTINUOUS
370
25
 62
     7
100
AcDbLine
 10
458.72293
 20
433.499465
 11
443.72293
 21
433.499465
  0
LINE
  5
CF
100
AcDbEntity
  8
M1
  6
CONTINUOUS
370
25
 62
     7
100
AcDbLine
 10
489.72293
 20
372.499465
 11
489.72293
 21
298.499465
  0
LINE
  5
D0
100
AcDbEntity
  8
M1
  6
CONTINUOUS
370
25
 62
     7
100
AcDbLine
 10
442.72293
 20
444.999465
 11
414.22293
 21
444.999465
  0
LINE
  5
D1
100
AcDbEntity
  8
M1
  6
CONTINUOUS
370
25
 62
     7
100
AcDbLine
 10
442.72293
 20
225.999465
 11
414.22293
 21
225.999465
  0
LINE
  5
D2
100
AcDbEntity
  8
M1
  6
CONTINUOUS
370
25
 62
     7
100
AcDbLine
 10
556.22293
 20
331.999465
 11
509.22293
 21
331.999465
  0
LINE
  5
D3
100
AcDbEntity
  8
M1
  6
CONTINUOUS
370
25
 62
     7
100
AcDbLine
 10
556.22293
 20
338.999465
 11
509.22293
 21
338.999465
  0
LINE
  5
D4
100
AcDbEntity
  8
M1
  6
CONTINUOUS
370
25
 62
     7
100
AcDbLine
 10
556.22293
 20
347.999465
 11
499.22293
 21
347.999465
  0
LINE
  5
D5
100
AcDbEntity
  8
M1
  6
CONTINUOUS
370
25
 62
     7
100
AcDbLine
 10
556.22293
 20
322.999465
 11
499.22293
 21
322.999465
  0
LINE
  5
D6
100
AcDbEntity
  8
M1
  6
CONTINUOUS
370
25
 62
     7
100
AcDbLine
 10
499.22293
 20
350.499465
 11
499.22293
 21
320.499465
  0
LINE
  5
D7
100
AcDbEntity
  8
M1
  6
CONTINUOUS
370
25
 62
     7
100
AcDbLine
 10
509.22293
 20
338.999465
 11
509.22293
 21
331.999465
  0
LINE
  5
D8
100
AcDbEntity
  8
M1
  6
CONTINUOUS
370
25
 62
     7
100
AcDbLine
 10
556.22293
 20
347.999465
 11
556.22293
 21
322.999465
  0
LINE
  5
D9
100
AcDbEntity
  8
M1
  6
CONTINUOUS
370
13
 62
     7
100
AcDbLine
 10
251.994659
 20
335.499465
 11
276.771942
 21
335.499465
  0
LINE
  5
DA
100
AcDbEntity
  8
M1
  6
CONTINUOUS
370
13
 62
     7
100
AcDbLine
 10
121.741573
 20
335.499465
 11
133.132381
 21
335.499465
  0
LINE
  5
DB
100
AcDbEntity
  8
M1
  6
CONTINUOUS
370
25
 62
     7
100
AcDbLine
 10
142.937008
 20
338.999465
 11
142.937008
 21
331.999465
  0
LINE
  5
DC
100
AcDbEntity
  8
M1
  6
CONTINUOUS
370
25
 62
     7
100
AcDbLine
 10
135.937008
 20
338.999465
 11
135.937008
 21
331.999465
  0
LINE
  5
DD
100
AcDbEntity
  8
M1
  6
CONTINUOUS
370
25
 62
     7
100
AcDbLine
 10
135.937008
 20
331.999465
 11
142.937008
 21
331.999465
  0
LINE
  5
DE
100
AcDbEntity
  8
M1
  6
CONTINUOUS
370
25
 62
     7
100
AcDbLine
 10
135.937008
 20
338.999465
 11
142.937008
 21
338.999465
  0
LINE
  5
DF
100
AcDbEntity
  8
M1
  6
CONTINUOUS
370
25
 62
     7
100
AcDbLine
 10
384.72293
 20
443.999465
 11
385.72293
 21
444.999465
  0
LINE
  5
E0
100
AcDbEntity
  8
M1
  6
CONTINUOUS
370
25
 62
     7
100
AcDbLine
 10
442.72293
 20
444.999465
 11
443.723022
 21
443.999465
  0
LINE
  5
E1
100
AcDbEntity
  8
M1
  6
CONTINUOUS
370
25
 62
     7
100
AcDbLine
 10
385.723053
 20
225.999465
 11
384.72293
 21
226.999465
  0
LINE
  5
E2
100
AcDbEntity
  8
M1
  6
CONTINUOUS
370
25
 62
     7
100
AcDbLine
 10
442.72293
 20
225.999465
 11
443.72293
 21
226.999465
  0
LINE
  5
E3
100
AcDbEntity
  8
M1
  6
CONTINUOUS
370
25
 62
     7
100
AcDbLine
 10
692.117256
 20
338.999465
 11
685.117256
 21
338.999465
  0
LINE
  5
E4
100
AcDbEntity
  8
M1
  6
CONTINUOUS
370
25
 62
     7
100
AcDbLine
 10
692.117256
 20
331.999465
 11
685.117256
 21
331.999465
  0
LINE
  5
E5
100
AcDbEntity
  8
M1
  6
CONTINUOUS
370
25
 62
     7
100
AcDbLine
 10
692.117256
 20
338.999465
 11
692.117256
 21
331.999465
  0
LINE
  5
E6
100
AcDbEntity
  8
M1
  6
CONTINUOUS
370
25
 62
     7
100
AcDbLine
 10
685.117256
 20
338.999465
 11
685.117256
 21
331.999465
  0
LINE
  5
E7
100
AcDbEntity
  8
M1
  6
CONTINUOUS
370
13
 62
     7
100
AcDbLine
 10
705.26905
 20
335.499465
 11
695.965354
 21
335.499465
  0
LINE
  5
E8
100
AcDbEntity
  8
M1
  6
CONTINUOUS
370
25
 62
     7
100
AcDbLine
 10
619.463447
 20
390.436354
 11
668.588951
 21
362.073775
  0
LINE
  5
E9
100
AcDbEntity
  8
M1
  6
CONTINUOUS
370
25
 62
     7
100
AcDbLine
 10
693.617256
 20
433.249159
 11
693.617256
 21
376.523848
  0
LINE
  5
EA
100
AcDbEntity
  8
M1
  6
CONTINUOUS
370
25
 62
     7
100
AcDbLine
 10
666.504249
 20
375.913558
 11
673.300956
 21
367.214156
  0
LINE
  5
EB
100
AcDbEntity
  8
M1
  6
CONTINUOUS
370
25
 62
     7
100
AcDbLine
 10
654.851249
 20
397.32585
 11
661.634254
 21
388.644057
  0
LINE
  5
EC
100
AcDbEntity
  8
M1
  6
CONTINUOUS
370
25
 62
     7
100
AcDbLine
 10
669.95716
 20
406.047072
 11
674.084251
 21
395.831954
  0
LINE
  5
ED
100
AcDbEntity
  8
M1
  6
CONTINUOUS
370
25
 62
     7
100
AcDbLine
 10
682.673957
 20
385.249251
 11
686.809562
 21
375.013472
  0
LINE
  5
EE
100
AcDbEntity
  8
M1
  6
CONTINUOUS
370
25
 62
     7
100
AcDbLine
 10
678.965248
 20
383.750868
 11
683.100852
 21
373.514968
  0
LINE
  5
EF
100
AcDbEntity
  8
M1
  6
CONTINUOUS
370
25
 62
     7
100
AcDbLine
 10
669.65615
 20
378.376357
 11
676.452949
 21
369.676863
  0
LINE
  5
F0
100
AcDbEntity
  8
M1
  6
CONTINUOUS
370
13
 62
     7
100
AcDbLine
 10
652.897758
 20
363.05046
 11
661.871055
 21
357.869673
  0
LINE
  5
F1
100
AcDbEntity
  8
M1
  6
CONTINUOUS
370
25
 62
     7
100
AcDbLine
 10
612.463447
 20
292.686858
 11
661.589057
 21
321.049559
  0
LINE
  5
F2
100
AcDbEntity
  8
M1
  6
CONTINUOUS
370
25
 62
     7
100
AcDbLine
 10
612.463447
 20
378.311965
 11
661.588951
 21
349.94937
  0
LINE
  5
F3
100
AcDbEntity
  8
M1
  6
CONTINUOUS
370
25
 62
     7
100
AcDbLine
 10
648.561058
 20
326.163863
 11
659.493354
 21
327.70027
  0
LINE
  5
F4
100
AcDbEntity
  8
M1
  6
CONTINUOUS
370
25
 62
     7
100
AcDbLine
 10
624.191154
 20
326.778166
 11
635.101356
 21
328.311461
  0
LINE
  5
F5
100
AcDbEntity
  8
M1
  6
CONTINUOUS
370
25
 62
     7
100
AcDbLine
 10
624.191047
 20
344.220961
 11
635.101249
 21
342.687667
  0
LINE
  5
F6
100
AcDbEntity
  8
M1
  6
CONTINUOUS
370
25
 62
     7
100
AcDbLine
 10
648.561149
 20
344.835158
 11
659.493354
 21
343.298766
  0
LINE
  5
F7
100
AcDbEntity
  8
M1
  6
CONTINUOUS
370
25
 62
     7
100
AcDbLine
 10
648.004356
 20
340.873961
 11
658.936653
 21
339.337569
  0
LINE
  5
F8
100
AcDbEntity
  8
M1
  6
CONTINUOUS
370
25
 62
     7
100
AcDbLine
 10
648.004447
 20
330.124968
 11
658.936653
 21
331.66136
  0
LINE
  5
F9
100
AcDbEntity
  8
M1
  6
CONTINUOUS
370
13
 62
     7
100
AcDbLine
 10
652.897651
 20
307.948561
 11
661.870948
 21
313.129363
  0
LINE
  5
FA
100
AcDbEntity
  8
M1
  6
CONTINUOUS
370
25
 62
     7
100
AcDbLine
 10
693.617256
 20
237.749861
 11
693.617256
 21
294.475066
  0
LINE
  5
FB
100
AcDbEntity
  8
M1
  6
CONTINUOUS
370
25
 62
     7
100
AcDbLine
 10
619.463554
 20
280.562468
 11
668.589057
 21
308.925063
  0
LINE
  5
FC
100
AcDbEntity
  8
M1
  6
CONTINUOUS
370
25
 62
     7
100
AcDbLine
 10
682.674049
 20
285.749663
 11
686.809654
 21
295.985564
  0
LINE
  5
FD
100
AcDbEntity
  8
M1
  6
CONTINUOUS
370
25
 62
     7
100
AcDbLine
 10
669.95716
 20
264.951857
 11
674.084251
 21
275.167067
  0
LINE
  5
FE
100
AcDbEntity
  8
M1
  6
CONTINUOUS
370
25
 62
     7
100
AcDbLine
 10
654.851249
 20
273.673262
 11
661.634254
 21
282.355055
  0
LINE
  5
FF
100
AcDbEntity
  8
M1
  6
CONTINUOUS
370
25
 62
     7
100
AcDbLine
 10
666.504249
 20
295.085356
 11
673.301048
 21
303.784865
  0
LINE
  5
100
100
AcDbEntity
  8
M1
  6
CONTINUOUS
370
25
 62
     7
100
AcDbLine
 10
669.656257
 20
292.622756
 11
676.452949
 21
301.322158
  0
LINE
  5
101
100
AcDbEntity
  8
M1
  6
CONTINUOUS
370
25
 62
     7
100
AcDbLine
 10
678.965248
 20
287.248168
 11
683.100852
 21
297.483962
  0
LINE
  5
102
100
AcDbEntity
  8
M1
  6
CONTINUOUS
370
25
 62
     7
100
AcDbLine
 10
781.770736
 20
280.562361
 11
732.645256
 21
308.924956
  0
LINE
  5
103
100
AcDbEntity
  8
M1
  6
CONTINUOUS
370
25
 62
     7
100
AcDbLine
 10
707.617256
 20
237.749861
 11
707.617256
 21
294.475066
  0
LINE
  5
104
100
AcDbEntity
  8
M1
  6
CONTINUOUS
370
25
 62
     7
100
AcDbLine
 10
734.730255
 20
295.085356
 11
727.933456
 21
303.784758
  0
LINE
  5
105
100
AcDbEntity
  8
M1
  6
CONTINUOUS
370
25
 62
     7
100
AcDbLine
 10
746.382972
 20
273.673155
 11
739.600006
 21
282.354964
  0
LINE
  5
106
100
AcDbEntity
  8
M1
  6
CONTINUOUS
370
25
 62
     7
100
AcDbLine
 10
731.277351
 20
264.951964
 11
727.150154
 21
275.167067
  0
LINE
  5
107
100
AcDbEntity
  8
M1
  6
CONTINUOUS
370
25
 62
     7
100
AcDbLine
 10
718.560455
 20
285.749663
 11
714.424858
 21
295.985564
  0
LINE
  5
108
100
AcDbEntity
  8
M1
  6
CONTINUOUS
370
25
 62
     7
100
AcDbLine
 10
722.269058
 20
287.248061
 11
718.133453
 21
297.483962
  0
LINE
  5
109
100
AcDbEntity
  8
M1
  6
CONTINUOUS
370
25
 62
     7
100
AcDbLine
 10
731.578155
 20
292.622664
 11
724.781356
 21
301.322066
  0
LINE
  5
10A
100
AcDbEntity
  8
M1
  6
CONTINUOUS
370
13
 62
     7
100
AcDbLine
 10
748.336761
 20
307.948561
 11
739.363311
 21
313.129256
  0
LINE
  5
10B
100
AcDbEntity
  8
M1
  6
CONTINUOUS
370
25
 62
     7
100
AcDbLine
 10
788.770946
 20
378.312148
 11
739.645477
 21
349.949462
  0
LINE
  5
10C
100
AcDbEntity
  8
M1
  6
CONTINUOUS
370
25
 62
     7
100
AcDbLine
 10
788.770866
 20
292.686858
 11
739.645362
 21
321.049559
  0
LINE
  5
10D
100
AcDbEntity
  8
M1
  6
CONTINUOUS
370
25
 62
     7
100
AcDbLine
 10
752.673385
 20
344.835158
 11
741.741157
 21
343.298766
  0
LINE
  5
10E
100
AcDbEntity
  8
M1
  6
CONTINUOUS
370
25
 62
     7
100
AcDbLine
 10
777.043304
 20
344.220763
 11
766.133132
 21
342.687468
  0
LINE
  5
10F
100
AcDbEntity
  8
M1
  6
CONTINUOUS
370
25
 62
     7
100
AcDbLine
 10
777.043186
 20
326.778258
 11
766.133018
 21
328.311461
  0
LINE
  5
110
100
AcDbEntity
  8
M1
  6
CONTINUOUS
370
25
 62
     7
100
AcDbLine
 10
752.673431
 20
326.163756
 11
741.741134
 21
327.70027
  0
LINE
  5
111
100
AcDbEntity
  8
M1
  6
CONTINUOUS
370
25
 62
     7
100
AcDbLine
 10
753.230125
 20
330.125167
 11
742.297767
 21
331.661559
  0
LINE
  5
112
100
AcDbEntity
  8
M1
  6
CONTINUOUS
370
25
 62
     7
100
AcDbLine
 10
753.230064
 20
340.873961
 11
742.297706
 21
339.337569
  0
LINE
  5
113
100
AcDbEntity
  8
M1
  6
CONTINUOUS
370
13
 62
     7
100
AcDbLine
 10
748.336898
 20
363.05046
 11
739.363441
 21
357.869673
  0
LINE
  5
114
100
AcDbEntity
  8
M1
  6
CONTINUOUS
370
25
 62
     7
100
AcDbLine
 10
722.269058
 20
383.750868
 11
718.133453
 21
373.514968
  0
LINE
  5
115
100
AcDbEntity
  8
M1
  6
CONTINUOUS
370
25
 62
     7
100
AcDbLine
 10
731.578254
 20
378.376265
 11
724.781455
 21
369.676863
  0
LINE
  5
116
100
AcDbEntity
  8
M1
  6
CONTINUOUS
370
25
 62
     7
100
AcDbLine
 10
734.730255
 20
375.913649
 11
727.933456
 21
367.214156
  0
LINE
  5
117
100
AcDbEntity
  8
M1
  6
CONTINUOUS
370
25
 62
     7
100
AcDbLine
 10
746.383064
 20
397.325759
 11
739.600128
 21
388.643965
  0
LINE
  5
118
100
AcDbEntity
  8
M1
  6
CONTINUOUS
370
25
 62
     7
100
AcDbLine
 10
731.277351
 20
406.047072
 11
727.150154
 21
395.831954
  0
LINE
  5
119
100
AcDbEntity
  8
M1
  6
CONTINUOUS
370
25
 62
     7
100
AcDbLine
 10
718.560356
 20
385.249373
 11
714.424751
 21
375.013472
  0
LINE
  5
11A
100
AcDbEntity
  8
M1
  6
CONTINUOUS
370
25
 62
     7
100
AcDbLine
 10
781.770896
 20
390.436476
 11
732.645454
 21
362.073775
  0
LINE
  5
11B
100
AcDbEntity
  8
M1
  6
CONTINUOUS
370
25
 62
     7
100
AcDbLine
 10
707.617256
 20
433.249159
 11
707.617256
 21
376.523848
  0
LINE
  5
11C
100
AcDbEntity
  8
M1
  6
CONTINUOUS
370
13
 62
     7
100
AcDbLine
 10
700.617256
 20
340.151366
 11
700.617256
 21
330.84767
  0
LINE
  5
11D
100
AcDbEntity
  8
M1
  6
CONTINUOUS
370
25
 62
     7
100
AcDbLine
 10
368.22293
 20
427.272963
 11
364.594513
 21
427.272963
  0
LINE
  5
11E
100
AcDbEntity
  8
M1
  6
CONTINUOUS
370
25
 62
     7
100
AcDbLine
 10
364.594513
 20
415.725966
 11
368.22293
 21
415.725966
  0
LINE
  5
11F
100
AcDbEntity
  8
M1
  6
CONTINUOUS
370
25
 62
     7
100
AcDbLine
 10
368.22293
 20
384.272963
 11
364.594513
 21
384.272963
  0
LINE
  5
120
100
AcDbEntity
  8
M1
  6
CONTINUOUS
370
25
 62
     7
100
AcDbLine
 10
364.594513
 20
372.725966
 11
368.22293
 21
372.725966
  0
LINE
  5
121
100
AcDbEntity
  8
M1
  6
CONTINUOUS
370
25
 62
     7
100
AcDbLine
 10
463.851318
 20
372.725966
 11
460.22293
 21
372.725966
  0
LINE
  5
122
100
AcDbEntity
  8
M1
  6
CONTINUOUS
370
25
 62
     7
100
AcDbLine
 10
460.22293
 20
384.272963
 11
463.851318
 21
384.272963
  0
LINE
  5
123
100
AcDbEntity
  8
M1
  6
CONTINUOUS
370
25
 62
     7
100
AcDbLine
 10
460.22293
 20
427.272963
 11
463.851318
 21
427.272963
  0
LINE
  5
124
100
AcDbEntity
  8
M1
  6
CONTINUOUS
370
25
 62
     7
100
AcDbLine
 10
463.851318
 20
415.725966
 11
460.22293
 21
415.725966
  0
LINE
  5
125
100
AcDbEntity
  8
M1
  6
CONTINUOUS
370
25
 62
     7
100
AcDbLine
 10
364.594513
 20
298.272963
 11
368.22293
 21
298.272963
  0
LINE
  5
126
100
AcDbEntity
  8
M1
  6
CONTINUOUS
370
25
 62
     7
100
AcDbLine
 10
368.22293
 20
286.725966
 11
364.594513
 21
286.725966
  0
LINE
  5
127
100
AcDbEntity
  8
M1
  6
CONTINUOUS
370
25
 62
     7
100
AcDbLine
 10
364.594513
 20
255.272963
 11
368.22293
 21
255.272963
  0
LINE
  5
128
100
AcDbEntity
  8
M1
  6
CONTINUOUS
370
25
 62
     7
100
AcDbLine
 10
368.22293
 20
243.725966
 11
364.594513
 21
243.725966
  0
LINE
  5
129
100
AcDbEntity
  8
M1
  6
CONTINUOUS
370
25
 62
     7
100
AcDbLine
 10
460.22293
 20
243.725966
 11
463.851318
 21
243.725966
  0
LINE
  5
12A
100
AcDbEntity
  8
M1
  6
CONTINUOUS
370
25
 62
     7
100
AcDbLine
 10
463.851318
 20
255.272963
 11
460.22293
 21
255.272963
  0
LINE
  5
12B
100
AcDbEntity
  8
M1
  6
CONTINUOUS
370
25
 62
     7
100
AcDbLine
 10
463.851318
 20
298.272963
 11
460.22293
 21
298.272963
  0
LINE
  5
12C
100
AcDbEntity
  8
M1
  6
CONTINUOUS
370
25
 62
     7
100
AcDbLine
 10
460.22293
 20
286.725966
 11
463.851318
 21
286.725966
  0
LINE
  5
12D
100
AcDbEntity
  8
M1
  6
CONTINUOUS
370
13
 62
     7
100
AcDbLine
 10
127.437008
 20
390.508254
 11
127.437008
 21
380.544173
  0
LINE
  5
12E
100
AcDbEntity
  8
M1
  6
CONTINUOUS
370
13
 62
     7
100
AcDbLine
 10
127.437008
 20
280.90306
 11
127.437008
 21
290.867156
  0
LINE
  5
12F
100
AcDbEntity
  8
M1
  6
CONTINUOUS
370
13
 62
     7
100
AcDbLine
 10
551.156921
 20
335.499465
 11
576.101043
 21
335.499465
  0
LINE
  5
130
100
AcDbEntity
  8
M1
  6
CONTINUOUS
370
13
 62
     7
100
AcDbLine
 10
700.617256
 20
390.495467
 11
700.617256
 21
380.531874
  0
LINE
  5
131
100
AcDbEntity
  8
M1
  6
CONTINUOUS
370
13
 62
     7
100
AcDbLine
 10
700.617256
 20
280.896361
 11
700.617256
 21
290.859969
  0
LINE
  5
132
100
AcDbEntity
  8
M1
  6
CONTINUOUS
370
25
 62
     7
100
AcDbLine
 10
443.72293
 20
438.23976
 11
447.32193
 21
438.23976
  0
LINE
  5
133
100
AcDbEntity
  8
M1
  6
CONTINUOUS
370
25
 62
     7
100
AcDbLine
 10
453.122924
 20
441.239852
 11
453.122924
 21
445.71675
  0
LINE
  5
134
100
AcDbEntity
  8
M1
  6
CONTINUOUS
370
25
 62
     7
100
AcDbLine
 10
453.123016
 20
445.71675
 11
450.322937
 21
443.844771
  0
LINE
  5
135
100
AcDbEntity
  8
M1
  6
CONTINUOUS
370
25
 62
     7
100
AcDbLine
 10
450.322937
 20
441.239852
 11
450.322937
 21
443.844771
  0
LINE
  5
136
100
AcDbEntity
  8
M1
  6
CONTINUOUS
370
25
 62
     7
100
AcDbLine
 10
453.122924
 20
449.389754
 11
450.323028
 21
447.346755
  0
LINE
  5
137
100
AcDbEntity
  8
M1
  6
CONTINUOUS
370
25
 62
     7
100
AcDbLine
 10
450.322937
 20
447.346877
 11
450.322937
 21
452.632857
  0
LINE
  5
138
100
AcDbEntity
  8
M1
  6
CONTINUOUS
370
25
 62
     7
100
AcDbLine
 10
453.122924
 20
449.389876
 11
453.122924
 21
452.632857
  0
LINE
  5
139
100
AcDbEntity
  8
M1
  6
CONTINUOUS
370
25
 62
     7
100
AcDbLine
 10
457.322937
 20
464.757857
 11
458.72293
 21
462.332869
  0
LINE
  5
13A
100
AcDbEntity
  8
M1
  6
CONTINUOUS
370
25
 62
     7
100
AcDbLine
 10
446.122924
 20
464.757857
 11
444.72293
 21
462.332869
  0
LINE
  5
13B
100
AcDbEntity
  8
M1
  6
CONTINUOUS
370
25
 62
     7
100
AcDbLine
 10
445.423034
 20
463.544875
 11
439.361023
 21
467.044875
  0
LINE
  5
13C
100
AcDbEntity
  8
M1
  6
CONTINUOUS
370
25
 62
     7
100
AcDbLine
 10
458.02304
 20
463.544661
 11
464.085144
 21
467.044661
  0
LINE
  5
13D
100
AcDbEntity
  8
M1
  6
CONTINUOUS
370
25
 62
     7
100
AcDbLine
 10
447.32193
 20
435.439772
 11
443.72293
 21
435.439772
  0
LINE
  5
13E
100
AcDbEntity
  8
M1
  6
CONTINUOUS
370
25
 62
     7
100
AcDbLine
 10
75.130917
 20
431.698867
 11
68.203182
 21
443.698256
  0
LINE
  5
13F
100
AcDbEntity
  8
M1
  6
CONTINUOUS
370
25
 62
     7
100
AcDbLine
 10
47.961117
 20
459.158065
 11
47.960018
 21
456.359053
  0
LINE
  5
140
100
AcDbEntity
  8
M1
  6
CONTINUOUS
370
25
 62
     7
100
AcDbLine
 10
60.085079
 20
466.159163
 11
62.510189
 21
464.758162
  0
LINE
  5
141
100
AcDbEntity
  8
M1
  6
CONTINUOUS
370
25
 62
     7
100
AcDbLine
 10
47.960079
 20
457.758071
 11
40.961117
 21
457.758071
  0
LINE
  5
142
100
AcDbEntity
  8
M1
  6
CONTINUOUS
370
25
 62
     7
100
AcDbLine
 10
61.297176
 20
465.458052
 11
64.797176
 21
471.521071
  0
LINE
  5
143
100
AcDbEntity
  8
M1
  6
CONTINUOUS
370
25
 62
     7
100
AcDbLine
 10
60.085018
 20
452.157973
 11
64.041988
 21
445.304976
  0
LINE
  5
144
100
AcDbEntity
  8
M1
  6
CONTINUOUS
370
25
 62
     7
100
AcDbLine
 10
66.146114
 20
447.261153
 11
62.510128
 21
453.559157
  0
LINE
  5
145
100
AcDbEntity
  8
M1
  6
CONTINUOUS
370
25
 62
     7
100
AcDbLine
 10
61.938229
 20
443.348159
 11
57.660213
 21
450.758071
  0
LINE
  5
146
100
AcDbEntity
  8
M1
  6
CONTINUOUS
370
25
 62
     7
100
AcDbLine
 10
66.146114
 20
447.261061
 11
61.938107
 21
443.348067
  0
LINE
  5
147
100
AcDbEntity
  8
M1
  6
CONTINUOUS
370
25
 62
     7
100
AcDbLine
 10
68.203121
 20
443.698073
 11
63.857113
 21
440.025069
  0
LINE
  5
148
100
AcDbEntity
  8
M1
  6
CONTINUOUS
370
25
 62
     7
100
AcDbLine
 10
70.280086
 20
428.898451
 11
63.856686
 21
440.024977
  0
LINE
  5
149
100
AcDbEntity
  8
M1
  6
CONTINUOUS
370
25
 62
     7
100
AcDbLine
 10
66.028988
 20
441.860549
 11
72.68713
 21
430.329268
  0
LINE
  5
14A
100
AcDbEntity
  8
M1
  6
CONTINUOUS
370
25
 62
     7
100
AcDbLine
 10
749.704421
 20
426.123274
 11
759.850997
 21
443.698256
  0
LINE
  5
14B
100
AcDbEntity
  8
M1
  6
CONTINUOUS
370
25
 62
     7
100
AcDbLine
 10
780.093185
 20
459.158065
 11
780.094226
 21
456.359053
  0
LINE
  5
14C
100
AcDbEntity
  8
M1
  6
CONTINUOUS
370
25
 62
     7
100
AcDbLine
 10
767.969093
 20
466.159163
 11
765.544052
 21
464.758162
  0
LINE
  5
14D
100
AcDbEntity
  8
M1
  6
CONTINUOUS
370
25
 62
     7
100
AcDbLine
 10
780.094165
 20
457.758071
 11
787.093196
 21
457.758071
  0
LINE
  5
14E
100
AcDbEntity
  8
M1
  6
CONTINUOUS
370
25
 62
     7
100
AcDbLine
 10
766.757072
 20
465.458052
 11
763.257072
 21
471.521071
  0
LINE
  5
14F
100
AcDbEntity
  8
M1
  6
CONTINUOUS
370
25
 62
     7
100
AcDbLine
 10
767.969223
 20
452.157973
 11
764.012184
 21
445.304976
  0
LINE
  5
150
100
AcDbEntity
  8
M1
  6
CONTINUOUS
370
25
 62
     7
100
AcDbLine
 10
761.908195
 20
447.261153
 11
765.544128
 21
453.559157
  0
LINE
  5
151
100
AcDbEntity
  8
M1
  6
CONTINUOUS
370
25
 62
     7
100
AcDbLine
 10
766.116012
 20
443.348159
 11
770.394027
 21
450.758162
  0
LINE
  5
152
100
AcDbEntity
  8
M1
  6
CONTINUOUS
370
25
 62
     7
100
AcDbLine
 10
761.908134
 20
447.26097
 11
766.116142
 21
443.348067
  0
LINE
  5
153
100
AcDbEntity
  8
M1
  6
CONTINUOUS
370
25
 62
     7
100
AcDbLine
 10
759.851135
 20
443.697951
 11
764.197128
 21
440.024977
  0
LINE
  5
154
100
AcDbEntity
  8
M1
  6
CONTINUOUS
370
25
 62
     7
100
AcDbLine
 10
754.452018
 20
423.144057
 11
764.197547
 21
440.024977
  0
LINE
  5
155
100
AcDbEntity
  8
M1
  6
CONTINUOUS
370
25
 62
     7
100
AcDbLine
 10
762.025268
 20
441.860549
 11
752.390312
 21
425.173476
  0
CIRCLE
  5
156
100
AcDbEntity
  8
M1
  6
CONTINUOUS
370
25
 62
     7
100
AcDbCircle
 10
127.437008
 20
335.499465
 40
98.0
  0
CIRCLE
  5
157
100
AcDbEntity
  8
M1
  6
CONTINUOUS
370
25
 62
     7
100
AcDbCircle
 10
127.437008
 20
335.499465
 40
109.5
  0
CIRCLE
  5
158
100
AcDbEntity
  8
M1
  6
CONTINUOUS
370
25
 62
     7
100
AcDbCircle
 10
127.437008
 20
335.499465
 40
37.0
  0
CIRCLE
  5
159
100
AcDbEntity
  8
M1
  6
CONTINUOUS
370
25
 62
     7
100
AcDbCircle
 10
127.437008
 20
335.499465
 40
31.0
  0
ARC
  5
15A
100
AcDbEntity
  8
M1
  6
CONTINUOUS
370
25
 62
     7
100
AcDbCircle
 10
127.437008
 20
335.499465
 40
55.000008
100
AcDbArc
 50
99.776955
 51
107.67167
  0
ARC
  5
15B
100
AcDbEntity
  8
M1
  6
CONTINUOUS
370
25
 62
     7
100
AcDbCircle
 10
127.437008
 20
335.499465
 40
64.000038
100
AcDbArc
 50
115.474586
 51
124.525404
  0
ARC
  5
15C
100
AcDbEntity
  8
M1
  6
CONTINUOUS
370
25
 62
     7
100
AcDbCircle
 10
127.437008
 20
335.499465
 40
79.000061
100
AcDbArc
 50
114.977806
 51
125.022205
  0
ARC
  5
15D
100
AcDbEntity
  8
M1
  6
CONTINUOUS
370
25
 62
     7
100
AcDbCircle
 10
127.437008
 20
335.499465
 40
55.000023
100
AcDbArc
 50
132.328354
 51
140.223138
  0
ARC
  5
15E
100
AcDbEntity
  8
M1
  6
CONTINUOUS
370
25
 62
     7
100
AcDbCircle
 10
127.437008
 20
335.499465
 40
55.000015
100
AcDbArc
 50
116.328346
 51
123.671679
  0
ARC
  5
15F
100
AcDbEntity
  8
M1
  6
CONTINUOUS
370
25
 62
     7
100
AcDbCircle
 10
86.70422
 20
369.408858
 40
2.000022
100
AcDbArc
 50
140.223526
 51
240.000504
  0
ARC
  5
160
100
AcDbEntity
  8
M1
  6
CONTINUOUS
370
25
 62
     7
100
AcDbCircle
 10
91.747921
 20
374.682265
 40
2.00006
100
AcDbArc
 50
38.000885
 51
132.327797
  0
ARC
  5
161
100
AcDbEntity
  8
M1
  6
CONTINUOUS
370
25
 62
     7
100
AcDbCircle
 10
98.544674
 20
365.982863
 40
2.000029
100
AcDbArc
 50
313.465485
 51
398.001587
  0
ARC
  5
162
100
AcDbEntity
  8
M1
  6
CONTINUOUS
370
25
 62
     7
100
AcDbCircle
 10
96.40881
 20
363.805953
 40
2.000031
100
AcDbArc
 50
240.000504
 51
317.623924
  0
ARC
  5
163
100
AcDbEntity
  8
M1
  6
CONTINUOUS
370
25
 62
     7
100
AcDbCircle
 10
98.051998
 20
379.607558
 40
2.000039
100
AcDbArc
 50
123.671638
 51
217.997742
  0
ARC
  5
164
100
AcDbEntity
  8
M1
  6
CONTINUOUS
370
25
 62
     7
100
AcDbCircle
 10
103.930721
 20
383.001662
 40
2.0
100
AcDbArc
 50
21.999798
 51
116.328503
  0
ARC
  5
165
100
AcDbEntity
  8
M1
  6
CONTINUOUS
370
25
 62
     7
100
AcDbCircle
 10
104.84869
 20
370.908156
 40
1.999956
100
AcDbArc
 50
217.999893
 51
302.536766
  0
ARC
  5
166
100
AcDbEntity
  8
M1
  6
CONTINUOUS
370
25
 62
     7
100
AcDbCircle
 10
108.06628
 20
372.765761
 40
2.000015
100
AcDbArc
 50
297.465118
 51
382.00045
  0
ARC
  5
167
100
AcDbEntity
  8
M1
  6
CONTINUOUS
370
25
 62
     7
100
AcDbCircle
 10
115.483822
 20
375.762648
 40
2.000045
100
AcDbArc
 50
201.998337
 51
286.533615
  0
ARC
  5
168
100
AcDbEntity
  8
M1
  6
CONTINUOUS
370
25
 62
     7
100
AcDbCircle
 10
111.348202
 20
385.998549
 40
1.999984
100
AcDbArc
 50
107.671593
 51
202.002228
  0
ARC
  5
169
100
AcDbEntity
  8
M1
  6
CONTINUOUS
370
25
 62
     7
100
AcDbCircle
 10
118.437008
 20
387.72975
 40
2.0
100
AcDbArc
 50
0.0
 51
99.776375
  0
ARC
  5
16A
100
AcDbEntity
  8
M1
  6
CONTINUOUS
370
25
 62
     7
100
AcDbCircle
 10
118.437008
 20
376.523848
 40
1.999954
100
AcDbArc
 50
282.37442
 51
359.999992
  0
ARC
  5
16B
100
AcDbEntity
  8
M1
  6
CONTINUOUS
370
25
 62
     7
100
AcDbCircle
 10
83.247128
 20
398.557051
 40
1.999988
100
AcDbArc
 50
125.023819
 51
217.998817
  0
ARC
  5
16C
100
AcDbEntity
  8
M1
  6
CONTINUOUS
370
25
 62
     7
100
AcDbCircle
 10
90.030086
 20
389.875258
 40
2.000052
100
AcDbArc
 50
217.997742
 51
304.526176
  0
ARC
  5
16D
100
AcDbEntity
  8
M1
  6
CONTINUOUS
370
25
 62
     7
100
AcDbCircle
 10
99.049679
 20
395.082778
 40
2.000049
100
AcDbArc
 50
295.474182
 51
381.999657
  0
ARC
  5
16E
100
AcDbEntity
  8
M1
  6
CONTINUOUS
370
25
 62
     7
100
AcDbCircle
 10
94.922482
 20
405.297866
 40
2.000056
100
AcDbArc
 50
21.999144
 51
114.980185
  0
ARC
  5
16F
100
AcDbEntity
  8
M1
  6
CONTINUOUS
370
25
 62
     7
100
AcDbCircle
 10
127.437008
 20
335.499465
 40
40.000046
100
AcDbArc
 50
102.373589
 51
137.62635
  0
ARC
  5
170
100
AcDbEntity
  8
M1
  6
CONTINUOUS
370
13
 62
     7
100
AcDbCircle
 10
127.437008
 20
335.499465
 40
50.000057
100
AcDbArc
 50
83.802971
 51
96.292517
  0
ARC
  5
171
100
AcDbEntity
  8
M1
  6
CONTINUOUS
370
25
 62
     7
100
AcDbCircle
 10
127.437008
 20
385.499465
 40
7.00008
100
AcDbArc
 50
355.986145
 51
544.013931
  0
CIRCLE
  5
172
100
AcDbEntity
  8
M1
  6
CONTINUOUS
370
13
 62
     7
100
AcDbCircle
 10
127.437008
 20
385.499465
 40
3.0
  0
CIRCLE
  5
173
100
AcDbEntity
  8
M1
  6
CONTINUOUS
370
25
 62
     7
100
AcDbCircle
 10
127.437008
 20
385.499465
 40
2.5
  0
CIRCLE
  5
174
100
AcDbEntity
  8
M1
  6
CONTINUOUS
370
25
 62
     7
100
AcDbCircle
 10
127.437008
 20
421.499465
 40
5.0
  0
CIRCLE
  5
175
100
AcDbEntity
  8
M1
  6
CONTINUOUS
370
25
 62
     7
100
AcDbCircle
 10
52.958797
 20
378.499465
 40
5.0
  0
CIRCLE
  5
176
100
AcDbEntity
  8
M1
  6
CONTINUOUS
370
25
 62
     7
100
AcDbCircle
 10
84.135677
 20
360.499465
 40
2.5
  0
CIRCLE
  5
177
100
AcDbEntity
  8
M1
  6
CONTINUOUS
370
13
 62
     7
100
AcDbCircle
 10
84.135677
 20
360.499465
 40
3.0
  0
ARC
  5
178
100
AcDbEntity
  8
M1
  6
CONTINUOUS
370
25
 62
     7
100
AcDbCircle
 10
84.135677
 20
360.499465
 40
7.000037
100
AcDbArc
 50
55.985569
 51
244.014744
  0
ARC
  5
179
100
AcDbEntity
  8
M1
  6
CONTINUOUS
370
13
 62
     7
100
AcDbCircle
 10
127.437008
 20
335.499465
 40
49.999958
100
AcDbArc
 50
143.802917
 51
156.292321
  0
ARC
  5
17A
100
AcDbEntity
  8
M1
  6
CONTINUOUS
370
25
 62
     7
100
AcDbCircle
 10
127.437008
 20
335.499465
 40
40.000088
100
AcDbArc
 50
162.373596
 51
197.626293
  0
ARC
  5
17B
100
AcDbEntity
  8
M1
  6
CONTINUOUS
370
25
 62
     7
100
AcDbCircle
 10
50.732601
 20
342.240264
 40
1.99996
100
AcDbArc
 50
82.000587
 51
174.977448
  0
ARC
  5
17C
100
AcDbEntity
  8
M1
  6
CONTINUOUS
370
25
 62
     7
100
AcDbCircle
 10
61.642818
 20
340.706969
 40
1.999888
100
AcDbArc
 50
355.474213
 51
442.002678
  0
ARC
  5
17D
100
AcDbEntity
  8
M1
  6
CONTINUOUS
370
25
 62
     7
100
AcDbCircle
 10
61.642818
 20
330.292067
 40
2.000057
100
AcDbArc
 50
277.997253
 51
364.525337
  0
ARC
  5
17E
100
AcDbEntity
  8
M1
  6
CONTINUOUS
370
25
 62
     7
100
AcDbCircle
 10
50.732601
 20
328.758666
 40
1.999981
100
AcDbArc
 50
185.019943
 51
277.99942
  0
ARC
  5
17F
100
AcDbEntity
  8
M1
  6
CONTINUOUS
370
25
 62
     7
100
AcDbCircle
 10
87.40881
 20
348.217467
 40
1.999962
100
AcDbArc
 50
342.373627
 51
420.000732
  0
ARC
  5
180
100
AcDbEntity
  8
M1
  6
CONTINUOUS
370
25
 62
     7
100
AcDbCircle
 10
77.70422
 20
353.820357
 40
2.000044
100
AcDbArc
 50
60.000725
 51
159.775482
  0
ARC
  5
181
100
AcDbEntity
  8
M1
  6
CONTINUOUS
370
25
 62
     7
100
AcDbCircle
 10
75.659176
 20
346.815764
 40
1.999972
100
AcDbArc
 50
167.672226
 51
261.999275
  0
ARC
  5
182
100
AcDbEntity
  8
M1
  6
CONTINUOUS
370
25
 62
     7
100
AcDbCircle
 10
86.591427
 20
345.279265
 40
1.999977
100
AcDbArc
 50
261.997131
 51
346.534607
  0
ARC
  5
183
100
AcDbEntity
  8
M1
  6
CONTINUOUS
370
25
 62
     7
100
AcDbCircle
 10
85.478085
 20
337.357161
 40
2.000006
100
AcDbArc
 50
357.463806
 51
441.997116
  0
ARC
  5
184
100
AcDbEntity
  8
M1
  6
CONTINUOUS
370
25
 62
     7
100
AcDbCircle
 10
85.478085
 20
333.64186
 40
1.999977
100
AcDbArc
 50
278.002869
 51
362.536179
  0
ARC
  5
185
100
AcDbEntity
  8
M1
  6
CONTINUOUS
370
25
 62
     7
100
AcDbCircle
 10
74.545773
 20
338.893569
 40
1.999977
100
AcDbArc
 50
81.997124
 51
176.327682
  0
ARC
  5
186
100
AcDbEntity
  8
M1
  6
CONTINUOUS
370
25
 62
     7
100
AcDbCircle
 10
74.545773
 20
332.105467
 40
1.999956
100
AcDbArc
 50
183.672318
 51
278.002449
  0
ARC
  5
187
100
AcDbEntity
  8
M1
  6
CONTINUOUS
370
25
 62
     7
100
AcDbCircle
 10
87.40881
 20
322.781569
 40
2.000044
100
AcDbArc
 50
299.999268
 51
377.625954
  0
ARC
  5
188
100
AcDbEntity
  8
M1
  6
CONTINUOUS
370
25
 62
     7
100
AcDbCircle
 10
86.591427
 20
325.719664
 40
1.999923
100
AcDbArc
 50
13.4654
 51
98.002448
  0
ARC
  5
189
100
AcDbEntity
  8
M1
  6
CONTINUOUS
370
25
 62
     7
100
AcDbCircle
 10
75.659176
 20
324.183257
 40
2.000074
100
AcDbArc
 50
98.000717
 51
192.327339
  0
ARC
  5
18A
100
AcDbEntity
  8
M1
  6
CONTINUOUS
370
25
 62
     7
100
AcDbCircle
 10
77.70422
 20
317.178557
 40
1.999983
100
AcDbArc
 50
200.221649
 51
300.000809
  0
ARC
  5
18B
100
AcDbEntity
  8
M1
  6
CONTINUOUS
370
25
 62
     7
100
AcDbCircle
 10
127.437008
 20
335.499465
 40
54.999981
100
AcDbArc
 50
176.328262
 51
183.671626
  0
ARC
  5
18C
100
AcDbEntity
  8
M1
  6
CONTINUOUS
370
25
 62
     7
100
AcDbCircle
 10
127.437008
 20
335.499465
 40
54.999973
100
AcDbArc
 50
192.328293
 51
200.22311
  0
ARC
  5
18D
100
AcDbEntity
  8
M1
  6
CONTINUOUS
370
25
 62
     7
100
AcDbCircle
 10
127.437008
 20
335.499465
 40
79.000015
100
AcDbArc
 50
174.977737
 51
185.022211
  0
ARC
  5
18E
100
AcDbEntity
  8
M1
  6
CONTINUOUS
370
25
 62
     7
100
AcDbCircle
 10
127.437008
 20
335.499465
 40
64.000061
100
AcDbArc
 50
175.474579
 51
184.525345
  0
ARC
  5
18F
100
AcDbEntity
  8
M1
  6
CONTINUOUS
370
25
 62
     7
100
AcDbCircle
 10
127.437008
 20
335.499465
 40
55.000011
100
AcDbArc
 50
159.77681
 51
167.671607
  0
CIRCLE
  5
190
100
AcDbEntity
  8
M1
  6
CONTINUOUS
370
25
 62
     7
100
AcDbCircle
 10
52.958797
 20
292.499465
 40
5.0
  0
CIRCLE
  5
191
100
AcDbEntity
  8
M1
  6
CONTINUOUS
370
25
 62
     7
100
AcDbCircle
 10
84.135677
 20
310.499465
 40
2.5
  0
CIRCLE
  5
192
100
AcDbEntity
  8
M1
  6
CONTINUOUS
370
13
 62
     7
100
AcDbCircle
 10
84.135677
 20
310.499465
 40
3.0
  0
ARC
  5
193
100
AcDbEntity
  8
M1
  6
CONTINUOUS
370
25
 62
     7
100
AcDbCircle
 10
84.135677
 20
310.499465
 40
6.999945
100
AcDbArc
 50
115.985268
 51
304.014442
  0
ARC
  5
194
100
AcDbEntity
  8
M1
  6
CONTINUOUS
370
13
 62
     7
100
AcDbCircle
 10
127.437008
 20
335.499465
 40
49.999939
100
AcDbArc
 50
203.802948
 51
216.292422
  0
ARC
  5
195
100
AcDbEntity
  8
M1
  6
CONTINUOUS
370
25
 62
     7
100
AcDbCircle
 10
127.437008
 20
335.499465
 40
40.000008
100
AcDbArc
 50
222.373444
 51
257.626221
  0
ARC
  5
196
100
AcDbEntity
  8
M1
  6
CONTINUOUS
370
25
 62
     7
100
AcDbCircle
 10
83.247128
 20
272.44197
 40
2.000052
100
AcDbArc
 50
142.002258
 51
234.977684
  0
ARC
  5
197
100
AcDbEntity
  8
M1
  6
CONTINUOUS
370
25
 62
     7
100
AcDbCircle
 10
90.030086
 20
281.123763
 40
1.999964
100
AcDbArc
 50
55.473827
 51
142.002262
  0
ARC
  5
198
100
AcDbEntity
  8
M1
  6
CONTINUOUS
370
25
 62
     7
100
AcDbCircle
 10
99.049679
 20
275.916258
 40
1.999937
100
AcDbArc
 50
337.999939
 51
424.525818
  0
ARC
  5
199
100
AcDbEntity
  8
M1
  6
CONTINUOUS
370
25
 62
     7
100
AcDbCircle
 10
94.922482
 20
265.701155
 40
1.999988
100
AcDbArc
 50
245.019821
 51
338.001266
  0
ARC
  5
19A
100
AcDbEntity
  8
M1
  6
CONTINUOUS
370
25
 62
     7
100
AcDbCircle
 10
96.40881
 20
307.193068
 40
1.999944
100
AcDbArc
 50
42.374138
 51
119.999275
  0
ARC
  5
19B
100
AcDbEntity
  8
M1
  6
CONTINUOUS
370
25
 62
     7
100
AcDbCircle
 10
86.70422
 20
301.590163
 40
1.999951
100
AcDbArc
 50
120.000801
 51
219.776466
  0
ARC
  5
19C
100
AcDbEntity
  8
M1
  6
CONTINUOUS
370
25
 62
     7
100
AcDbCircle
 10
91.747921
 20
296.316664
 40
1.999997
100
AcDbArc
 50
227.672211
 51
321.999763
  0
ARC
  5
19D
100
AcDbEntity
  8
M1
  6
CONTINUOUS
370
25
 62
     7
100
AcDbCircle
 10
98.544674
 20
305.016158
 40
2.000069
100
AcDbArc
 50
321.998779
 51
406.53273
  0
ARC
  5
19E
100
AcDbEntity
  8
M1
  6
CONTINUOUS
370
25
 62
     7
100
AcDbCircle
 10
104.84869
 20
300.090865
 40
2.000004
100
AcDbArc
 50
57.46323
 51
141.997952
  0
ARC
  5
19F
100
AcDbEntity
  8
M1
  6
CONTINUOUS
370
25
 62
     7
100
AcDbCircle
 10
108.06628
 20
298.23326
 40
1.999977
100
AcDbArc
 50
337.997101
 51
422.533653
  0
ARC
  5
1A0
100
AcDbEntity
  8
M1
  6
CONTINUOUS
370
25
 62
     7
100
AcDbCircle
 10
98.051998
 20
291.391356
 40
2.000061
100
AcDbArc
 50
142.001907
 51
236.326897
  0
ARC
  5
1A1
100
AcDbEntity
  8
M1
  6
CONTINUOUS
370
25
 62
     7
100
AcDbCircle
 10
103.930721
 20
287.997359
 40
2.000059
100
AcDbArc
 50
243.672653
 51
338.000603
  0
ARC
  5
1A2
100
AcDbEntity
  8
M1
  6
CONTINUOUS
370
25
 62
     7
100
AcDbCircle
 10
118.437008
 20
294.475066
 40
2.0
100
AcDbArc
 50
0.0
 51
77.626228
  0
ARC
  5
1A3
100
AcDbEntity
  8
M1
  6
CONTINUOUS
370
25
 62
     7
100
AcDbCircle
 10
115.483822
 20
295.236357
 40
2.000006
100
AcDbArc
 50
73.466515
 51
158.000854
  0
ARC
  5
1A4
100
AcDbEntity
  8
M1
  6
CONTINUOUS
370
25
 62
     7
100
AcDbCircle
 10
111.348202
 20
285.000456
 40
2.0
100
AcDbArc
 50
158.000198
 51
252.32827
  0
ARC
  5
1A5
100
AcDbEntity
  8
M1
  6
CONTINUOUS
370
25
 62
     7
100
AcDbCircle
 10
118.437008
 20
283.269255
 40
2.000056
100
AcDbArc
 50
260.220551
 51
360.0
  0
ARC
  5
1A6
100
AcDbEntity
  8
M1
  6
CONTINUOUS
370
25
 62
     7
100
AcDbCircle
 10
127.437008
 20
335.499465
 40
55.0
100
AcDbArc
 50
236.328232
 51
243.671611
  0
ARC
  5
1A7
100
AcDbEntity
  8
M1
  6
CONTINUOUS
370
25
 62
     7
100
AcDbCircle
 10
127.437008
 20
335.499465
 40
54.999985
100
AcDbArc
 50
252.328247
 51
260.223052
  0
ARC
  5
1A8
100
AcDbEntity
  8
M1
  6
CONTINUOUS
370
25
 62
     7
100
AcDbCircle
 10
127.437008
 20
335.499465
 40
78.999931
100
AcDbArc
 50
234.977676
 51
245.022165
  0
ARC
  5
1A9
100
AcDbEntity
  8
M1
  6
CONTINUOUS
370
25
 62
     7
100
AcDbCircle
 10
127.437008
 20
335.499465
 40
63.99992
100
AcDbArc
 50
235.474548
 51
244.525272
  0
ARC
  5
1AA
100
AcDbEntity
  8
M1
  6
CONTINUOUS
370
25
 62
     7
100
AcDbCircle
 10
127.437008
 20
335.499465
 40
54.999981
100
AcDbArc
 50
219.776794
 51
227.671577
  0
CIRCLE
  5
1AB
100
AcDbEntity
  8
M1
  6
CONTINUOUS
370
25
 62
     7
100
AcDbCircle
 10
127.437008
 20
249.499465
 40
5.0
  0
CIRCLE
  5
1AC
100
AcDbEntity
  8
M1
  6
CONTINUOUS
370
25
 62
     7
100
AcDbCircle
 10
127.437008
 20
285.499465
 40
2.5
  0
CIRCLE
  5
1AD
100
AcDbEntity
  8
M1
  6
CONTINUOUS
370
13
 62
     7
100
AcDbCircle
 10
127.437008
 20
285.499465
 40
3.0
  0
ARC
  5
1AE
100
AcDbEntity
  8
M1
  6
CONTINUOUS
370
25
 62
     7
100
AcDbCircle
 10
127.437008
 20
285.499465
 40
6.999959
100
AcDbArc
 50
175.985947
 51
364.013992
  0
ARC
  5
1AF
100
AcDbEntity
  8
M1
  6
CONTINUOUS
370
13
 62
     7
100
AcDbCircle
 10
127.437008
 20
335.499465
 40
49.999981
100
AcDbArc
 50
263.802948
 51
276.292377
  0
ARC
  5
1B0
100
AcDbEntity
  8
M1
  6
CONTINUOUS
370
25
 62
     7
100
AcDbCircle
 10
127.437008
 20
335.499465
 40
39.999958
100
AcDbArc
 50
282.373627
 51
317.626362
  0
ARC
  5
1B1
100
AcDbEntity
  8
M1
  6
CONTINUOUS
370
25
 62
     7
100
AcDbCircle
 10
159.951473
 20
265.701155
 40
1.999994
100
AcDbArc
 50
201.99939
 51
294.9786
  0
ARC
  5
1B2
100
AcDbEntity
  8
M1
  6
CONTINUOUS
370
25
 62
     7
100
AcDbCircle
 10
155.824276
 20
275.916258
 40
2.000023
100
AcDbArc
 50
115.472595
 51
202.00071
  0
ARC
  5
1B3
100
AcDbEntity
  8
M1
  6
CONTINUOUS
370
25
 62
     7
100
AcDbCircle
 10
164.843929
 20
281.123763
 40
1.999956
100
AcDbArc
 50
37.999893
 51
124.527611
  0
ARC
  5
1B4
100
AcDbEntity
  8
M1
  6
CONTINUOUS
370
25
 62
     7
100
AcDbCircle
 10
171.626888
 20
272.44197
 40
2.000063
100
AcDbArc
 50
305.022308
 51
397.999886
  0
ARC
  5
1B5
100
AcDbEntity
  8
M1
  6
CONTINUOUS
370
25
 62
     7
100
AcDbCircle
 10
136.437008
 20
294.475066
 40
2.000058
100
AcDbArc
 50
102.373772
 51
180.0
  0
ARC
  5
1B6
100
AcDbEntity
  8
M1
  6
CONTINUOUS
370
25
 62
     7
100
AcDbCircle
 10
136.437008
 20
283.269255
 40
2.0
100
AcDbArc
 50
180.0
 51
279.776009
  0
ARC
  5
1B7
100
AcDbEntity
  8
M1
  6
CONTINUOUS
370
25
 62
     7
100
AcDbCircle
 10
143.525814
 20
285.000456
 40
1.99997
100
AcDbArc
 50
287.671722
 51
382.00045
  0
ARC
  5
1B8
100
AcDbEntity
  8
M1
  6
CONTINUOUS
370
25
 62
     7
100
AcDbCircle
 10
139.390194
 20
295.236357
 40
2.000056
100
AcDbArc
 50
21.999144
 51
106.535162
  0
ARC
  5
1B9
100
AcDbEntity
  8
M1
  6
CONTINUOUS
370
25
 62
     7
100
AcDbCircle
 10
146.807674
 20
298.23326
 40
1.999962
100
AcDbArc
 50
117.467888
 51
202.002235
  0
ARC
  5
1BA
100
AcDbEntity
  8
M1
  6
CONTINUOUS
370
25
 62
     7
100
AcDbCircle
 10
150.025204
 20
300.090865
 40
2.000052
100
AcDbArc
 50
37.997742
 51
122.535294
  0
ARC
  5
1BB
100
AcDbEntity
  8
M1
  6
CONTINUOUS
370
25
 62
     7
100
AcDbCircle
 10
150.943172
 20
287.997359
 40
1.999881
100
AcDbArc
 50
202.000702
 51
296.330475
  0
ARC
  5
1BC
100
AcDbEntity
  8
M1
  6
CONTINUOUS
370
25
 62
     7
100
AcDbCircle
 10
156.821896
 20
291.391356
 40
1.999963
100
AcDbArc
 50
303.673096
 51
398.000244
  0
ARC
  5
1BD
100
AcDbEntity
  8
M1
  6
CONTINUOUS
370
25
 62
     7
100
AcDbCircle
 10
158.465084
 20
307.193068
 40
2.000044
100
AcDbArc
 50
60.000725
 51
137.625862
  0
ARC
  5
1BE
100
AcDbEntity
  8
M1
  6
CONTINUOUS
370
25
 62
     7
100
AcDbCircle
 10
156.329281
 20
305.016158
 40
1.999962
100
AcDbArc
 50
133.46727
 51
218.002304
  0
ARC
  5
1BF
100
AcDbEntity
  8
M1
  6
CONTINUOUS
370
25
 62
     7
100
AcDbCircle
 10
163.125973
 20
296.316664
 40
1.999965
100
AcDbArc
 50
218.000244
 51
312.329094
  0
ARC
  5
1C0
100
AcDbEntity
  8
M1
  6
CONTINUOUS
370
25
 62
     7
100
AcDbCircle
 10
168.169674
 20
301.590163
 40
1.999975
100
AcDbArc
 50
320.222412
 51
419.999191
  0
ARC
  5
1C1
100
AcDbEntity
  8
M1
  6
CONTINUOUS
370
25
 62
     7
100
AcDbCircle
 10
127.437008
 20
335.499465
 40
55.000015
100
AcDbArc
 50
296.328339
 51
303.671662
  0
ARC
  5
1C2
100
AcDbEntity
  8
M1
  6
CONTINUOUS
370
25
 62
     7
100
AcDbCircle
 10
127.437008
 20
335.499465
 40
54.999981
100
AcDbArc
 50
312.328308
 51
320.223172
  0
ARC
  5
1C3
100
AcDbEntity
  8
M1
  6
CONTINUOUS
370
25
 62
     7
100
AcDbCircle
 10
127.437008
 20
335.499465
 40
79.000008
100
AcDbArc
 50
294.977722
 51
305.022274
  0
ARC
  5
1C4
100
AcDbEntity
  8
M1
  6
CONTINUOUS
370
25
 62
     7
100
AcDbCircle
 10
127.437008
 20
335.499465
 40
63.999889
100
AcDbArc
 50
295.474518
 51
304.525393
  0
ARC
  5
1C5
100
AcDbEntity
  8
M1
  6
CONTINUOUS
370
25
 62
     7
100
AcDbCircle
 10
127.437008
 20
335.499465
 40
54.999966
100
AcDbArc
 50
279.776703
 51
287.671698
  0
CIRCLE
  5
1C6
100
AcDbEntity
  8
M1
  6
CONTINUOUS
370
25
 62
     7
100
AcDbCircle
 10
201.915218
 20
292.499465
 40
5.0
  0
CIRCLE
  5
1C7
100
AcDbEntity
  8
M1
  6
CONTINUOUS
370
25
 62
     7
100
AcDbCircle
 10
170.738277
 20
310.499465
 40
2.5
  0
CIRCLE
  5
1C8
100
AcDbEntity
  8
M1
  6
CONTINUOUS
370
13
 62
     7
100
AcDbCircle
 10
170.738277
 20
310.499465
 40
3.0
  0
ARC
  5
1C9
100
AcDbEntity
  8
M1
  6
CONTINUOUS
370
25
 62
     7
100
AcDbCircle
 10
170.738277
 20
310.499465
 40
7.000002
100
AcDbArc
 50
235.985977
 51
424.013382
  0
ARC
  5
1CA
100
AcDbEntity
  8
M1
  6
CONTINUOUS
370
13
 62
     7
100
AcDbCircle
 10
127.437008
 20
335.499465
 40
49.999958
100
AcDbArc
 50
323.802917
 51
336.292474
  0
ARC
  5
1CB
100
AcDbEntity
  8
M1
  6
CONTINUOUS
370
25
 62
     7
100
AcDbCircle
 10
127.437008
 20
335.499465
 40
40.000004
100
AcDbArc
 50
342.373688
 51
377.626438
  0
ARC
  5
1CC
100
AcDbEntity
  8
M1
  6
CONTINUOUS
370
25
 62
     7
100
AcDbCircle
 10
204.141415
 20
328.758666
 40
1.999977
100
AcDbArc
 50
261.997131
 51
354.980072
  0
ARC
  5
1CD
100
AcDbEntity
  8
M1
  6
CONTINUOUS
370
25
 62
     7
100
AcDbCircle
 10
193.231197
 20
330.292067
 40
2.000009
100
AcDbArc
 50
175.47493
 51
261.999275
  0
ARC
  5
1CE
100
AcDbEntity
  8
M1
  6
CONTINUOUS
370
25
 62
     7
100
AcDbCircle
 10
193.231197
 20
340.706969
 40
2.000059
100
AcDbArc
 50
98.000778
 51
184.525505
  0
ARC
  5
1CF
100
AcDbEntity
  8
M1
  6
CONTINUOUS
370
25
 62
     7
100
AcDbCircle
 10
204.141415
 20
342.240264
 40
1.999989
100
AcDbArc
 50
5.022549
 51
98.002872
  0
ARC
  5
1D0
100
AcDbEntity
  8
M1
  6
CONTINUOUS
370
25
 62
     7
100
AcDbCircle
 10
167.465084
 20
322.781569
 40
1.999958
100
AcDbArc
 50
162.374039
 51
240.000725
  0
ARC
  5
1D1
100
AcDbEntity
  8
M1
  6
CONTINUOUS
370
25
 62
     7
100
AcDbCircle
 10
177.169674
 20
317.178557
 40
1.999951
100
AcDbArc
 50
239.999191
 51
339.778351
  0
ARC
  5
1D2
100
AcDbEntity
  8
M1
  6
CONTINUOUS
370
25
 62
     7
100
AcDbCircle
 10
179.214779
 20
324.183257
 40
2.000029
100
AcDbArc
 50
347.673035
 51
441.997559
  0
ARC
  5
1D3
100
AcDbEntity
  8
M1
  6
CONTINUOUS
370
25
 62
     7
100
AcDbCircle
 10
168.282528
 20
325.719664
 40
2.000057
100
AcDbArc
 50
82.002747
 51
166.535011
  0
ARC
  5
1D4
100
AcDbEntity
  8
M1
  6
CONTINUOUS
370
25
 62
     7
100
AcDbCircle
 10
169.395931
 20
333.64186
 40
2.000067
100
AcDbArc
 50
177.463898
 51
261.997131
  0
ARC
  5
1D5
100
AcDbEntity
  8
M1
  6
CONTINUOUS
370
25
 62
     7
100
AcDbCircle
 10
169.395931
 20
337.357161
 40
1.999977
100
AcDbArc
 50
98.002876
 51
182.53611
  0
ARC
  5
1D6
100
AcDbEntity
  8
M1
  6
CONTINUOUS
370
25
 62
     7
100
AcDbCircle
 10
180.328182
 20
332.105467
 40
2.000074
100
AcDbArc
 50
261.999268
 51
356.327782
  0
ARC
  5
1D7
100
AcDbEntity
  8
M1
  6
CONTINUOUS
370
25
 62
     7
100
AcDbCircle
 10
180.328182
 20
338.893569
 40
2.000017
100
AcDbArc
 50
3.672206
 51
98.001148
  0
ARC
  5
1D8
100
AcDbEntity
  8
M1
  6
CONTINUOUS
370
25
 62
     7
100
AcDbCircle
 10
167.465084
 20
348.217467
 40
2.000044
100
AcDbArc
 50
119.999275
 51
197.626381
  0
ARC
  5
1D9
100
AcDbEntity
  8
M1
  6
CONTINUOUS
370
25
 62
     7
100
AcDbCircle
 10
168.282528
 20
345.279265
 40
1.999982
100
AcDbArc
 50
193.464996
 51
277.997688
  0
ARC
  5
1DA
100
AcDbEntity
  8
M1
  6
CONTINUOUS
370
25
 62
     7
100
AcDbCircle
 10
179.214779
 20
346.815764
 40
2.000083
100
AcDbArc
 50
278.002441
 51
372.327393
  0
ARC
  5
1DB
100
AcDbEntity
  8
M1
  6
CONTINUOUS
370
25
 62
     7
100
AcDbCircle
 10
177.169674
 20
353.820357
 40
2.00002
100
AcDbArc
 50
20.224514
 51
119.999271
  0
ARC
  5
1DC
100
AcDbEntity
  8
M1
  6
CONTINUOUS
370
25
 62
     7
100
AcDbCircle
 10
127.437008
 20
335.499465
 40
54.999981
100
AcDbArc
 50
356.328278
 51
363.671752
  0
ARC
  5
1DD
100
AcDbEntity
  8
M1
  6
CONTINUOUS
370
25
 62
     7
100
AcDbCircle
 10
127.437008
 20
335.499465
 40
54.999996
100
AcDbArc
 50
12.328396
 51
20.223216
  0
ARC
  5
1DE
100
AcDbEntity
  8
M1
  6
CONTINUOUS
370
25
 62
     7
100
AcDbCircle
 10
127.437008
 20
335.499465
 40
79.000015
100
AcDbArc
 50
354.977722
 51
365.022273
  0
ARC
  5
1DF
100
AcDbEntity
  8
M1
  6
CONTINUOUS
370
25
 62
     7
100
AcDbCircle
 10
127.437008
 20
335.499465
 40
64.0
100
AcDbArc
 50
355.474579
 51
364.525435
  0
ARC
  5
1E0
100
AcDbEntity
  8
M1
  6
CONTINUOUS
370
25
 62
     7
100
AcDbCircle
 10
127.437008
 20
335.499465
 40
54.999954
100
AcDbArc
 50
339.776794
 51
347.671723
  0
CIRCLE
  5
1E1
100
AcDbEntity
  8
M1
  6
CONTINUOUS
370
25
 62
     7
100
AcDbCircle
 10
201.915218
 20
378.499465
 40
5.0
  0
CIRCLE
  5
1E2
100
AcDbEntity
  8
M1
  6
CONTINUOUS
370
25
 62
     7
100
AcDbCircle
 10
170.738277
 20
360.499465
 40
2.5
  0
CIRCLE
  5
1E3
100
AcDbEntity
  8
M1
  6
CONTINUOUS
370
13
 62
     7
100
AcDbCircle
 10
170.738277
 20
360.499465
 40
3.0
  0
ARC
  5
1E4
100
AcDbEntity
  8
M1
  6
CONTINUOUS
370
25
 62
     7
100
AcDbCircle
 10
170.738277
 20
360.499465
 40
7.000025
100
AcDbArc
 50
295.986603
 51
484.014008
  0
ARC
  5
1E5
100
AcDbEntity
  8
M1
  6
CONTINUOUS
370
13
 62
     7
100
AcDbCircle
 10
127.437008
 20
335.499465
 40
50.000092
100
AcDbArc
 50
23.803007
 51
36.29251
  0
ARC
  5
1E6
100
AcDbEntity
  8
M1
  6
CONTINUOUS
370
25
 62
     7
100
AcDbCircle
 10
127.437008
 20
335.499465
 40
40.000069
100
AcDbArc
 50
42.373535
 51
77.626415
  0
ARC
  5
1E7
100
AcDbEntity
  8
M1
  6
CONTINUOUS
370
25
 62
     7
100
AcDbCircle
 10
171.626888
 20
398.557051
 40
1.999956
100
AcDbArc
 50
322.000092
 51
414.976166
  0
ARC
  5
1E8
100
AcDbEntity
  8
M1
  6
CONTINUOUS
370
25
 62
     7
100
AcDbCircle
 10
164.843929
 20
389.875258
 40
1.999999
100
AcDbArc
 50
235.472382
 51
322.000099
  0
ARC
  5
1E9
100
AcDbEntity
  8
M1
  6
CONTINUOUS
370
25
 62
     7
100
AcDbCircle
 10
155.824276
 20
395.082778
 40
1.999875
100
AcDbArc
 50
157.99971
 51
244.527412
  0
ARC
  5
1EA
100
AcDbEntity
  8
M1
  6
CONTINUOUS
370
25
 62
     7
100
AcDbCircle
 10
159.951473
 20
405.297866
 40
1.999962
100
AcDbArc
 50
65.0214
 51
158.000206
  0
ARC
  5
1EB
100
AcDbEntity
  8
M1
  6
CONTINUOUS
370
25
 62
     7
100
AcDbCircle
 10
158.465084
 20
363.805953
 40
2.000006
100
AcDbArc
 50
222.376083
 51
299.999504
  0
ARC
  5
1EC
100
AcDbEntity
  8
M1
  6
CONTINUOUS
370
25
 62
     7
100
AcDbCircle
 10
168.169674
 20
369.408858
 40
2.000031
100
AcDbArc
 50
299.999481
 51
399.776459
  0
ARC
  5
1ED
100
AcDbEntity
  8
M1
  6
CONTINUOUS
370
25
 62
     7
100
AcDbCircle
 10
163.125973
 20
374.682265
 40
2.000039
100
AcDbArc
 50
47.670914
 51
141.998039
  0
ARC
  5
1EE
100
AcDbEntity
  8
M1
  6
CONTINUOUS
370
25
 62
     7
100
AcDbCircle
 10
156.329281
 20
365.982863
 40
2.000079
100
AcDbArc
 50
141.998428
 51
226.535797
  0
ARC
  5
1EF
100
AcDbEntity
  8
M1
  6
CONTINUOUS
370
25
 62
     7
100
AcDbCircle
 10
150.025204
 20
370.908156
 40
1.999971
100
AcDbArc
 50
237.464706
 51
322.000107
  0
ARC
  5
1F0
100
AcDbEntity
  8
M1
  6
CONTINUOUS
370
25
 62
     7
100
AcDbCircle
 10
146.807674
 20
372.765761
 40
2.0
100
AcDbArc
 50
158.000198
 51
242.533318
  0
ARC
  5
1F1
100
AcDbEntity
  8
M1
  6
CONTINUOUS
370
25
 62
     7
100
AcDbCircle
 10
156.821896
 20
379.607558
 40
1.999956
100
AcDbArc
 50
322.000092
 51
416.328346
  0
ARC
  5
1F2
100
AcDbEntity
  8
M1
  6
CONTINUOUS
370
25
 62
     7
100
AcDbCircle
 10
150.943172
 20
383.001662
 40
2.000031
100
AcDbArc
 50
63.668362
 51
157.99889
  0
ARC
  5
1F3
100
AcDbEntity
  8
M1
  6
CONTINUOUS
370
25
 62
     7
100
AcDbCircle
 10
136.437008
 20
376.523848
 40
2.0
100
AcDbArc
 50
180.0
 51
257.625572
  0
ARC
  5
1F4
100
AcDbEntity
  8
M1
  6
CONTINUOUS
370
25
 62
     7
100
AcDbCircle
 10
139.390194
 20
375.762648
 40
2.000008
100
AcDbArc
 50
253.464722
 51
338.001671
  0
ARC
  5
1F5
100
AcDbEntity
  8
M1
  6
CONTINUOUS
370
25
 62
     7
100
AcDbCircle
 10
143.525814
 20
385.998549
 40
1.999977
100
AcDbArc
 50
337.997101
 51
432.328392
  0
ARC
  5
1F6
100
AcDbEntity
  8
M1
  6
CONTINUOUS
370
25
 62
     7
100
AcDbCircle
 10
136.437008
 20
387.72975
 40
1.99996
100
AcDbArc
 50
80.223625
 51
180.0
  0
ARC
  5
1F7
100
AcDbEntity
  8
M1
  6
CONTINUOUS
370
25
 62
     7
100
AcDbCircle
 10
127.437008
 20
335.499465
 40
54.999996
100
AcDbArc
 50
56.328377
 51
63.671656
  0
ARC
  5
1F8
100
AcDbEntity
  8
M1
  6
CONTINUOUS
370
25
 62
     7
100
AcDbCircle
 10
127.437008
 20
335.499465
 40
55.000053
100
AcDbArc
 50
72.328331
 51
80.223046
  0
ARC
  5
1F9
100
AcDbEntity
  8
M1
  6
CONTINUOUS
370
25
 62
     7
100
AcDbCircle
 10
127.437008
 20
335.499465
 40
79.000023
100
AcDbArc
 50
54.977722
 51
65.022234
  0
ARC
  5
1FA
100
AcDbEntity
  8
M1
  6
CONTINUOUS
370
25
 62
     7
100
AcDbCircle
 10
127.437008
 20
335.499465
 40
63.999996
100
AcDbArc
 50
55.474598
 51
64.525415
  0
ARC
  5
1FB
100
AcDbEntity
  8
M1
  6
CONTINUOUS
370
25
 62
     7
100
AcDbCircle
 10
127.437008
 20
335.499465
 40
54.999992
100
AcDbArc
 50
39.776905
 51
47.671696
  0
ARC
  5
1FC
100
AcDbEntity
  8
M1
  6
CONTINUOUS
370
25
 62
     7
100
AcDbCircle
 10
319.22293
 20
335.499465
 40
3.5
100
AcDbArc
 50
270.0
 51
450.0
  0
ARC
  5
1FD
100
AcDbEntity
  8
M1
  6
CONTINUOUS
370
25
 62
     7
100
AcDbCircle
 10
509.22293
 20
335.499465
 40
3.5
100
AcDbArc
 50
90.0
 51
270.0
  0
ARC
  5
1FE
100
AcDbEntity
  8
M1
  6
CONTINUOUS
370
25
 62
     7
100
AcDbCircle
 10
363.72293
 20
398.499465
 40
6.0
100
AcDbArc
 50
270.0
 51
360.0
  0
ARC
  5
1FF
100
AcDbEntity
  8
M1
  6
CONTINUOUS
370
25
 62
     7
100
AcDbCircle
 10
363.72293
 20
272.499465
 40
6.0
100
AcDbArc
 50
0.0
 51
90.0
  0
ARC
  5
200
100
AcDbEntity
  8
M1
  6
CONTINUOUS
370
25
 62
     7
100
AcDbCircle
 10
366.996429
 20
425.886275
 40
2.773465
100
AcDbArc
 50
150.001053
 51
210.001129
  0
ARC
  5
201
100
AcDbEntity
  8
M1
  6
CONTINUOUS
370
25
 62
     7
100
AcDbCircle
 10
376.519256
 20
421.499465
 40
12.296321
100
AcDbArc
 50
165.878708
 51
194.121292
  0
ARC
  5
202
100
AcDbEntity
  8
M1
  6
CONTINUOUS
370
25
 62
     7
100
AcDbCircle
 10
366.996429
 20
417.112776
 40
2.773465
100
AcDbArc
 50
150.001053
 51
210.001129
  0
ARC
  5
203
100
AcDbEntity
  8
M1
  6
CONTINUOUS
370
25
 62
     7
100
AcDbCircle
 10
366.996429
 20
374.112776
 40
2.773465
100
AcDbArc
 50
150.001053
 51
210.001129
  0
ARC
  5
204
100
AcDbEntity
  8
M1
  6
CONTINUOUS
370
25
 62
     7
100
AcDbCircle
 10
376.519256
 20
378.499465
 40
12.296321
100
AcDbArc
 50
165.878708
 51
194.121292
  0
ARC
  5
205
100
AcDbEntity
  8
M1
  6
CONTINUOUS
370
25
 62
     7
100
AcDbCircle
 10
366.996429
 20
382.886275
 40
2.773465
100
AcDbArc
 50
150.001053
 51
210.001129
  0
ARC
  5
206
100
AcDbEntity
  8
M1
  6
CONTINUOUS
370
25
 62
     7
100
AcDbCircle
 10
366.996429
 20
288.112761
 40
2.773473
100
AcDbArc
 50
150.000778
 51
210.000854
  0
ARC
  5
207
100
AcDbEntity
  8
M1
  6
CONTINUOUS
370
25
 62
     7
100
AcDbCircle
 10
376.519256
 20
292.499465
 40
12.296321
100
AcDbArc
 50
165.878708
 51
194.121292
  0
ARC
  5
208
100
AcDbEntity
  8
M1
  6
CONTINUOUS
370
25
 62
     7
100
AcDbCircle
 10
366.996429
 20
296.88626
 40
2.773473
100
AcDbArc
 50
150.000778
 51
210.000854
  0
ARC
  5
209
100
AcDbEntity
  8
M1
  6
CONTINUOUS
370
25
 62
     7
100
AcDbCircle
 10
366.996429
 20
253.88626
 40
2.773473
100
AcDbArc
 50
150.000778
 51
210.000854
  0
ARC
  5
20A
100
AcDbEntity
  8
M1
  6
CONTINUOUS
370
25
 62
     7
100
AcDbCircle
 10
376.519256
 20
249.499465
 40
12.296321
100
AcDbArc
 50
165.878708
 51
194.121292
  0
ARC
  5
20B
100
AcDbEntity
  8
M1
  6
CONTINUOUS
370
25
 62
     7
100
AcDbCircle
 10
366.996429
 20
245.112761
 40
2.773473
100
AcDbArc
 50
150.000778
 51
210.000854
  0
ARC
  5
20C
100
AcDbEntity
  8
M1
  6
CONTINUOUS
370
25
 62
     7
100
AcDbCircle
 10
461.449432
 20
245.112761
 40
2.773492
100
AcDbArc
 50
329.99884
 51
389.999546
  0
ARC
  5
20D
100
AcDbEntity
  8
M1
  6
CONTINUOUS
370
25
 62
     7
100
AcDbCircle
 10
451.926635
 20
249.499465
 40
12.296262
100
AcDbArc
 50
345.878632
 51
374.121355
  0
ARC
  5
20E
100
AcDbEntity
  8
M1
  6
CONTINUOUS
370
25
 62
     7
100
AcDbCircle
 10
461.449432
 20
253.88626
 40
2.773492
100
AcDbArc
 50
329.99884
 51
389.999546
  0
ARC
  5
20F
100
AcDbEntity
  8
M1
  6
CONTINUOUS
370
25
 62
     7
100
AcDbCircle
 10
461.449432
 20
296.88626
 40
2.773492
100
AcDbArc
 50
329.99884
 51
389.999546
  0
ARC
  5
210
100
AcDbEntity
  8
M1
  6
CONTINUOUS
370
25
 62
     7
100
AcDbCircle
 10
451.926635
 20
292.499465
 40
12.296262
100
AcDbArc
 50
345.878632
 51
374.121355
  0
ARC
  5
211
100
AcDbEntity
  8
M1
  6
CONTINUOUS
370
25
 62
     7
100
AcDbCircle
 10
461.449432
 20
288.112761
 40
2.773492
100
AcDbArc
 50
329.99884
 51
389.999546
  0
ARC
  5
212
100
AcDbEntity
  8
M1
  6
CONTINUOUS
370
25
 62
     7
100
AcDbCircle
 10
461.449432
 20
382.886275
 40
2.773499
100
AcDbArc
 50
329.998566
 51
389.999271
  0
ARC
  5
213
100
AcDbEntity
  8
M1
  6
CONTINUOUS
370
25
 62
     7
100
AcDbCircle
 10
451.926635
 20
378.499465
 40
12.296262
100
AcDbArc
 50
345.878632
 51
374.121355
  0
ARC
  5
214
100
AcDbEntity
  8
M1
  6
CONTINUOUS
370
25
 62
     7
100
AcDbCircle
 10
461.449432
 20
374.112776
 40
2.773499
100
AcDbArc
 50
329.998566
 51
389.999271
  0
ARC
  5
215
100
AcDbEntity
  8
M1
  6
CONTINUOUS
370
25
 62
     7
100
AcDbCircle
 10
461.449432
 20
417.112776
 40
2.773499
100
AcDbArc
 50
329.998566
 51
389.999271
  0
ARC
  5
216
100
AcDbEntity
  8
M1
  6
CONTINUOUS
370
25
 62
     7
100
AcDbCircle
 10
451.926635
 20
421.499465
 40
12.296262
100
AcDbArc
 50
345.878632
 51
374.121355
  0
ARC
  5
217
100
AcDbEntity
  8
M1
  6
CONTINUOUS
370
25
 62
     7
100
AcDbCircle
 10
461.449432
 20
425.886275
 40
2.773499
100
AcDbArc
 50
329.998566
 51
389.999271
  0
ARC
  5
218
100
AcDbEntity
  8
M1
  6
CONTINUOUS
370
25
 62
     7
100
AcDbCircle
 10
464.72293
 20
272.499465
 40
6.0
100
AcDbArc
 50
90.0
 51
180.0
  0
ARC
  5
219
100
AcDbEntity
  8
M1
  6
CONTINUOUS
370
25
 62
     7
100
AcDbCircle
 10
464.72293
 20
398.499465
 40
6.0
100
AcDbArc
 50
180.0
 51
270.0
  0
ARC
  5
21A
100
AcDbEntity
  8
M1
  6
CONTINUOUS
370
25
 62
     7
100
AcDbCircle
 10
509.22293
 20
335.499465
 40
3.5
100
AcDbArc
 50
90.0
 51
270.0
  0
ARC
  5
21B
100
AcDbEntity
  8
M1
  6
CONTINUOUS
370
25
 62
     7
100
AcDbCircle
 10
127.437008
 20
335.499465
 40
12.5
100
AcDbArc
 50
16.260204
 51
343.739788
  0
ARC
  5
21C
100
AcDbEntity
  8
M1
  6
CONTINUOUS
370
25
 62
     7
100
AcDbCircle
 10
700.617256
 20
335.499465
 40
12.5
100
AcDbArc
 50
196.260208
 51
523.739792
  0
ARC
  5
21D
100
AcDbEntity
  8
M1
  6
CONTINUOUS
370
25
 62
     7
100
AcDbCircle
 10
700.617256
 20
335.499465
 40
55.000004
100
AcDbArc
 50
132.328323
 51
140.223111
  0
ARC
  5
21E
100
AcDbEntity
  8
M1
  6
CONTINUOUS
370
25
 62
     7
100
AcDbCircle
 10
700.617256
 20
335.499465
 40
64.000038
100
AcDbArc
 50
115.474586
 51
124.525426
  0
ARC
  5
21F
100
AcDbEntity
  8
M1
  6
CONTINUOUS
370
25
 62
     7
100
AcDbCircle
 10
700.617256
 20
335.499465
 40
79.0
100
AcDbArc
 50
114.977715
 51
125.022277
  0
ARC
  5
220
100
AcDbEntity
  8
M1
  6
CONTINUOUS
370
25
 62
     7
100
AcDbCircle
 10
700.617256
 20
335.499465
 40
54.999985
100
AcDbArc
 50
99.776825
 51
107.671741
  0
ARC
  5
221
100
AcDbEntity
  8
M1
  6
CONTINUOUS
370
25
 62
     7
100
AcDbCircle
 10
700.617256
 20
335.499465
 40
55.000011
100
AcDbArc
 50
116.328331
 51
123.671651
  0
ARC
  5
222
100
AcDbEntity
  8
M1
  6
CONTINUOUS
370
25
 62
     7
100
AcDbCircle
 10
691.617256
 20
387.72975
 40
2.0
100
AcDbArc
 50
0.0
 51
99.776375
  0
ARC
  5
223
100
AcDbEntity
  8
M1
  6
CONTINUOUS
370
25
 62
     7
100
AcDbCircle
 10
684.528358
 20
385.998549
 40
1.99998
100
AcDbArc
 50
107.671181
 51
202.002884
  0
ARC
  5
224
100
AcDbEntity
  8
M1
  6
CONTINUOUS
370
25
 62
     7
100
AcDbCircle
 10
688.663948
 20
375.762648
 40
1.999918
100
AcDbArc
 50
201.999802
 51
286.537796
  0
ARC
  5
225
100
AcDbEntity
  8
M1
  6
CONTINUOUS
370
25
 62
     7
100
AcDbCircle
 10
691.617256
 20
376.523848
 40
1.999957
100
AcDbArc
 50
282.374847
 51
359.999992
  0
ARC
  5
226
100
AcDbEntity
  8
M1
  6
CONTINUOUS
370
25
 62
     7
100
AcDbCircle
 10
677.110847
 20
383.001662
 40
2.000028
100
AcDbArc
 50
21.99947
 51
116.327717
  0
ARC
  5
227
100
AcDbEntity
  8
M1
  6
CONTINUOUS
370
25
 62
     7
100
AcDbCircle
 10
671.232261
 20
379.607558
 40
1.999997
100
AcDbArc
 50
123.669823
 51
217.999626
  0
ARC
  5
228
100
AcDbEntity
  8
M1
  6
CONTINUOUS
370
25
 62
     7
100
AcDbCircle
 10
681.246559
 20
372.765761
 40
2.000001
100
AcDbArc
 50
297.464355
 51
382.000626
  0
ARC
  5
229
100
AcDbEntity
  8
M1
  6
CONTINUOUS
370
25
 62
     7
100
AcDbCircle
 10
678.028953
 20
370.908156
 40
1.999968
100
AcDbArc
 50
217.999619
 51
302.535721
  0
ARC
  5
22A
100
AcDbEntity
  8
M1
  6
CONTINUOUS
370
25
 62
     7
100
AcDbCircle
 10
671.724952
 20
365.982863
 40
1.999924
100
AcDbArc
 50
313.462311
 51
397.999641
  0
ARC
  5
22B
100
AcDbEntity
  8
M1
  6
CONTINUOUS
370
25
 62
     7
100
AcDbCircle
 10
664.92826
 20
374.682265
 40
2.000012
100
AcDbArc
 50
38.001961
 51
132.327316
  0
ARC
  5
22C
100
AcDbEntity
  8
M1
  6
CONTINUOUS
370
25
 62
     7
100
AcDbCircle
 10
659.884559
 20
369.408858
 40
2.000092
100
AcDbArc
 50
140.225204
 51
239.997849
  0
ARC
  5
22D
100
AcDbEntity
  8
M1
  6
CONTINUOUS
370
25
 62
     7
100
AcDbCircle
 10
669.589057
 20
363.805953
 40
2.000031
100
AcDbArc
 50
240.000504
 51
317.624214
  0
ARC
  5
22E
100
AcDbEntity
  8
M1
  6
CONTINUOUS
370
25
 62
     7
100
AcDbCircle
 10
668.10276
 20
405.297866
 40
1.999929
100
AcDbArc
 50
22.000616
 51
114.980185
  0
ARC
  5
22F
100
AcDbEntity
  8
M1
  6
CONTINUOUS
370
25
 62
     7
100
AcDbCircle
 10
672.229957
 20
395.082778
 40
2.000036
100
AcDbArc
 50
295.473389
 51
381.999817
  0
ARC
  5
230
100
AcDbEntity
  8
M1
  6
CONTINUOUS
370
25
 62
     7
100
AcDbCircle
 10
663.21035
 20
389.875258
 40
2.00004
100
AcDbArc
 50
217.998016
 51
304.523613
  0
ARC
  5
231
100
AcDbEntity
  8
M1
  6
CONTINUOUS
370
25
 62
     7
100
AcDbCircle
 10
656.42736
 20
398.557051
 40
1.999979
100
AcDbArc
 50
125.02346
 51
217.999626
  0
ARC
  5
232
100
AcDbEntity
  8
M1
  6
CONTINUOUS
370
25
 62
     7
100
AcDbCircle
 10
700.617256
 20
335.499465
 40
40.000042
100
AcDbArc
 50
102.373566
 51
137.62635
  0
ARC
  5
233
100
AcDbEntity
  8
M1
  6
CONTINUOUS
370
13
 62
     7
100
AcDbCircle
 10
700.617256
 20
335.499465
 40
50.000023
100
AcDbArc
 50
143.707504
 51
156.196948
  0
ARC
  5
234
100
AcDbEntity
  8
M1
  6
CONTINUOUS
370
25
 62
     7
100
AcDbCircle
 10
657.315956
 20
360.499465
 40
6.99996
100
AcDbArc
 50
55.9865
 51
244.013615
  0
CIRCLE
  5
235
100
AcDbEntity
  8
M1
  6
CONTINUOUS
370
13
 62
     7
100
AcDbCircle
 10
657.315956
 20
360.499465
 40
3.0
  0
CIRCLE
  5
236
100
AcDbEntity
  8
M1
  6
CONTINUOUS
370
25
 62
     7
100
AcDbCircle
 10
657.315956
 20
360.499465
 40
2.5
  0
CIRCLE
  5
237
100
AcDbEntity
  8
M1
  6
CONTINUOUS
370
25
 62
     7
100
AcDbCircle
 10
626.13906
 20
378.499465
 40
5.0
  0
ARC
  5
238
100
AcDbEntity
  8
M1
  6
CONTINUOUS
370
25
 62
     7
100
AcDbCircle
 10
700.617256
 20
335.499465
 40
54.999989
100
AcDbArc
 50
192.328278
 51
200.223076
  0
ARC
  5
239
100
AcDbEntity
  8
M1
  6
CONTINUOUS
370
25
 62
     7
100
AcDbCircle
 10
700.617256
 20
335.499465
 40
64.000031
100
AcDbArc
 50
175.474579
 51
184.52535
  0
ARC
  5
23A
100
AcDbEntity
  8
M1
  6
CONTINUOUS
370
25
 62
     7
100
AcDbCircle
 10
700.617256
 20
335.499465
 40
79.0
100
AcDbArc
 50
174.977722
 51
185.022198
  0
ARC
  5
23B
100
AcDbEntity
  8
M1
  6
CONTINUOUS
370
25
 62
     7
100
AcDbCircle
 10
700.617256
 20
335.499465
 40
55.000069
100
AcDbArc
 50
159.776825
 51
167.671604
  0
ARC
  5
23C
100
AcDbEntity
  8
M1
  6
CONTINUOUS
370
25
 62
     7
100
AcDbCircle
 10
700.617256
 20
335.499465
 40
54.999996
100
AcDbArc
 50
176.328262
 51
183.671624
  0
ARC
  5
23D
100
AcDbEntity
  8
M1
  6
CONTINUOUS
370
25
 62
     7
100
AcDbCircle
 10
650.884559
 20
353.820357
 40
2.000044
100
AcDbArc
 50
60.000725
 51
159.77639
  0
ARC
  5
23E
100
AcDbEntity
  8
M1
  6
CONTINUOUS
370
25
 62
     7
100
AcDbCircle
 10
648.839347
 20
346.815764
 40
2.000002
100
AcDbArc
 50
167.672409
 51
262.001869
  0
ARC
  5
23F
100
AcDbEntity
  8
M1
  6
CONTINUOUS
370
25
 62
     7
100
AcDbCircle
 10
659.771751
 20
345.279265
 40
1.999971
100
AcDbArc
 50
261.998413
 51
346.534996
  0
ARC
  5
240
100
AcDbEntity
  8
M1
  6
CONTINUOUS
370
25
 62
     7
100
AcDbCircle
 10
660.589057
 20
348.217467
 40
1.999992
100
AcDbArc
 50
342.373871
 51
420.00071
  0
ARC
  5
241
100
AcDbEntity
  8
M1
  6
CONTINUOUS
370
25
 62
     7
100
AcDbCircle
 10
647.726051
 20
338.893569
 40
1.999958
100
AcDbArc
 50
82.001022
 51
176.327766
  0
ARC
  5
242
100
AcDbEntity
  8
M1
  6
CONTINUOUS
370
25
 62
     7
100
AcDbCircle
 10
647.726051
 20
332.105467
 40
2.000108
100
AcDbArc
 50
183.672043
 51
277.998558
  0
ARC
  5
243
100
AcDbEntity
  8
M1
  6
CONTINUOUS
370
25
 62
     7
100
AcDbCircle
 10
658.658348
 20
337.357161
 40
1.99996
100
AcDbArc
 50
357.463745
 51
442.001007
  0
ARC
  5
244
100
AcDbEntity
  8
M1
  6
CONTINUOUS
370
25
 62
     7
100
AcDbCircle
 10
658.658348
 20
333.64186
 40
1.999958
100
AcDbArc
 50
277.998993
 51
362.536255
  0
ARC
  5
245
100
AcDbEntity
  8
M1
  6
CONTINUOUS
370
25
 62
     7
100
AcDbCircle
 10
659.771751
 20
325.719664
 40
1.999982
100
AcDbArc
 50
13.464993
 51
98.001148
  0
ARC
  5
246
100
AcDbEntity
  8
M1
  6
CONTINUOUS
370
25
 62
     7
100
AcDbCircle
 10
648.839347
 20
324.183257
 40
2.000062
100
AcDbArc
 50
97.998123
 51
192.327156
  0
ARC
  5
247
100
AcDbEntity
  8
M1
  6
CONTINUOUS
370
25
 62
     7
100
AcDbCircle
 10
650.884559
 20
317.178557
 40
2.000069
100
AcDbArc
 50
200.220734
 51
300.000801
  0
ARC
  5
248
100
AcDbEntity
  8
M1
  6
CONTINUOUS
370
25
 62
     7
100
AcDbCircle
 10
660.589057
 20
322.781569
 40
2.000044
100
AcDbArc
 50
299.999268
 51
377.625694
  0
ARC
  5
249
100
AcDbEntity
  8
M1
  6
CONTINUOUS
370
25
 62
     7
100
AcDbCircle
 10
623.912849
 20
342.240264
 40
1.999958
100
AcDbArc
 50
82.001022
 51
174.977417
  0
ARC
  5
24A
100
AcDbEntity
  8
M1
  6
CONTINUOUS
370
25
 62
     7
100
AcDbCircle
 10
634.822959
 20
340.706969
 40
2.000025
100
AcDbArc
 50
355.474518
 51
441.998772
  0
ARC
  5
24B
100
AcDbEntity
  8
M1
  6
CONTINUOUS
370
25
 62
     7
100
AcDbCircle
 10
634.822959
 20
330.292067
 40
2.000076
100
AcDbArc
 50
278.00116
 51
364.52504
  0
ARC
  5
24C
100
AcDbEntity
  8
M1
  6
CONTINUOUS
370
25
 62
     7
100
AcDbCircle
 10
623.912849
 20
328.758666
 40
1.999966
100
AcDbArc
 50
185.019974
 51
277.998978
  0
ARC
  5
24D
100
AcDbEntity
  8
M1
  6
CONTINUOUS
370
25
 62
     7
100
AcDbCircle
 10
700.617256
 20
335.499465
 40
40.000057
100
AcDbArc
 50
162.373581
 51
197.626305
  0
ARC
  5
24E
100
AcDbEntity
  8
M1
  6
CONTINUOUS
370
13
 62
     7
100
AcDbCircle
 10
700.617256
 20
335.499465
 40
50.000015
100
AcDbArc
 50
203.70752
 51
216.196912
  0
ARC
  5
24F
100
AcDbEntity
  8
M1
  6
CONTINUOUS
370
25
 62
     7
100
AcDbCircle
 10
657.315956
 20
310.499465
 40
7.000011
100
AcDbArc
 50
115.986389
 51
304.013504
  0
CIRCLE
  5
250
100
AcDbEntity
  8
M1
  6
CONTINUOUS
370
13
 62
     7
100
AcDbCircle
 10
657.315956
 20
310.499465
 40
3.0
  0
CIRCLE
  5
251
100
AcDbEntity
  8
M1
  6
CONTINUOUS
370
25
 62
     7
100
AcDbCircle
 10
657.315956
 20
310.499465
 40
2.5
  0
CIRCLE
  5
252
100
AcDbEntity
  8
M1
  6
CONTINUOUS
370
25
 62
     7
100
AcDbCircle
 10
626.13906
 20
292.499465
 40
5.0
  0
ARC
  5
253
100
AcDbEntity
  8
M1
  6
CONTINUOUS
370
25
 62
     7
100
AcDbCircle
 10
700.617256
 20
335.499465
 40
54.999989
100
AcDbArc
 50
252.328232
 51
260.223068
  0
ARC
  5
254
100
AcDbEntity
  8
M1
  6
CONTINUOUS
370
25
 62
     7
100
AcDbCircle
 10
700.617256
 20
335.499465
 40
63.999939
100
AcDbArc
 50
235.474533
 51
244.525378
  0
ARC
  5
255
100
AcDbEntity
  8
M1
  6
CONTINUOUS
370
25
 62
     7
100
AcDbCircle
 10
700.617256
 20
335.499465
 40
78.999931
100
AcDbArc
 50
234.977676
 51
245.022185
  0
ARC
  5
256
100
AcDbEntity
  8
M1
  6
CONTINUOUS
370
25
 62
     7
100
AcDbCircle
 10
700.617256
 20
335.499465
 40
55.000031
100
AcDbArc
 50
219.776749
 51
227.671513
  0
ARC
  5
257
100
AcDbEntity
  8
M1
  6
CONTINUOUS
370
25
 62
     7
100
AcDbCircle
 10
700.617256
 20
335.499465
 40
55.0
100
AcDbArc
 50
236.328232
 51
243.671626
  0
ARC
  5
258
100
AcDbEntity
  8
M1
  6
CONTINUOUS
370
25
 62
     7
100
AcDbCircle
 10
659.884559
 20
301.590163
 40
1.999951
100
AcDbArc
 50
120.000801
 51
219.776466
  0
ARC
  5
259
100
AcDbEntity
  8
M1
  6
CONTINUOUS
370
25
 62
     7
100
AcDbCircle
 10
664.92826
 20
296.316664
 40
2.000039
100
AcDbArc
 50
227.670914
 51
321.999763
  0
ARC
  5
25A
100
AcDbEntity
  8
M1
  6
CONTINUOUS
370
25
 62
     7
100
AcDbCircle
 10
671.724952
 20
305.016158
 40
2.000033
100
AcDbArc
 50
321.997955
 51
406.535477
  0
ARC
  5
25B
100
AcDbEntity
  8
M1
  6
CONTINUOUS
370
25
 62
     7
100
AcDbCircle
 10
669.589057
 20
307.193068
 40
1.999955
100
AcDbArc
 50
42.373844
 51
119.999279
  0
ARC
  5
25C
100
AcDbEntity
  8
M1
  6
CONTINUOUS
370
25
 62
     7
100
AcDbCircle
 10
671.232261
 20
291.391356
 40
1.999977
100
AcDbArc
 50
142.000031
 51
236.328728
  0
ARC
  5
25D
100
AcDbEntity
  8
M1
  6
CONTINUOUS
370
25
 62
     7
100
AcDbCircle
 10
677.110847
 20
287.997359
 40
2.000045
100
AcDbArc
 50
243.673447
 51
338.000938
  0
ARC
  5
25E
100
AcDbEntity
  8
M1
  6
CONTINUOUS
370
25
 62
     7
100
AcDbCircle
 10
678.028953
 20
300.090865
 40
2.000012
100
AcDbArc
 50
57.46286
 51
142.000374
  0
ARC
  5
25F
100
AcDbEntity
  8
M1
  6
CONTINUOUS
370
25
 62
     7
100
AcDbCircle
 10
681.246559
 20
298.23326
 40
1.999963
100
AcDbArc
 50
337.996948
 51
422.534439
  0
ARC
  5
260
100
AcDbEntity
  8
M1
  6
CONTINUOUS
370
25
 62
     7
100
AcDbCircle
 10
688.663948
 20
295.236357
 40
2.000049
100
AcDbArc
 50
73.462326
 51
157.999382
  0
ARC
  5
261
100
AcDbEntity
  8
M1
  6
CONTINUOUS
370
25
 62
     7
100
AcDbCircle
 10
684.528358
 20
285.000456
 40
2.000028
100
AcDbArc
 50
158.000534
 51
252.32869
  0
ARC
  5
262
100
AcDbEntity
  8
M1
  6
CONTINUOUS
370
25
 62
     7
100
AcDbCircle
 10
691.617256
 20
283.269255
 40
2.000035
100
AcDbArc
 50
260.223999
 51
360.000008
  0
ARC
  5
263
100
AcDbEntity
  8
M1
  6
CONTINUOUS
370
25
 62
     7
100
AcDbCircle
 10
691.617256
 20
294.475066
 40
2.0
100
AcDbArc
 50
0.0
 51
77.625801
  0
ARC
  5
264
100
AcDbEntity
  8
M1
  6
CONTINUOUS
370
25
 62
     7
100
AcDbCircle
 10
656.42736
 20
272.44197
 40
1.999968
100
AcDbArc
 50
142.000381
 51
234.97805
  0
ARC
  5
265
100
AcDbEntity
  8
M1
  6
CONTINUOUS
370
25
 62
     7
100
AcDbCircle
 10
663.21035
 20
281.123763
 40
1.999938
100
AcDbArc
 50
55.474907
 51
142.001991
  0
ARC
  5
266
100
AcDbEntity
  8
M1
  6
CONTINUOUS
370
25
 62
     7
100
AcDbCircle
 10
672.229957
 20
275.916258
 40
1.999923
100
AcDbArc
 50
337.999786
 51
424.526619
  0
ARC
  5
267
100
AcDbEntity
  8
M1
  6
CONTINUOUS
370
25
 62
     7
100
AcDbCircle
 10
668.10276
 20
265.701155
 40
1.999988
100
AcDbArc
 50
245.019821
 51
337.999794
  0
ARC
  5
268
100
AcDbEntity
  8
M1
  6
CONTINUOUS
370
25
 62
     7
100
AcDbCircle
 10
700.617256
 20
335.499465
 40
39.999996
100
AcDbArc
 50
222.373459
 51
257.626263
  0
ARC
  5
269
100
AcDbEntity
  8
M1
  6
CONTINUOUS
370
13
 62
     7
100
AcDbCircle
 10
700.617256
 20
335.499465
 40
49.999931
100
AcDbArc
 50
263.70752
 51
276.19693
  0
ARC
  5
26A
100
AcDbEntity
  8
M1
  6
CONTINUOUS
370
25
 62
     7
100
AcDbCircle
 10
700.617256
 20
285.499465
 40
7.000066
100
AcDbArc
 50
175.986008
 51
364.014053
  0
CIRCLE
  5
26B
100
AcDbEntity
  8
M1
  6
CONTINUOUS
370
13
 62
     7
100
AcDbCircle
 10
700.617256
 20
285.499465
 40
3.0
  0
CIRCLE
  5
26C
100
AcDbEntity
  8
M1
  6
CONTINUOUS
370
25
 62
     7
100
AcDbCircle
 10
700.617256
 20
285.499465
 40
2.5
  0
CIRCLE
  5
26D
100
AcDbEntity
  8
M1
  6
CONTINUOUS
370
25
 62
     7
100
AcDbCircle
 10
700.617256
 20
249.499465
 40
5.0
  0
ARC
  5
26E
100
AcDbEntity
  8
M1
  6
CONTINUOUS
370
25
 62
     7
100
AcDbCircle
 10
700.617256
 20
335.499465
 40
55.000004
100
AcDbArc
 50
312.328339
 51
320.223199
  0
ARC
  5
26F
100
AcDbEntity
  8
M1
  6
CONTINUOUS
370
25
 62
     7
100
AcDbCircle
 10
700.617256
 20
335.499465
 40
63.999901
100
AcDbArc
 50
295.474548
 51
304.525349
  0
ARC
  5
270
100
AcDbEntity
  8
M1
  6
CONTINUOUS
370
25
 62
     7
100
AcDbCircle
 10
700.617256
 20
335.499465
 40
78.999962
100
AcDbArc
 50
294.977661
 51
305.022239
  0
ARC
  5
271
100
AcDbEntity
  8
M1
  6
CONTINUOUS
370
25
 62
     7
100
AcDbCircle
 10
700.617256
 20
335.499465
 40
54.999969
100
AcDbArc
 50
279.776733
 51
287.671682
  0
ARC
  5
272
100
AcDbEntity
  8
M1
  6
CONTINUOUS
370
25
 62
     7
100
AcDbCircle
 10
700.617256
 20
335.499465
 40
54.999966
100
AcDbArc
 50
296.328247
 51
303.671644
  0
ARC
  5
273
100
AcDbEntity
  8
M1
  6
CONTINUOUS
370
25
 62
     7
100
AcDbCircle
 10
709.617256
 20
283.269255
 40
2.0
100
AcDbArc
 50
180.0
 51
279.776009
  0
ARC
  5
274
100
AcDbEntity
  8
M1
  6
CONTINUOUS
370
25
 62
     7
100
AcDbCircle
 10
716.705955
 20
285.000456
 40
1.999965
100
AcDbArc
 50
287.671326
 51
381.999481
  0
ARC
  5
275
100
AcDbEntity
  8
M1
  6
CONTINUOUS
370
25
 62
     7
100
AcDbCircle
 10
712.570457
 20
295.236357
 40
1.999929
100
AcDbArc
 50
22.000616
 51
106.534742
  0
ARC
  5
276
100
AcDbEntity
  8
M1
  6
CONTINUOUS
370
25
 62
     7
100
AcDbCircle
 10
709.617256
 20
294.475066
 40
2.000062
100
AcDbArc
 50
102.374199
 51
180.0
  0
ARC
  5
277
100
AcDbEntity
  8
M1
  6
CONTINUOUS
370
25
 62
     7
100
AcDbCircle
 10
724.123458
 20
287.997359
 40
2.000022
100
AcDbArc
 50
201.999069
 51
296.326561
  0
ARC
  5
278
100
AcDbEntity
  8
M1
  6
CONTINUOUS
370
25
 62
     7
100
AcDbCircle
 10
730.002151
 20
291.391356
 40
1.999971
100
AcDbArc
 50
303.673462
 51
397.999977
  0
ARC
  5
279
100
AcDbEntity
  8
M1
  6
CONTINUOUS
370
25
 62
     7
100
AcDbCircle
 10
719.987953
 20
298.23326
 40
1.999969
100
AcDbArc
 50
117.468269
 51
202.0019
  0
ARC
  5
27A
100
AcDbEntity
  8
M1
  6
CONTINUOUS
370
25
 62
     7
100
AcDbCircle
 10
723.205352
 20
300.090865
 40
2.000046
100
AcDbArc
 50
37.997875
 51
122.53474
  0
ARC
  5
27B
100
AcDbEntity
  8
M1
  6
CONTINUOUS
370
25
 62
     7
100
AcDbCircle
 10
729.509552
 20
305.016158
 40
1.99992
100
AcDbArc
 50
133.466003
 51
217.998009
  0
ARC
  5
27C
100
AcDbEntity
  8
M1
  6
CONTINUOUS
370
25
 62
     7
100
AcDbCircle
 10
736.306251
 20
296.316664
 40
1.999971
100
AcDbArc
 50
218.000107
 51
312.329086
  0
ARC
  5
27D
100
AcDbEntity
  8
M1
  6
CONTINUOUS
370
25
 62
     7
100
AcDbCircle
 10
741.349967
 20
301.590163
 40
2.000022
100
AcDbArc
 50
320.223541
 51
420.000542
  0
ARC
  5
27E
100
AcDbEntity
  8
M1
  6
CONTINUOUS
370
25
 62
     7
100
AcDbCircle
 10
731.645355
 20
307.193068
 40
2.000044
100
AcDbArc
 50
60.000725
 51
137.626305
  0
ARC
  5
27F
100
AcDbEntity
  8
M1
  6
CONTINUOUS
370
25
 62
     7
100
AcDbCircle
 10
733.131752
 20
265.701155
 40
2.000022
100
AcDbArc
 50
201.999069
 51
294.977615
  0
ARC
  5
280
100
AcDbEntity
  8
M1
  6
CONTINUOUS
370
25
 62
     7
100
AcDbCircle
 10
729.004554
 20
275.916258
 40
2.000079
100
AcDbArc
 50
115.475945
 51
201.999062
  0
ARC
  5
281
100
AcDbEntity
  8
M1
  6
CONTINUOUS
370
25
 62
     7
100
AcDbCircle
 10
738.024162
 20
281.123763
 40
2.000004
100
AcDbArc
 50
37.998817
 51
124.526123
  0
ARC
  5
282
100
AcDbEntity
  8
M1
  6
CONTINUOUS
370
25
 62
     7
100
AcDbCircle
 10
744.807121
 20
272.44197
 40
2.000028
100
AcDbArc
 50
305.020874
 51
397.999214
  0
ARC
  5
283
100
AcDbEntity
  8
M1
  6
CONTINUOUS
370
25
 62
     7
100
AcDbCircle
 10
700.617256
 20
335.499465
 40
39.999954
100
AcDbArc
 50
282.373596
 51
317.62635
  0
ARC
  5
284
100
AcDbEntity
  8
M1
  6
CONTINUOUS
370
13
 62
     7
100
AcDbCircle
 10
700.617256
 20
335.499465
 40
50.0
100
AcDbArc
 50
323.707489
 51
336.197072
  0
ARC
  5
285
100
AcDbEntity
  8
M1
  6
CONTINUOUS
370
25
 62
     7
100
AcDbCircle
 10
743.918441
 20
310.499465
 40
6.999998
100
AcDbArc
 50
235.986038
 51
424.013779
  0
CIRCLE
  5
286
100
AcDbEntity
  8
M1
  6
CONTINUOUS
370
13
 62
     7
100
AcDbCircle
 10
743.918441
 20
310.499465
 40
3.0
  0
CIRCLE
  5
287
100
AcDbEntity
  8
M1
  6
CONTINUOUS
370
25
 62
     7
100
AcDbCircle
 10
743.918441
 20
310.499465
 40
2.5
  0
CIRCLE
  5
288
100
AcDbEntity
  8
M1
  6
CONTINUOUS
370
25
 62
     7
100
AcDbCircle
 10
775.095394
 20
292.499465
 40
5.0
  0
ARC
  5
289
100
AcDbEntity
  8
M1
  6
CONTINUOUS
370
25
 62
     7
100
AcDbCircle
 10
700.617256
 20
335.499465
 40
54.999989
100
AcDbArc
 50
12.328398
 51
20.223207
  0
ARC
  5
28A
100
AcDbEntity
  8
M1
  6
CONTINUOUS
370
25
 62
     7
100
AcDbCircle
 10
700.617256
 20
335.499465
 40
63.999985
100
AcDbArc
 50
355.474579
 51
364.525437
  0
ARC
  5
28B
100
AcDbEntity
  8
M1
  6
CONTINUOUS
370
25
 62
     7
100
AcDbCircle
 10
700.617256
 20
335.499465
 40
79.0
100
AcDbArc
 50
354.977722
 51
365.022274
  0
ARC
  5
28C
100
AcDbEntity
  8
M1
  6
CONTINUOUS
370
25
 62
     7
100
AcDbCircle
 10
700.617256
 20
335.499465
 40
55.0
100
AcDbArc
 50
339.776794
 51
347.671711
  0
ARC
  5
28D
100
AcDbEntity
  8
M1
  6
CONTINUOUS
370
25
 62
     7
100
AcDbCircle
 10
700.617256
 20
335.499465
 40
54.999966
100
AcDbArc
 50
356.328247
 51
363.671723
  0
ARC
  5
28E
100
AcDbEntity
  8
M1
  6
CONTINUOUS
370
25
 62
     7
100
AcDbCircle
 10
750.349967
 20
317.178557
 40
1.999951
100
AcDbArc
 50
239.999191
 51
339.778427
  0
ARC
  5
28F
100
AcDbEntity
  8
M1
  6
CONTINUOUS
370
25
 62
     7
100
AcDbCircle
 10
752.395011
 20
324.183257
 40
1.999962
100
AcDbArc
 50
347.672607
 51
442.001015
  0
ARC
  5
290
100
AcDbEntity
  8
M1
  6
CONTINUOUS
370
25
 62
     7
100
AcDbCircle
 10
741.462692
 20
325.719664
 40
2.000068
100
AcDbArc
 50
82.00058
 51
166.535004
  0
ARC
  5
291
100
AcDbEntity
  8
M1
  6
CONTINUOUS
370
25
 62
     7
100
AcDbCircle
 10
740.645378
 20
322.781569
 40
2.000009
100
AcDbArc
 50
162.374496
 51
240.000343
  0
ARC
  5
292
100
AcDbEntity
  8
M1
  6
CONTINUOUS
370
25
 62
     7
100
AcDbCircle
 10
753.508476
 20
332.105467
 40
2.000066
100
AcDbArc
 50
262.001007
 51
356.327744
  0
ARC
  5
293
100
AcDbEntity
  8
M1
  6
CONTINUOUS
370
25
 62
     7
100
AcDbCircle
 10
753.508476
 20
338.893569
 40
2.000017
100
AcDbArc
 50
3.672206
 51
97.999263
  0
ARC
  5
294
100
AcDbEntity
  8
M1
  6
CONTINUOUS
370
25
 62
     7
100
AcDbCircle
 10
742.576042
 20
333.64186
 40
2.000006
100
AcDbArc
 50
177.463806
 51
262.00058
  0
ARC
  5
295
100
AcDbEntity
  8
M1
  6
CONTINUOUS
370
25
 62
     7
100
AcDbCircle
 10
742.576042
 20
337.357161
 40
1.99996
100
AcDbArc
 50
97.999413
 51
182.536217
  0
ARC
  5
296
100
AcDbEntity
  8
M1
  6
CONTINUOUS
370
25
 62
     7
100
AcDbCircle
 10
741.462692
 20
345.279265
 40
1.999975
100
AcDbArc
 50
193.465042
 51
277.999847
  0
ARC
  5
297
100
AcDbEntity
  8
M1
  6
CONTINUOUS
370
25
 62
     7
100
AcDbCircle
 10
752.395011
 20
346.815764
 40
2.000066
100
AcDbArc
 50
277.998993
 51
372.327728
  0
ARC
  5
298
100
AcDbEntity
  8
M1
  6
CONTINUOUS
370
25
 62
     7
100
AcDbCircle
 10
750.349967
 20
353.820357
 40
2.00002
100
AcDbArc
 50
20.224514
 51
119.999271
  0
ARC
  5
299
100
AcDbEntity
  8
M1
  6
CONTINUOUS
370
25
 62
     7
100
AcDbCircle
 10
740.645378
 20
348.217467
 40
2.000044
100
AcDbArc
 50
119.999275
 51
197.626053
  0
ARC
  5
29A
100
AcDbEntity
  8
M1
  6
CONTINUOUS
370
25
 62
     7
100
AcDbCircle
 10
777.321586
 20
328.758666
 40
1.99996
100
AcDbArc
 50
262.00058
 51
354.980057
  0
ARC
  5
29B
100
AcDbEntity
  8
M1
  6
CONTINUOUS
370
25
 62
     7
100
AcDbCircle
 10
766.411437
 20
330.292067
 40
2.000016
100
AcDbArc
 50
175.474945
 51
262.000572
  0
ARC
  5
29C
100
AcDbEntity
  8
M1
  6
CONTINUOUS
370
25
 62
     7
100
AcDbCircle
 10
766.411437
 20
340.706969
 40
2.000053
100
AcDbArc
 50
97.999481
 51
184.525536
  0
ARC
  5
29D
100
AcDbEntity
  8
M1
  6
CONTINUOUS
370
25
 62
     7
100
AcDbCircle
 10
777.321586
 20
342.240264
 40
1.999989
100
AcDbArc
 50
5.022549
 51
97.999409
  0
ARC
  5
29E
100
AcDbEntity
  8
M1
  6
CONTINUOUS
370
25
 62
     7
100
AcDbCircle
 10
700.617256
 20
335.499465
 40
39.999996
100
AcDbArc
 50
342.373688
 51
377.626446
  0
ARC
  5
29F
100
AcDbEntity
  8
M1
  6
CONTINUOUS
370
13
 62
     7
100
AcDbCircle
 10
700.617256
 20
335.499465
 40
49.999996
100
AcDbArc
 50
23.707651
 51
36.197061
  0
ARC
  5
2A0
100
AcDbEntity
  8
M1
  6
CONTINUOUS
370
25
 62
     7
100
AcDbCircle
 10
743.918441
 20
360.499465
 40
7.000001
100
AcDbArc
 50
295.986206
 51
484.013947
  0
CIRCLE
  5
2A1
100
AcDbEntity
  8
M1
  6
CONTINUOUS
370
13
 62
     7
100
AcDbCircle
 10
743.918441
 20
360.499465
 40
3.0
  0
CIRCLE
  5
2A2
100
AcDbEntity
  8
M1
  6
CONTINUOUS
370
25
 62
     7
100
AcDbCircle
 10
743.918441
 20
360.499465
 40
2.5
  0
CIRCLE
  5
2A3
100
AcDbEntity
  8
M1
  6
CONTINUOUS
370
25
 62
     7
100
AcDbCircle
 10
775.095394
 20
378.499465
 40
5.0
  0
CIRCLE
  5
2A4
100
AcDbEntity
  8
M1
  6
CONTINUOUS
370
25
 62
     7
100
AcDbCircle
 10
700.617256
 20
421.499465
 40
5.0
  0
CIRCLE
  5
2A5
100
AcDbEntity
  8
M1
  6
CONTINUOUS
370
25
 62
     7
100
AcDbCircle
 10
700.617256
 20
385.499465
 40
2.5
  0
CIRCLE
  5
2A6
100
AcDbEntity
  8
M1
  6
CONTINUOUS
370
13
 62
     7
100
AcDbCircle
 10
700.617256
 20
385.499465
 40
3.0
  0
ARC
  5
2A7
100
AcDbEntity
  8
M1
  6
CONTINUOUS
370
25
 62
     7
100
AcDbCircle
 10
700.617256
 20
385.499465
 40
6.999974
100
AcDbArc
 50
355.986084
 51
544.01387
  0
ARC
  5
2A8
100
AcDbEntity
  8
M1
  6
CONTINUOUS
370
13
 62
     7
100
AcDbCircle
 10
700.617256
 20
335.499465
 40
50.000015
100
AcDbArc
 50
83.707626
 51
96.197034
  0
ARC
  5
2A9
100
AcDbEntity
  8
M1
  6
CONTINUOUS
370
25
 62
     7
100
AcDbCircle
 10
700.617256
 20
335.499465
 40
39.999981
100
AcDbArc
 50
42.373653
 51
77.626438
  0
ARC
  5
2AA
100
AcDbEntity
  8
M1
  6
CONTINUOUS
370
25
 62
     7
100
AcDbCircle
 10
733.131752
 20
405.297866
 40
1.999946
100
AcDbArc
 50
65.022392
 51
158.000534
  0
ARC
  5
2AB
100
AcDbEntity
  8
M1
  6
CONTINUOUS
370
25
 62
     7
100
AcDbCircle
 10
729.004554
 20
395.082778
 40
2.000017
100
AcDbArc
 50
158.001343
 51
244.524055
  0
ARC
  5
2AC
100
AcDbEntity
  8
M1
  6
CONTINUOUS
370
25
 62
     7
100
AcDbCircle
 10
738.024162
 20
389.875258
 40
1.999942
100
AcDbArc
 50
235.474731
 51
322.000648
  0
ARC
  5
2AD
100
AcDbEntity
  8
M1
  6
CONTINUOUS
370
25
 62
     7
100
AcDbCircle
 10
744.807121
 20
398.557051
 40
2.00001
100
AcDbArc
 50
322.001312
 51
414.978394
  0
ARC
  5
2AE
100
AcDbEntity
  8
M1
  6
CONTINUOUS
370
25
 62
     7
100
AcDbCircle
 10
709.617256
 20
376.523848
 40
2.0
100
AcDbArc
 50
180.0
 51
257.625145
  0
ARC
  5
2AF
100
AcDbEntity
  8
M1
  6
CONTINUOUS
370
25
 62
     7
100
AcDbCircle
 10
709.617256
 20
387.72975
 40
1.99996
100
AcDbArc
 50
80.223625
 51
180.0
  0
ARC
  5
2B0
100
AcDbEntity
  8
M1
  6
CONTINUOUS
370
25
 62
     7
100
AcDbCircle
 10
716.705955
 20
385.998549
 40
2.000062
100
AcDbArc
 50
337.998108
 51
432.326126
  0
ARC
  5
2B1
100
AcDbEntity
  8
M1
  6
CONTINUOUS
370
25
 62
     7
100
AcDbCircle
 10
712.570457
 20
375.762648
 40
2.000004
100
AcDbArc
 50
253.465134
 51
338.000191
  0
ARC
  5
2B2
100
AcDbEntity
  8
M1
  6
CONTINUOUS
370
25
 62
     7
100
AcDbCircle
 10
719.987953
 20
372.765761
 40
2.000028
100
AcDbArc
 50
158.000534
 51
242.532944
  0
ARC
  5
2B3
100
AcDbEntity
  8
M1
  6
CONTINUOUS
370
25
 62
     7
100
AcDbCircle
 10
723.205352
 20
370.908156
 40
1.999959
100
AcDbArc
 50
237.465256
 51
322.000374
  0
ARC
  5
2B4
100
AcDbEntity
  8
M1
  6
CONTINUOUS
370
25
 62
     7
100
AcDbCircle
 10
724.123458
 20
383.001662
 40
1.999963
100
AcDbArc
 50
63.672279
 51
158.000526
  0
ARC
  5
2B5
100
AcDbEntity
  8
M1
  6
CONTINUOUS
370
25
 62
     7
100
AcDbCircle
 10
730.002151
 20
379.607558
 40
1.999968
100
AcDbArc
 50
322.000366
 51
416.327988
  0
ARC
  5
2B6
100
AcDbEntity
  8
M1
  6
CONTINUOUS
370
25
 62
     7
100
AcDbCircle
 10
731.645355
 20
363.805953
 40
2.000023
100
AcDbArc
 50
222.375641
 51
299.999496
  0
ARC
  5
2B7
100
AcDbEntity
  8
M1
  6
CONTINUOUS
370
25
 62
     7
100
AcDbCircle
 10
729.509552
 20
365.982863
 40
2.000115
100
AcDbArc
 50
141.999237
 51
226.533585
  0
ARC
  5
2B8
100
AcDbEntity
  8
M1
  6
CONTINUOUS
370
25
 62
     7
100
AcDbCircle
 10
736.306251
 20
374.682265
 40
2.000039
100
AcDbArc
 50
47.670914
 51
142.000237
  0
ARC
  5
2B9
100
AcDbEntity
  8
M1
  6
CONTINUOUS
370
25
 62
     7
100
AcDbCircle
 10
741.349967
 20
369.408858
 40
2.000031
100
AcDbArc
 50
299.999481
 51
399.776733
  0
ARC
  5
2BA
100
AcDbEntity
  8
M1
  6
CONTINUOUS
370
25
 62
     7
100
AcDbCircle
 10
700.617256
 20
335.499465
 40
55.000008
100
AcDbArc
 50
56.328358
 51
63.671671
  0
ARC
  5
2BB
100
AcDbEntity
  8
M1
  6
CONTINUOUS
370
25
 62
     7
100
AcDbCircle
 10
700.617256
 20
335.499465
 40
55.000031
100
AcDbArc
 50
39.776875
 51
47.671736
  0
ARC
  5
2BC
100
AcDbEntity
  8
M1
  6
CONTINUOUS
370
25
 62
     7
100
AcDbCircle
 10
700.617256
 20
335.499465
 40
78.999977
100
AcDbArc
 50
54.977768
 51
65.02228
  0
ARC
  5
2BD
100
AcDbEntity
  8
M1
  6
CONTINUOUS
370
25
 62
     7
100
AcDbCircle
 10
700.617256
 20
335.499465
 40
64.000008
100
AcDbArc
 50
55.474583
 51
64.525417
  0
ARC
  5
2BE
100
AcDbEntity
  8
M1
  6
CONTINUOUS
370
25
 62
     7
100
AcDbCircle
 10
700.617256
 20
335.499465
 40
55.000046
100
AcDbArc
 50
72.328354
 51
80.223172
  0
CIRCLE
  5
2BF
100
AcDbEntity
  8
M1
  6
CONTINUOUS
370
25
 62
     7
100
AcDbCircle
 10
700.617256
 20
335.499465
 40
31.0
  0
CIRCLE
  5
2C0
100
AcDbEntity
  8
M1
  6
CONTINUOUS
370
25
 62
     7
100
AcDbCircle
 10
700.617256
 20
335.499465
 40
37.0
  0
ARC
  5
2C1
100
AcDbEntity
  8
M1
  6
CONTINUOUS
370
25
 62
     7
100
AcDbCircle
 10
700.617256
 20
335.499465
 40
109.500046
100
AcDbArc
 50
61.465904
 51
418.534843
  0
CIRCLE
  5
2C2
100
AcDbEntity
  8
M1
  6
CONTINUOUS
370
25
 62
     7
100
AcDbCircle
 10
700.617256
 20
335.499465
 40
97.999985
  0
ARC
  5
2C3
100
AcDbEntity
  8
M1
  6
CONTINUOUS
370
25
 62
     7
100
AcDbCircle
 10
752.255058
 20
424.938857
 40
4.210209
100
AcDbArc
 50
101.707611
 51
378.314819
  0
ARC
  5
2C4
100
AcDbEntity
  8
M1
  6
CONTINUOUS
370
25
 62
     7
100
AcDbCircle
 10
751.230278
 20
426.11476
 40
1.525864
100
AcDbArc
 50
179.680283
 51
315.216751
  0
ARC
  5
2C5
100
AcDbEntity
  8
M1
  6
CONTINUOUS
370
25
 62
     7
100
AcDbCircle
 10
753.803947
 20
424.567153
 40
1.563762
100
AcDbArc
 50
162.40451
 51
294.484558
  0
ARC
  5
2C6
100
AcDbEntity
  8
M1
  6
CONTINUOUS
370
25
 62
     7
100
AcDbCircle
 10
439.122924
 20
452.632857
 40
11.200409
100
AcDbArc
 50
0.0
 51
60.001087
  0
ARC
  5
2C7
100
AcDbEntity
  8
M1
  6
CONTINUOUS
370
25
 62
     7
100
AcDbCircle
 10
464.322937
 20
452.632857
 40
14.000202
100
AcDbArc
 50
119.998657
 51
180.0
  0
ARC
  5
2C8
100
AcDbEntity
  8
M1
  6
CONTINUOUS
370
25
 62
     7
100
AcDbCircle
 10
439.122924
 20
452.632857
 40
14.000566
100
AcDbArc
 50
25.844648
 51
60.001318
  0
ARC
  5
2C9
100
AcDbEntity
  8
M1
  6
CONTINUOUS
370
25
 62
     7
100
AcDbCircle
 10
447.32193
 20
441.239852
 40
3.0
100
AcDbArc
 50
270.0
 51
360.0
  0
ARC
  5
2CA
100
AcDbEntity
  8
M1
  6
CONTINUOUS
370
25
 62
     7
100
AcDbCircle
 10
447.32193
 20
441.239852
 40
5.800079
100
AcDbArc
 50
270.0
 51
360.0
  0
ARC
  5
2CB
100
AcDbEntity
  8
M1
  6
CONTINUOUS
370
25
 62
     7
100
AcDbCircle
 10
464.322937
 20
452.632857
 40
11.199903
100
AcDbArc
 50
119.999062
 51
180.000004
  0
ARC
  5
2CC
100
AcDbEntity
  8
M1
  6
CONTINUOUS
370
25
 62
     7
100
AcDbCircle
 10
72.208981
 20
459.159072
 40
14.000182
100
AcDbArc
 50
149.998993
 51
210.004379
  0
ARC
  5
2CD
100
AcDbEntity
  8
M1
  6
CONTINUOUS
370
25
 62
     7
100
AcDbCircle
 10
47.961117
 20
445.159072
 40
13.998952
100
AcDbArc
 50
29.997286
 51
90.0
  0
ARC
  5
2CE
100
AcDbEntity
  8
M1
  6
CONTINUOUS
370
25
 62
     7
100
AcDbCircle
 10
72.208981
 20
459.159072
 40
11.19958
100
AcDbArc
 50
150.002869
 51
210.00164
  0
ARC
  5
2CF
100
AcDbEntity
  8
M1
  6
CONTINUOUS
370
25
 62
     7
100
AcDbCircle
 10
47.961117
 20
445.159072
 40
11.199936
100
AcDbArc
 50
29.99716
 51
90.005308
  0
ARC
  5
2D0
100
AcDbEntity
  8
M1
  6
CONTINUOUS
370
25
 62
     7
100
AcDbCircle
 10
780.093196
 20
445.159072
 40
11.199982
100
AcDbArc
 50
89.99485
 51
150.003067
  0
ARC
  5
2D1
100
AcDbEntity
  8
M1
  6
CONTINUOUS
370
25
 62
     7
100
AcDbCircle
 10
755.845207
 20
459.159072
 40
14.000196
100
AcDbArc
 50
329.995697
 51
390.000881
  0
ARC
  5
2D2
100
AcDbEntity
  8
M1
  6
CONTINUOUS
370
25
 62
     7
100
AcDbCircle
 10
780.093196
 20
445.159072
 40
13.998993
100
AcDbArc
 50
90.0
 51
150.00288
  0
ARC
  5
2D3
100
AcDbEntity
  8
M1
  6
CONTINUOUS
370
25
 62
     7
100
AcDbCircle
 10
755.845207
 20
459.159072
 40
11.199574
100
AcDbArc
 50
329.998718
 51
389.997082
  0
LINE
  5
2D4
100
AcDbEntity
  8
M1
  6
CONTINUOUS
370
25
 62
     7
100
AcDbLine
 10
122.437008
 20
418.612776
 11
127.437008
 21
415.725966
  0
LINE
  5
2D5
100
AcDbEntity
  8
M1
  6
CONTINUOUS
370
25
 62
     7
100
AcDbLine
 10
127.437008
 20
415.725966
 11
132.437008
 21
418.612776
  0
LINE
  5
2D6
100
AcDbEntity
  8
M1
  6
CONTINUOUS
370
25
 62
     7
100
AcDbLine
 10
132.437008
 20
418.612776
 11
132.437008
 21
424.386275
  0
LINE
  5
2D7
100
AcDbEntity
  8
M1
  6
CONTINUOUS
370
25
 62
     7
100
AcDbLine
 10
132.437008
 20
424.386275
 11
127.437008
 21
427.272963
  0
LINE
  5
2D8
100
AcDbEntity
  8
M1
  6
CONTINUOUS
370
25
 62
     7
100
AcDbLine
 10
127.437008
 20
427.272963
 11
122.437008
 21
424.386275
  0
LINE
  5
2D9
100
AcDbEntity
  8
M1
  6
CONTINUOUS
370
25
 62
     7
100
AcDbLine
 10
122.437008
 20
424.386275
 11
122.437008
 21
418.612776
  0
LINE
  5
2DA
100
AcDbEntity
  8
M1
  6
CONTINUOUS
370
25
 62
     7
100
AcDbLine
 10
52.958797
 20
372.725966
 11
57.958797
 21
375.612776
  0
LINE
  5
2DB
100
AcDbEntity
  8
M1
  6
CONTINUOUS
370
25
 62
     7
100
AcDbLine
 10
57.958797
 20
375.612776
 11
57.958797
 21
381.386275
  0
LINE
  5
2DC
100
AcDbEntity
  8
M1
  6
CONTINUOUS
370
25
 62
     7
100
AcDbLine
 10
57.958797
 20
381.386275
 11
52.958797
 21
384.272963
  0
LINE
  5
2DD
100
AcDbEntity
  8
M1
  6
CONTINUOUS
370
25
 62
     7
100
AcDbLine
 10
52.958797
 20
384.272963
 11
47.958797
 21
381.386275
  0
LINE
  5
2DE
100
AcDbEntity
  8
M1
  6
CONTINUOUS
370
25
 62
     7
100
AcDbLine
 10
47.958797
 20
381.386275
 11
47.958797
 21
375.612776
  0
LINE
  5
2DF
100
AcDbEntity
  8
M1
  6
CONTINUOUS
370
25
 62
     7
100
AcDbLine
 10
47.958797
 20
375.612776
 11
52.958797
 21
372.725966
  0
LINE
  5
2E0
100
AcDbEntity
  8
M1
  6
CONTINUOUS
370
25
 62
     7
100
AcDbLine
 10
57.958797
 20
289.612761
 11
57.958797
 21
295.38626
  0
LINE
  5
2E1
100
AcDbEntity
  8
M1
  6
CONTINUOUS
370
25
 62
     7
100
AcDbLine
 10
57.958797
 20
295.38626
 11
52.958797
 21
298.272963
  0
LINE
  5
2E2
100
AcDbEntity
  8
M1
  6
CONTINUOUS
370
25
 62
     7
100
AcDbLine
 10
52.958797
 20
298.272963
 11
47.958797
 21
295.38626
  0
LINE
  5
2E3
100
AcDbEntity
  8
M1
  6
CONTINUOUS
370
25
 62
     7
100
AcDbLine
 10
47.958797
 20
295.38626
 11
47.958797
 21
289.612761
  0
LINE
  5
2E4
100
AcDbEntity
  8
M1
  6
CONTINUOUS
370
25
 62
     7
100
AcDbLine
 10
47.958797
 20
289.612761
 11
52.958797
 21
286.725966
  0
LINE
  5
2E5
100
AcDbEntity
  8
M1
  6
CONTINUOUS
370
25
 62
     7
100
AcDbLine
 10
52.958797
 20
286.725966
 11
57.958797
 21
289.612761
  0
LINE
  5
2E6
100
AcDbEntity
  8
M1
  6
CONTINUOUS
370
25
 62
     7
100
AcDbLine
 10
132.437008
 20
252.38626
 11
127.437008
 21
255.272963
  0
LINE
  5
2E7
100
AcDbEntity
  8
M1
  6
CONTINUOUS
370
25
 62
     7
100
AcDbLine
 10
127.437008
 20
255.272963
 11
122.437008
 21
252.38626
  0
LINE
  5
2E8
100
AcDbEntity
  8
M1
  6
CONTINUOUS
370
25
 62
     7
100
AcDbLine
 10
122.437008
 20
252.38626
 11
122.437008
 21
246.612761
  0
LINE
  5
2E9
100
AcDbEntity
  8
M1
  6
CONTINUOUS
370
25
 62
     7
100
AcDbLine
 10
122.437008
 20
246.612761
 11
127.437008
 21
243.725966
  0
LINE
  5
2EA
100
AcDbEntity
  8
M1
  6
CONTINUOUS
370
25
 62
     7
100
AcDbLine
 10
127.437008
 20
243.725966
 11
132.437008
 21
246.612761
  0
LINE
  5
2EB
100
AcDbEntity
  8
M1
  6
CONTINUOUS
370
25
 62
     7
100
AcDbLine
 10
132.437008
 20
246.612761
 11
132.437008
 21
252.38626
  0
LINE
  5
2EC
100
AcDbEntity
  8
M1
  6
CONTINUOUS
370
25
 62
     7
100
AcDbLine
 10
201.915218
 20
298.272963
 11
196.915218
 21
295.38626
  0
LINE
  5
2ED
100
AcDbEntity
  8
M1
  6
CONTINUOUS
370
25
 62
     7
100
AcDbLine
 10
196.915218
 20
295.38626
 11
196.915218
 21
289.612761
  0
LINE
  5
2EE
100
AcDbEntity
  8
M1
  6
CONTINUOUS
370
25
 62
     7
100
AcDbLine
 10
196.915218
 20
289.612761
 11
201.915218
 21
286.725966
  0
LINE
  5
2EF
100
AcDbEntity
  8
M1
  6
CONTINUOUS
370
25
 62
     7
100
AcDbLine
 10
201.915218
 20
286.725966
 11
206.915218
 21
289.612761
  0
LINE
  5
2F0
100
AcDbEntity
  8
M1
  6
CONTINUOUS
370
25
 62
     7
100
AcDbLine
 10
206.915218
 20
289.612761
 11
206.915218
 21
295.38626
  0
LINE
  5
2F1
100
AcDbEntity
  8
M1
  6
CONTINUOUS
370
25
 62
     7
100
AcDbLine
 10
206.915218
 20
295.38626
 11
201.915218
 21
298.272963
  0
LINE
  5
2F2
100
AcDbEntity
  8
M1
  6
CONTINUOUS
370
25
 62
     7
100
AcDbLine
 10
196.915218
 20
381.386275
 11
196.915218
 21
375.612776
  0
LINE
  5
2F3
100
AcDbEntity
  8
M1
  6
CONTINUOUS
370
25
 62
     7
100
AcDbLine
 10
196.915218
 20
375.612776
 11
201.915218
 21
372.725966
  0
LINE
  5
2F4
100
AcDbEntity
  8
M1
  6
CONTINUOUS
370
25
 62
     7
100
AcDbLine
 10
201.915218
 20
372.725966
 11
206.915218
 21
375.612776
  0
LINE
  5
2F5
100
AcDbEntity
  8
M1
  6
CONTINUOUS
370
25
 62
     7
100
AcDbLine
 10
206.915218
 20
375.612776
 11
206.915218
 21
381.386275
  0
LINE
  5
2F6
100
AcDbEntity
  8
M1
  6
CONTINUOUS
370
25
 62
     7
100
AcDbLine
 10
206.915218
 20
381.386275
 11
201.915218
 21
384.272963
  0
LINE
  5
2F7
100
AcDbEntity
  8
M1
  6
CONTINUOUS
370
25
 62
     7
100
AcDbLine
 10
201.915218
 20
384.272963
 11
196.915218
 21
381.386275
  0
LINE
  5
2F8
100
AcDbEntity
  8
M1
  6
CONTINUOUS
370
25
 62
     7
100
AcDbLine
 10
364.594513
 20
424.499465
 11
368.22293
 21
424.499465
  0
LINE
  5
2F9
100
AcDbEntity
  8
M1
  6
CONTINUOUS
370
25
 62
     7
100
AcDbLine
 10
368.22293
 20
418.499465
 11
364.594513
 21
418.499465
  0
LINE
  5
2FA
100
AcDbEntity
  8
M1
  6
CONTINUOUS
370
25
 62
     7
100
AcDbLine
 10
368.22293
 20
375.499465
 11
364.594513
 21
375.499465
  0
LINE
  5
2FB
100
AcDbEntity
  8
M1
  6
CONTINUOUS
370
25
 62
     7
100
AcDbLine
 10
364.594513
 20
381.499465
 11
368.22293
 21
381.499465
  0
LINE
  5
2FC
100
AcDbEntity
  8
M1
  6
CONTINUOUS
370
25
 62
     7
100
AcDbLine
 10
364.594513
 20
289.499465
 11
368.22293
 21
289.499465
  0
LINE
  5
2FD
100
AcDbEntity
  8
M1
  6
CONTINUOUS
370
25
 62
     7
100
AcDbLine
 10
368.22293
 20
295.499465
 11
364.594513
 21
295.499465
  0
LINE
  5
2FE
100
AcDbEntity
  8
M1
  6
CONTINUOUS
370
25
 62
     7
100
AcDbLine
 10
368.22293
 20
252.499465
 11
364.594513
 21
252.499465
  0
LINE
  5
2FF
100
AcDbEntity
  8
M1
  6
CONTINUOUS
370
25
 62
     7
100
AcDbLine
 10
364.594513
 20
246.499465
 11
368.22293
 21
246.499465
  0
LINE
  5
300
100
AcDbEntity
  8
M1
  6
CONTINUOUS
370
25
 62
     7
100
AcDbLine
 10
463.851318
 20
246.499465
 11
460.22293
 21
246.499465
  0
LINE
  5
301
100
AcDbEntity
  8
M1
  6
CONTINUOUS
370
25
 62
     7
100
AcDbLine
 10
460.22293
 20
252.499465
 11
463.851318
 21
252.499465
  0
LINE
  5
302
100
AcDbEntity
  8
M1
  6
CONTINUOUS
370
25
 62
     7
100
AcDbLine
 10
460.22293
 20
295.499465
 11
463.851318
 21
295.499465
  0
LINE
  5
303
100
AcDbEntity
  8
M1
  6
CONTINUOUS
370
25
 62
     7
100
AcDbLine
 10
463.851318
 20
289.499465
 11
460.22293
 21
289.499465
  0
LINE
  5
304
100
AcDbEntity
  8
M1
  6
CONTINUOUS
370
25
 62
     7
100
AcDbLine
 10
463.851318
 20
381.499465
 11
460.22293
 21
381.499465
  0
LINE
  5
305
100
AcDbEntity
  8
M1
  6
CONTINUOUS
370
25
 62
     7
100
AcDbLine
 10
460.22293
 20
375.499465
 11
463.851318
 21
375.499465
  0
LINE
  5
306
100
AcDbEntity
  8
M1
  6
CONTINUOUS
370
25
 62
     7
100
AcDbLine
 10
460.22293
 20
418.499465
 11
463.851318
 21
418.499465
  0
LINE
  5
307
100
AcDbEntity
  8
M1
  6
CONTINUOUS
370
25
 62
     7
100
AcDbLine
 10
463.851318
 20
424.499465
 11
460.22293
 21
424.499465
  0
LINE
  5
308
100
AcDbEntity
  8
M1
  6
CONTINUOUS
370
25
 62
     7
100
AcDbLine
 10
631.13906
 20
381.386275
 11
631.13906
 21
375.612776
  0
LINE
  5
309
100
AcDbEntity
  8
M1
  6
CONTINUOUS
370
25
 62
     7
100
AcDbLine
 10
631.13906
 20
375.612776
 11
626.13906
 21
372.725966
  0
LINE
  5
30A
100
AcDbEntity
  8
M1
  6
CONTINUOUS
370
25
 62
     7
100
AcDbLine
 10
626.13906
 20
372.725966
 11
621.13906
 21
375.612776
  0
LINE
  5
30B
100
AcDbEntity
  8
M1
  6
CONTINUOUS
370
25
 62
     7
100
AcDbLine
 10
621.13906
 20
375.612776
 11
621.13906
 21
381.386275
  0
LINE
  5
30C
100
AcDbEntity
  8
M1
  6
CONTINUOUS
370
25
 62
     7
100
AcDbLine
 10
621.13906
 20
381.386275
 11
626.13906
 21
384.272963
  0
LINE
  5
30D
100
AcDbEntity
  8
M1
  6
CONTINUOUS
370
25
 62
     7
100
AcDbLine
 10
626.13906
 20
384.272963
 11
631.13906
 21
381.386275
  0
LINE
  5
30E
100
AcDbEntity
  8
M1
  6
CONTINUOUS
370
25
 62
     7
100
AcDbLine
 10
626.13906
 20
298.272963
 11
631.13906
 21
295.38626
  0
LINE
  5
30F
100
AcDbEntity
  8
M1
  6
CONTINUOUS
370
25
 62
     7
100
AcDbLine
 10
631.13906
 20
295.38626
 11
631.13906
 21
289.612761
  0
LINE
  5
310
100
AcDbEntity
  8
M1
  6
CONTINUOUS
370
25
 62
     7
100
AcDbLine
 10
631.13906
 20
289.612761
 11
626.13906
 21
286.725966
  0
LINE
  5
311
100
AcDbEntity
  8
M1
  6
CONTINUOUS
370
25
 62
     7
100
AcDbLine
 10
626.13906
 20
286.725966
 11
621.13906
 21
289.612761
  0
LINE
  5
312
100
AcDbEntity
  8
M1
  6
CONTINUOUS
370
25
 62
     7
100
AcDbLine
 10
621.13906
 20
289.612761
 11
621.13906
 21
295.38626
  0
LINE
  5
313
100
AcDbEntity
  8
M1
  6
CONTINUOUS
370
25
 62
     7
100
AcDbLine
 10
621.13906
 20
295.38626
 11
626.13906
 21
298.272963
  0
LINE
  5
314
100
AcDbEntity
  8
M1
  6
CONTINUOUS
370
25
 62
     7
100
AcDbLine
 10
695.617256
 20
252.38626
 11
700.617256
 21
255.272963
  0
LINE
  5
315
100
AcDbEntity
  8
M1
  6
CONTINUOUS
370
25
 62
     7
100
AcDbLine
 10
700.617256
 20
255.272963
 11
705.617256
 21
252.38626
  0
LINE
  5
316
100
AcDbEntity
  8
M1
  6
CONTINUOUS
370
25
 62
     7
100
AcDbLine
 10
705.617256
 20
252.38626
 11
705.617256
 21
246.612761
  0
LINE
  5
317
100
AcDbEntity
  8
M1
  6
CONTINUOUS
370
25
 62
     7
100
AcDbLine
 10
705.617256
 20
246.612761
 11
700.617256
 21
243.725966
  0
LINE
  5
318
100
AcDbEntity
  8
M1
  6
CONTINUOUS
370
25
 62
     7
100
AcDbLine
 10
700.617256
 20
243.725966
 11
695.617256
 21
246.612761
  0
LINE
  5
319
100
AcDbEntity
  8
M1
  6
CONTINUOUS
370
25
 62
     7
100
AcDbLine
 10
695.617256
 20
246.612761
 11
695.617256
 21
252.38626
  0
LINE
  5
31A
100
AcDbEntity
  8
M1
  6
CONTINUOUS
370
25
 62
     7
100
AcDbLine
 10
770.095397
 20
289.612761
 11
770.095397
 21
295.38626
  0
LINE
  5
31B
100
AcDbEntity
  8
M1
  6
CONTINUOUS
370
25
 62
     7
100
AcDbLine
 10
770.095397
 20
295.38626
 11
775.095394
 21
298.272963
  0
LINE
  5
31C
100
AcDbEntity
  8
M1
  6
CONTINUOUS
370
25
 62
     7
100
AcDbLine
 10
775.095394
 20
298.272963
 11
780.095394
 21
295.38626
  0
LINE
  5
31D
100
AcDbEntity
  8
M1
  6
CONTINUOUS
370
25
 62
     7
100
AcDbLine
 10
780.095394
 20
295.38626
 11
780.095394
 21
289.612761
  0
LINE
  5
31E
100
AcDbEntity
  8
M1
  6
CONTINUOUS
370
25
 62
     7
100
AcDbLine
 10
780.095394
 20
289.612761
 11
775.095394
 21
286.725966
  0
LINE
  5
31F
100
AcDbEntity
  8
M1
  6
CONTINUOUS
370
25
 62
     7
100
AcDbLine
 10
775.095394
 20
286.725966
 11
770.095397
 21
289.612761
  0
LINE
  5
320
100
AcDbEntity
  8
M1
  6
CONTINUOUS
370
25
 62
     7
100
AcDbLine
 10
775.095394
 20
372.725966
 11
770.095397
 21
375.612776
  0
LINE
  5
321
100
AcDbEntity
  8
M1
  6
CONTINUOUS
370
25
 62
     7
100
AcDbLine
 10
770.095397
 20
375.612776
 11
770.095397
 21
381.386275
  0
LINE
  5
322
100
AcDbEntity
  8
M1
  6
CONTINUOUS
370
25
 62
     7
100
AcDbLine
 10
770.095397
 20
381.386275
 11
775.095394
 21
384.272963
  0
LINE
  5
323
100
AcDbEntity
  8
M1
  6
CONTINUOUS
370
25
 62
     7
100
AcDbLine
 10
775.095394
 20
384.272963
 11
780.095394
 21
381.386275
  0
LINE
  5
324
100
AcDbEntity
  8
M1
  6
CONTINUOUS
370
25
 62
     7
100
AcDbLine
 10
780.095394
 20
381.386275
 11
780.095394
 21
375.612776
  0
LINE
  5
325
100
AcDbEntity
  8
M1
  6
CONTINUOUS
370
25
 62
     7
100
AcDbLine
 10
780.095394
 20
375.612776
 11
775.095394
 21
372.725966
  0
LINE
  5
326
100
AcDbEntity
  8
M1
  6
CONTINUOUS
370
25
 62
     7
100
AcDbLine
 10
705.617256
 20
418.612776
 11
700.617256
 21
415.725966
  0
LINE
  5
327
100
AcDbEntity
  8
M1
  6
CONTINUOUS
370
25
 62
     7
100
AcDbLine
 10
700.617256
 20
415.725966
 11
695.617256
 21
418.612776
  0
LINE
  5
328
100
AcDbEntity
  8
M1
  6
CONTINUOUS
370
25
 62
     7
100
AcDbLine
 10
695.617256
 20
418.612776
 11
695.617256
 21
424.386275
  0
LINE
  5
329
100
AcDbEntity
  8
M1
  6
CONTINUOUS
370
25
 62
     7
100
AcDbLine
 10
695.617256
 20
424.386275
 11
700.617256
 21
427.272963
  0
LINE
  5
32A
100
AcDbEntity
  8
M1
  6
CONTINUOUS
370
25
 62
     7
100
AcDbLine
 10
700.617256
 20
427.272963
 11
705.617256
 21
424.386275
  0
LINE
  5
32B
100
AcDbEntity
  8
M1
  6
CONTINUOUS
370
25
 62
     7
100
AcDbLine
 10
705.617256
 20
424.386275
 11
705.617256
 21
418.612776
  0
TEXT
  5
32C
100
AcDbEntity
  8
M1
 62
     7
100
AcDbText
 10
753.781006
 20
123.77787
 40
9.0
  1
ＰＯＣ－５
 41
0.833333
  7
STANDARD
100
AcDbText
  0
TEXT
  5
32D
100
AcDbEntity
  8
M1
 62
     7
100
AcDbText
 10
113.146744
 20
165.497971
 40
9.0
  1
Ｄ１
 41
0.833333
  7
STANDARD
100
AcDbText
  0
TEXT
  5
32E
100
AcDbEntity
  8
M1
 62
     7
100
AcDbText
 10
407.738007
 20
166.833267
 40
9.0
  1
Ｄ２
 41
0.833333
  7
STANDARD
100
AcDbText
  0
TEXT
  5
32F
100
AcDbEntity
  8
M1
 62
     7
100
AcDbText
 10
700.63623
 20
174.845169
 40
9.0
  1
Ｄ３
 41
0.833333
  7
STANDARD
100
AcDbText
  0
TEXT
  5
330
100
AcDbEntity
  8
M1
 62
     7
100
AcDbText
 10
726.400269
 20
107.111259
 40
9.0
  1
（ＳＤＫ６０２５）
 41
0.833333
  7
STANDARD
100
AcDbText
  0
ARC
  5
331
100
AcDbEntity
  8
M1
  6
CONTINUOUS
370
25
 62
     7
100
AcDbCircle
 10
129.067835
 20
335.492214
 40
16.30827
100
AcDbArc
 50
220.750103
 51
499.249897
  0
ARC
  5
332
100
AcDbEntity
  8
M1
  6
CONTINUOUS
370
25
 62
     7
100
AcDbCircle
 10
115.259803
 20
347.390019
 40
1.91862
100
AcDbArc
 50
285.0
 51
319.249897
  0
LINE
  5
333
100
AcDbEntity
  8
M1
  6
CONTINUOUS
370
25
 62
     7
100
AcDbLine
 10
115.756378
 20
345.536774
 11
110.123259
 21
344.027384
  0
ARC
  5
334
100
AcDbEntity
  8
M1
  6
CONTINUOUS
370
25
 62
     7
100
AcDbCircle
 10
110.619834
 20
342.17414
 40
1.91862
100
AcDbArc
 50
105.0
 51
180.0
  0
LINE
  5
335
100
AcDbEntity
  8
M1
  6
CONTINUOUS
370
25
 62
     7
100
AcDbLine
 10
108.701214
 20
337.123041
 11
108.701214
 21
342.17414
  0
LINE
  5
336
100
AcDbEntity
  8
M1
  6
CONTINUOUS
370
25
 62
     7
100
AcDbLine
 10
108.701214
 20
337.123041
 11
115.042896
 21
337.123041
  0
CIRCLE
  5
337
100
AcDbEntity
  8
M1
  6
CONTINUOUS
370
25
 62
     7
100
AcDbCircle
 10
113.201119
 20
340.745887
 40
1.630827
  0
LINE
  5
338
100
AcDbEntity
  8
M1
  6
CONTINUOUS
370
25
 62
     7
100
AcDbLine
 10
108.701214
 20
333.861387
 11
115.044805
 21
333.861387
  0
CIRCLE
  5
339
100
AcDbEntity
  8
M1
  6
CONTINUOUS
370
25
 62
     7
100
AcDbCircle
 10
113.201119
 20
330.238541
 40
1.630827
  0
LINE
  5
33A
100
AcDbEntity
  8
M1
  6
CONTINUOUS
370
25
 62
     7
100
AcDbLine
 10
108.701214
 20
328.810288
 11
108.701214
 21
333.861387
  0
ARC
  5
33B
100
AcDbEntity
  8
M1
  6
CONTINUOUS
370
25
 62
     7
100
AcDbCircle
 10
110.619834
 20
328.810288
 40
1.91862
100
AcDbArc
 50
180.0
 51
255.0
  0
LINE
  5
33C
100
AcDbEntity
  8
M1
  6
CONTINUOUS
370
25
 62
     7
100
AcDbLine
 10
115.756378
 20
325.447653
 11
110.123259
 21
326.957043
  0
ARC
  5
33D
100
AcDbEntity
  8
M1
  6
CONTINUOUS
370
25
 62
     7
100
AcDbCircle
 10
115.259803
 20
323.594409
 40
1.91862
100
AcDbArc
 50
40.750103
 51
75.0
  0
ARC
  5
33E
100
AcDbEntity
  8
M1
  6
CONTINUOUS
370
25
 62
     7
100
AcDbCircle
 10
698.986429
 20
335.492214
 40
16.30827
100
AcDbArc
 50
40.750103
 51
319.249897
  0
ARC
  5
33F
100
AcDbEntity
  8
M1
  6
CONTINUOUS
370
25
 62
     7
100
AcDbCircle
 10
712.794461
 20
347.390019
 40
1.91862
100
AcDbArc
 50
220.750103
 51
255.0
  0
LINE
  5
340
100
AcDbEntity
  8
M1
  6
CONTINUOUS
370
25
 62
     7
100
AcDbLine
 10
712.297886
 20
345.536774
 11
717.931004
 21
344.027384
  0
ARC
  5
341
100
AcDbEntity
  8
M1
  6
CONTINUOUS
370
25
 62
     7
100
AcDbCircle
 10
717.434429
 20
342.17414
 40
1.91862
100
AcDbArc
 50
0.0
 51
75.0
  0
LINE
  5
342
100
AcDbEntity
  8
M1
  6
CONTINUOUS
370
25
 62
     7
100
AcDbLine
 10
719.353049
 20
337.123041
 11
719.353049
 21
342.17414
  0
LINE
  5
343
100
AcDbEntity
  8
M1
  6
CONTINUOUS
370
25
 62
     7
100
AcDbLine
 10
719.353049
 20
337.123041
 11
713.011367
 21
337.123041
  0
CIRCLE
  5
344
100
AcDbEntity
  8
M1
  6
CONTINUOUS
370
25
 62
     7
100
AcDbCircle
 10
714.853144
 20
340.745887
 40
1.630827
  0
LINE
  5
345
100
AcDbEntity
  8
M1
  6
CONTINUOUS
370
25
 62
     7
100
AcDbLine
 10
719.353049
 20
333.861387
 11
713.009459
 21
333.861387
  0
CIRCLE
  5
346
100
AcDbEntity
  8
M1
  6
CONTINUOUS
370
25
 62
     7
100
AcDbCircle
 10
714.853144
 20
330.238541
 40
1.630827
  0
LINE
  5
347
100
AcDbEntity
  8
M1
  6
CONTINUOUS
370
25
 62
     7
100
AcDbLine
 10
719.353049
 20
328.810288
 11
719.353049
 21
333.861387
  0
ARC
  5
348
100
AcDbEntity
  8
M1
  6
CONTINUOUS
370
25
 62
     7
100
AcDbCircle
 10
717.434429
 20
328.810288
 40
1.91862
100
AcDbArc
 50
285.0
 51
360.0
  0
LINE
  5
349
100
AcDbEntity
  8
M1
  6
CONTINUOUS
370
25
 62
     7
100
AcDbLine
 10
712.297886
 20
325.447653
 11
717.931004
 21
326.957043
  0
ARC
  5
34A
100
AcDbEntity
  8
M1
  6
CONTINUOUS
370
25
 62
     7
100
AcDbCircle
 10
712.794461
 20
323.594409
 40
1.91862
100
AcDbArc
 50
105.0
 51
139.249897
  0
LINE
  5
34B
100
AcDbEntity
  8
M1
  6
CONTINUOUS
370
25
 62
     7
100
AcDbLine
 10
499.22293
 20
350.499465
 11
491.22293
 21
350.499465
  0
LINE
  5
34C
100
AcDbEntity
  8
M1
  6
CONTINUOUS
370
25
 62
     7
100
AcDbLine
 10
491.22293
 20
354.599465
 11
489.72293
 21
354.599465
  0
LINE
  5
34D
100
AcDbEntity
  8
M1
  6
CONTINUOUS
370
25
 62
     7
100
AcDbLine
 10
491.22293
 20
354.599465
 11
491.22293
 21
316.399465
  0
LINE
  5
34E
100
AcDbEntity
  8
M1
  6
CONTINUOUS
370
25
 62
     7
100
AcDbLine
 10
499.22293
 20
320.499465
 11
491.22293
 21
320.499465
  0
LINE
  5
34F
100
AcDbEntity
  8
M1
  6
CONTINUOUS
370
25
 62
     7
100
AcDbLine
 10
491.22293
 20
316.399465
 11
489.72293
 21
316.399465
  0
LINE
  5
350
100
AcDbEntity
  8
M1
  6
CONTINUOUS
370
25
 62
     7
100
AcDbLine
 10
337.22293
 20
354.599465
 11
338.72293
 21
354.599465
  0
LINE
  5
351
100
AcDbEntity
  8
M1
  6
CONTINUOUS
370
25
 62
     7
100
AcDbLine
 10
337.22293
 20
354.599465
 11
337.22293
 21
316.399465
  0
LINE
  5
352
100
AcDbEntity
  8
M1
  6
CONTINUOUS
370
25
 62
     7
100
AcDbLine
 10
329.22293
 20
350.499465
 11
337.22293
 21
350.499465
  0
LINE
  5
353
100
AcDbEntity
  8
M1
  6
CONTINUOUS
370
25
 62
     7
100
AcDbLine
 10
329.22293
 20
320.499465
 11
337.22293
 21
320.499465
  0
LINE
  5
354
100
AcDbEntity
  8
M1
  6
CONTINUOUS
370
25
 62
     7
100
AcDbLine
 10
337.22293
 20
316.399465
 11
338.72293
 21
316.399465
  0
LINE
  5
355
100
AcDbEntity
  8
M1
  6
CONTINUOUS
370
25
100
AcDbLine
 10
415.722934
 20
446.599904
 11
415.722934
 21
448.199758
  0
LINE
  5
356
100
AcDbEntity
  8
M1
  6
CONTINUOUS
370
25
100
AcDbLine
 10
415.722934
 20
448.199758
 11
398.722934
 21
448.199758
  0
LINE
  5
357
100
AcDbEntity
  8
M1
  6
CONTINUOUS
370
25
100
AcDbLine
 10
398.722934
 20
448.199758
 11
398.722934
 21
446.599904
  0
LINE
  5
358
100
AcDbEntity
  8
M1
  6
CONTINUOUS
370
25
100
AcDbLine
 10
398.722934
 20
446.599904
 11
415.722934
 21
446.599904
  0
LINE
  5
359
100
AcDbEntity
  8
M1
  6
CONTINUOUS
370
25
100
AcDbLine
 10
415.722934
 20
445.000051
 11
415.722934
 21
446.599904
  0
LINE
  5
35A
100
AcDbEntity
  8
M1
  6
CONTINUOUS
370
25
100
AcDbLine
 10
415.722934
 20
446.599904
 11
398.722934
 21
446.599904
  0
LINE
  5
35B
100
AcDbEntity
  8
M1
  6
CONTINUOUS
370
25
100
AcDbLine
 10
398.722934
 20
446.599904
 11
398.722934
 21
445.000051
  0
LINE
  5
35C
100
AcDbEntity
  8
M1
  6
CONTINUOUS
370
25
100
AcDbLine
 10
415.722934
 20
448.199758
 11
415.722934
 21
449.799611
  0
LINE
  5
35D
100
AcDbEntity
  8
M1
  6
CONTINUOUS
370
25
100
AcDbLine
 10
415.722934
 20
449.799611
 11
398.722934
 21
449.799611
  0
LINE
  5
35E
100
AcDbEntity
  8
M1
  6
CONTINUOUS
370
25
100
AcDbLine
 10
398.722934
 20
449.799611
 11
398.722934
 21
448.199758
  0
LINE
  5
35F
100
AcDbEntity
  8
M1
  6
CONTINUOUS
370
25
100
AcDbLine
 10
398.722934
 20
448.199758
 11
415.722934
 21
448.199758
  0
LINE
  5
360
100
AcDbEntity
  8
M1
  6
CONTINUOUS
370
25
100
AcDbLine
 10
415.722935
 20
449.799611
 11
415.722935
 21
451.399465
  0
LINE
  5
361
100
AcDbEntity
  8
M1
  6
CONTINUOUS
370
25
100
AcDbLine
 10
415.722935
 20
451.399465
 11
398.722935
 21
451.399465
  0
LINE
  5
362
100
AcDbEntity
  8
M1
  6
CONTINUOUS
370
25
100
AcDbLine
 10
398.722935
 20
451.399465
 11
398.722935
 21
449.799611
  0
LINE
  5
363
100
AcDbEntity
  8
M1
  6
CONTINUOUS
370
25
100
AcDbLine
 10
398.722935
 20
449.799611
 11
415.722935
 21
449.799611
  0
ARC
  5
364
100
AcDbEntity
  8
M1
  6
CONTINUOUS
370
25
100
AcDbCircle
 10
407.222945
 20
468.399465
 40
16.299988
100
AcDbArc
 50
301.163318
 51
598.836084
  0
CIRCLE
  5
365
100
AcDbEntity
  8
M1
  6
CONTINUOUS
370
25
100
AcDbCircle
 10
407.222945
 20
468.399465
 40
10.0
  0
LINE
  5
366
100
AcDbEntity
  8
M1
  6
CONTINUOUS
370
25
100
AcDbLine
 10
399.22293
 20
451.399465
 11
403.222945
 21
451.399465
  0
LINE
  5
367
100
AcDbEntity
  8
M1
  6
CONTINUOUS
370
25
100
AcDbLine
 10
400.370605
 20
456.399465
 11
414.074904
 21
456.399465
  0
LINE
  5
368
100
AcDbEntity
  8
M1
  6
CONTINUOUS
370
25
100
AcDbLine
 10
415.222915
 20
451.399465
 11
414.450118
 21
455.780462
  0
LINE
  5
369
100
AcDbEntity
  8
M1
  6
CONTINUOUS
370
25
100
AcDbLine
 10
399.22293
 20
451.399465
 11
399.995406
 21
455.780401
  0
LINE
  5
36A
100
AcDbEntity
  8
M1
  6
CONTINUOUS
370
25
100
AcDbLine
 10
400.709716
 20
456.569478
 11
407.222945
 21
458.399465
  0
LINE
  5
36B
100
AcDbEntity
  8
M1
  6
CONTINUOUS
370
25
100
AcDbLine
 10
413.735808
 20
456.569478
 11
407.222945
 21
458.399465
  0
LINE
  5
36C
100
AcDbEntity
  8
M1
  6
CONTINUOUS
370
25
100
AcDbLine
 10
403.222945
 20
451.399465
 11
411.222945
 21
451.399465
  0
LINE
  5
36D
100
AcDbEntity
  8
M1
  6
CONTINUOUS
370
25
100
AcDbLine
 10
411.222945
 20
451.399465
 11
415.222915
 21
451.399465
  0
ARC
  5
36E
100
AcDbEntity
  8
M1
  6
CONTINUOUS
370
25
100
AcDbCircle
 10
400.980208
 20
455.606756
 40
1.0
100
AcDbArc
 50
105.693568
 51
170.000123
  0
ARC
  5
36F
100
AcDbEntity
  8
M1
  6
CONTINUOUS
370
25
100
AcDbCircle
 10
413.465316
 20
455.606756
 40
1.0
100
AcDbArc
 50
10.003321
 51
74.306432
  0
ARC
  5
370
100
AcDbEntity
  8
M1
  6
CONTINUOUS
370
25
100
AcDbCircle
 10
398.011657
 20
453.168172
 40
1.5
100
AcDbArc
 50
349.999549
 51
418.835928
  0
ARC
  5
371
100
AcDbEntity
  8
M1
  6
CONTINUOUS
370
25
100
AcDbCircle
 10
416.434081
 20
453.168096
 40
1.5
100
AcDbArc
 50
121.16377
 51
190.003996
  0
LINE
  5
372
100
AcDbEntity
  8
M1
  6
CONTINUOUS
370
25
100
AcDbLine
 10
135.937008
 20
448.199758
 11
135.937008
 21
449.799611
  0
LINE
  5
373
100
AcDbEntity
  8
M1
  6
CONTINUOUS
370
25
100
AcDbLine
 10
135.937008
 20
449.799611
 11
118.937008
 21
449.799611
  0
LINE
  5
374
100
AcDbEntity
  8
M1
  6
CONTINUOUS
370
25
100
AcDbLine
 10
118.937008
 20
449.799611
 11
118.937008
 21
448.199758
  0
LINE
  5
375
100
AcDbEntity
  8
M1
  6
CONTINUOUS
370
25
100
AcDbLine
 10
118.937008
 20
448.199758
 11
135.937008
 21
448.199758
  0
LINE
  5
376
100
AcDbEntity
  8
M1
  6
CONTINUOUS
370
25
100
AcDbLine
 10
135.937008
 20
449.799611
 11
135.937008
 21
451.399465
  0
LINE
  5
377
100
AcDbEntity
  8
M1
  6
CONTINUOUS
370
25
100
AcDbLine
 10
135.937008
 20
451.399465
 11
118.937008
 21
451.399465
  0
LINE
  5
378
100
AcDbEntity
  8
M1
  6
CONTINUOUS
370
25
100
AcDbLine
 10
118.937008
 20
451.399465
 11
118.937008
 21
449.799611
  0
LINE
  5
379
100
AcDbEntity
  8
M1
  6
CONTINUOUS
370
25
100
AcDbLine
 10
118.937008
 20
449.799611
 11
135.937008
 21
449.799611
  0
LINE
  5
37A
100
AcDbEntity
  8
M1
  6
CONTINUOUS
370
25
100
AcDbLine
 10
130.587017
 20
455.457692
 11
130.587017
 21
481.549428
  0
LINE
  5
37B
100
AcDbEntity
  8
M1
  6
CONTINUOUS
370
25
100
AcDbLine
 10
124.287014
 20
481.549428
 11
124.287014
 21
455.457692
  0
ARC
  5
37C
100
AcDbEntity
  8
M1
  6
CONTINUOUS
370
25
100
AcDbCircle
 10
127.437008
 20
481.549428
 40
3.15
100
AcDbArc
 50
0.0
 51
180.0
  0
ARC
  5
37D
100
AcDbEntity
  8
M1
  6
DASHED
370
13
100
AcDbCircle
 10
127.437008
 20
481.549428
 40
3.15
100
AcDbArc
 50
180.0
 51
360.0
  0
LINE
  5
37E
100
AcDbEntity
  8
M1
  6
CONTINUOUS
370
25
100
AcDbLine
 10
119.437023
 20
451.399465
 11
135.437023
 21
451.399465
  0
ARC
  5
37F
100
AcDbEntity
  8
M1
  6
CONTINUOUS
370
25
100
AcDbCircle
 10
123.027004
 20
455.457692
 40
1.259999
100
AcDbArc
 50
270.0
 51
360.0
  0
ARC
  5
380
100
AcDbEntity
  8
M1
  6
CONTINUOUS
370
25
100
AcDbCircle
 10
131.847012
 20
455.457692
 40
1.259999
100
AcDbArc
 50
180.0
 51
270.0
  0
LINE
  5
381
100
AcDbEntity
  8
M1
  6
CONTINUOUS
370
25
100
AcDbLine
 10
135.436993
 20
451.399465
 11
134.664532
 21
455.780385
  0
LINE
  5
382
100
AcDbEntity
  8
M1
  6
CONTINUOUS
370
25
100
AcDbLine
 10
119.437008
 20
451.399465
 11
120.209499
 21
455.780416
  0
LINE
  5
383
100
AcDbEntity
  8
M1
  6
CONTINUOUS
370
25
100
AcDbLine
 10
120.923809
 20
456.569478
 11
124.287014
 21
457.514409
  0
LINE
  5
384
100
AcDbEntity
  8
M1
  6
CONTINUOUS
370
25
100
AcDbLine
 10
133.950207
 20
456.569478
 11
130.587017
 21
457.514409
  0
ARC
  5
385
100
AcDbEntity
  8
M1
  6
CONTINUOUS
370
25
100
AcDbCircle
 10
121.194302
 20
455.606771
 40
1.0
100
AcDbArc
 50
105.693804
 51
170.000123
  0
ARC
  5
386
100
AcDbEntity
  8
M1
  6
CONTINUOUS
370
25
100
AcDbCircle
 10
133.679714
 20
455.60674
 40
1.0
100
AcDbArc
 50
9.999725
 51
74.306669
  0
LINE
  5
387
100
AcDbEntity
  8
M1
  6
DASHED
370
13
100
AcDbLine
 10
124.287014
 20
457.514409
 11
127.437008
 21
458.399465
  0
LINE
  5
388
100
AcDbEntity
  8
M1
  6
DASHED
370
13
100
AcDbLine
 10
130.587017
 20
457.514409
 11
127.437008
 21
458.399465
  0
LINE
  5
389
100
AcDbEntity
  8
M1
  6
CONTINUOUS
370
25
100
AcDbLine
 10
135.937008
 20
446.599904
 11
135.937008
 21
448.199758
  0
LINE
  5
38A
100
AcDbEntity
  8
M1
  6
CONTINUOUS
370
25
100
AcDbLine
 10
135.937008
 20
448.199758
 11
118.937008
 21
448.199758
  0
LINE
  5
38B
100
AcDbEntity
  8
M1
  6
CONTINUOUS
370
25
100
AcDbLine
 10
118.937008
 20
448.199758
 11
118.937008
 21
446.599904
  0
LINE
  5
38C
100
AcDbEntity
  8
M1
  6
CONTINUOUS
370
25
100
AcDbLine
 10
118.937008
 20
446.599904
 11
135.937008
 21
446.599904
  0
LINE
  5
38D
100
AcDbEntity
  8
M1
  6
CONTINUOUS
370
25
100
AcDbLine
 10
135.937008
 20
445.000051
 11
135.937008
 21
446.599904
  0
LINE
  5
38E
100
AcDbEntity
  8
M1
  6
CONTINUOUS
370
25
100
AcDbLine
 10
135.937008
 20
446.599904
 11
118.937008
 21
446.599904
  0
LINE
  5
38F
100
AcDbEntity
  8
M1
  6
CONTINUOUS
370
25
100
AcDbLine
 10
118.937008
 20
446.599904
 11
118.937008
 21
445.000051
  0
LINE
  5
390
100
AcDbEntity
  8
M1
  6
CONTINUOUS
370
25
100
AcDbLine
 10
118.937008
 20
445.000051
 11
135.937008
 21
445.000051
  0
LINE
  5
391
100
AcDbEntity
  8
M1
  6
CONTINUOUS
370
25
100
AcDbLine
 10
709.117256
 20
448.199803
 11
709.117256
 21
449.799657
  0
LINE
  5
392
100
AcDbEntity
  8
M1
  6
CONTINUOUS
370
25
100
AcDbLine
 10
709.117256
 20
449.799657
 11
692.117256
 21
449.799657
  0
LINE
  5
393
100
AcDbEntity
  8
M1
  6
CONTINUOUS
370
25
100
AcDbLine
 10
692.117256
 20
449.799657
 11
692.117256
 21
448.199803
  0
LINE
  5
394
100
AcDbEntity
  8
M1
  6
CONTINUOUS
370
25
100
AcDbLine
 10
692.117256
 20
448.199803
 11
709.117256
 21
448.199803
  0
LINE
  5
395
100
AcDbEntity
  8
M1
  6
CONTINUOUS
370
25
100
AcDbLine
 10
703.767265
 20
455.457738
 11
703.767265
 21
481.549474
  0
LINE
  5
396
100
AcDbEntity
  8
M1
  6
CONTINUOUS
370
25
100
AcDbLine
 10
697.467262
 20
481.549474
 11
697.467262
 21
455.457738
  0
ARC
  5
397
100
AcDbEntity
  8
M1
  6
CONTINUOUS
370
25
100
AcDbCircle
 10
700.617256
 20
481.549474
 40
3.15
100
AcDbArc
 50
0.0
 51
180.0
  0
ARC
  5
398
100
AcDbEntity
  8
M1
  6
DASHED
370
13
100
AcDbCircle
 10
700.617256
 20
481.549474
 40
3.15
100
AcDbArc
 50
180.0
 51
360.0
  0
LINE
  5
399
100
AcDbEntity
  8
M1
  6
CONTINUOUS
370
25
100
AcDbLine
 10
692.617271
 20
451.399511
 11
708.617271
 21
451.399511
  0
ARC
  5
39A
100
AcDbEntity
  8
M1
  6
CONTINUOUS
370
25
100
AcDbCircle
 10
696.207252
 20
455.457738
 40
1.259999
100
AcDbArc
 50
270.0
 51
360.0
  0
ARC
  5
39B
100
AcDbEntity
  8
M1
  6
CONTINUOUS
370
25
100
AcDbCircle
 10
705.02726
 20
455.457738
 40
1.259999
100
AcDbArc
 50
180.0
 51
270.0
  0
LINE
  5
39C
100
AcDbEntity
  8
M1
  6
CONTINUOUS
370
25
100
AcDbLine
 10
708.617241
 20
451.399511
 11
707.84478
 21
455.780431
  0
LINE
  5
39D
100
AcDbEntity
  8
M1
  6
CONTINUOUS
370
25
100
AcDbLine
 10
692.617256
 20
451.399511
 11
693.389747
 21
455.780461
  0
LINE
  5
39E
100
AcDbEntity
  8
M1
  6
CONTINUOUS
370
25
100
AcDbLine
 10
694.104057
 20
456.569524
 11
697.467262
 21
457.514455
  0
LINE
  5
39F
100
AcDbEntity
  8
M1
  6
CONTINUOUS
370
25
100
AcDbLine
 10
707.130455
 20
456.569524
 11
703.767265
 21
457.514455
  0
ARC
  5
3A0
100
AcDbEntity
  8
M1
  6
CONTINUOUS
370
25
100
AcDbCircle
 10
694.37455
 20
455.606816
 40
1.0
100
AcDbArc
 50
105.693804
 51
170.000123
  0
ARC
  5
3A1
100
AcDbEntity
  8
M1
  6
CONTINUOUS
370
25
100
AcDbCircle
 10
706.859962
 20
455.606786
 40
1.0
100
AcDbArc
 50
9.999725
 51
74.306669
  0
LINE
  5
3A2
100
AcDbEntity
  8
M1
  6
DASHED
370
13
100
AcDbLine
 10
697.467262
 20
457.514455
 11
700.617256
 21
458.399511
  0
LINE
  5
3A3
100
AcDbEntity
  8
M1
  6
DASHED
370
13
100
AcDbLine
 10
703.767265
 20
457.514455
 11
700.617256
 21
458.399511
  0
LINE
  5
3A4
100
AcDbEntity
  8
M1
  6
CONTINUOUS
370
25
100
AcDbLine
 10
709.117256
 20
446.59995
 11
709.117256
 21
448.199803
  0
LINE
  5
3A5
100
AcDbEntity
  8
M1
  6
CONTINUOUS
370
25
100
AcDbLine
 10
709.117256
 20
448.199803
 11
692.117256
 21
448.199803
  0
LINE
  5
3A6
100
AcDbEntity
  8
M1
  6
CONTINUOUS
370
25
100
AcDbLine
 10
692.117256
 20
448.199803
 11
692.117256
 21
446.59995
  0
LINE
  5
3A7
100
AcDbEntity
  8
M1
  6
CONTINUOUS
370
25
100
AcDbLine
 10
692.117256
 20
446.59995
 11
709.117256
 21
446.59995
  0
LINE
  5
3A8
100
AcDbEntity
  8
M1
  6
CONTINUOUS
370
25
100
AcDbLine
 10
709.117256
 20
445.000096
 11
709.117256
 21
446.59995
  0
LINE
  5
3A9
100
AcDbEntity
  8
M1
  6
CONTINUOUS
370
25
100
AcDbLine
 10
709.117256
 20
446.59995
 11
692.117256
 21
446.59995
  0
LINE
  5
3AA
100
AcDbEntity
  8
M1
  6
CONTINUOUS
370
25
100
AcDbLine
 10
692.117256
 20
446.59995
 11
692.117256
 21
445.000096
  0
LINE
  5
3AB
100
AcDbEntity
  8
M1
  6
CONTINUOUS
370
25
100
AcDbLine
 10
692.117256
 20
445.000096
 11
709.117256
 21
445.000096
  0
LINE
  5
3AC
100
AcDbEntity
  8
M1
  6
CONTINUOUS
370
25
100
AcDbLine
 10
709.117256
 20
449.799657
 11
709.117256
 21
451.399511
  0
LINE
  5
3AD
100
AcDbEntity
  8
M1
  6
CONTINUOUS
370
25
100
AcDbLine
 10
709.117256
 20
451.399511
 11
692.117256
 21
451.399511
  0
LINE
  5
3AE
100
AcDbEntity
  8
M1
  6
CONTINUOUS
370
25
100
AcDbLine
 10
692.117256
 20
451.399511
 11
692.117256
 21
449.799657
  0
LINE
  5
3AF
100
AcDbEntity
  8
M1
  6
CONTINUOUS
370
25
100
AcDbLine
 10
692.117256
 20
449.799657
 11
709.117256
 21
449.799657
  0
ENDSEC
  0
SECTION
  2
OBJECTS
  0
DICTIONARY
  5
C
100
AcDbDictionary
  3
ACAD_GROUP
350
D
  3
ACAD_MLINESTYLE
350
E
  0
DICTIONARY
  5
D
102
{ACAD_REACTORS
330
C
102
}
100
AcDbDictionary
  0
DICTIONARY
  5
E
102
{ACAD_REACTORS
330
C
102
}
100
AcDbDictionary
  3
STANDARD
350
13
  0
MLINESTYLE
  5
13
102
{ACAD_REACTORS
330
E
102
}
100
AcDbMlineStyle
  2
STANDARD
 70
     0
  3

 62
     0
 51
90.0
 52
90.0
 71
     2
 49
0.5
 62
   256
  6
BYLAYER
 49
-0.5
 62
   256
  6
BYLAYER
  0
ENDSEC
  0
EOF
