  0
SECTION
  2
HEADER
  9
$ACADVER
  1
AC1015
  9
$INSBASE
 10
0.0
 20
0.0
  9
$VIEWCTR
 10
7.531722
 20
4.5
  9
$VIEWSIZE
 40
9.0
  9
$SNAPMODE
 70
     0
  9
$SNAPUNIT
 10
1.0
 20
1.0
  9
$SNAPBASE
 10
0.0
 20
0.0
  9
$SNAPANG
 50
0.0
  9
$SNAPSTYLE
 70
     0
  9
$SNAPISOPAIR
 70
     0
  9
$GRIDMODE
 70
     0
  9
$GRIDUNIT
 10
0.0
 20
0.0
  9
$ORTHOMODE
 70
     0
  9
$REGENMODE
 70
     1
  9
$FILLMODE
 70
     1
  9
$QTEXTMODE
 70
     0
  9
$DRAGMODE
 70
     2
  9
$LTSCALE
 40
1.0
  9
$OSMODE
 70
     0
  9
$ATTMODE
 70
     1
  9
$TEXTSIZE
 40
0.2
  9
$TRACEWID
 40
0.05
  9
$TEXTSTYLE
  7
STANDARD
  9
$CELTYPE
  6
BYLAYER
  9
$CECOLOR
 62
   256
  9
$DIMSCALE
 40
1.0
  9
$DIMASZ
 40
0.18
  9
$DIMEXO
 40
0.0625
  9
$DIMDLI
 40
0.38
  9
$DIMRND
 40
0.0
  9
$DIMDLE
 40
0.0
  9
$DIMEXE
 40
0.18
  9
$DIMTP
 40
0.0
  9
$DIMTM
 40
0.0
  9
$DIMTXT
 40
0.18
  9
$DIMCEN
 40
0.09
  9
$DIMTSZ
 40
0.0
  9
$DIMADEC
 70
     0
  9
$DIMALTRND
 40
0.000000
  9
$DIMAZIN
 70
     0
  9
$DIMDSEP
 70
    46
  9
$DIMATFIT
 70
     3
  9
$DIMFRAC
 70
     0
  9
$DIMLDRBLK
  1

  9
$DIMLUNIT
 70
     2
  9
$DIMLWD
 70
   13
  9
$DIMLWE
 70
   13
  9
$DIMTMOVE
 70
     0
  9
$CELWEIGHT
370
    25
  9
$LWDISPLAY
290
    1
  9
$EXTNAMES
290
    1
  9
$DIMTOL
 70
     0
  9
$DIMLIM
 70
     0
  9
$DIMTIH
 70
     1
  9
$DIMTOH
 70
     1
  9
$DIMSE1
 70
     0
  9
$DIMSE2
 70
     0
  9
$DIMTAD
 70
     0
  9
$DIMZIN
 70
     0
  9
$DIMBLK
  1

  9
$LUNITS
 70
     2
  9
$LUPREC
 70
     4
  9
$AXISMODE
 70
     0
  9
$AXISUNIT
 10
0.0
 20
0.0
  9
$SKETCHINC
 40
0.1
  9
$FILLETRAD
 40
0.0
  9
$AUNITS
 70
     0
  9
$AUPREC
 70
     0
  9
$MENU
  1
ACAD
  9
$ELEVATION
 40
0.0
  9
$THICKNESS
 40
0.0
  9
$VIEWDIR
 10
0.0
 20
0.0
 30
1.0
  9
$LIMCHECK
 70
     0
  9
$BLIPMODE
 70
     1
  9
$CHAMFERA
 40
0.0
  9
$CHAMFERB
 40
0.0
  9
$FASTZOOM
 70
     1
  9
$SKPOLY
 70
     0
  9
$TDCREATE
 40
0000000.0000000000
  9
$TDUPDATE
 40
0000000.0000000000
  9
$TDINDWG
 40
0.0000000000
  9
$TDUSRTIMER
 40
0.0000000000
  9
$USRTIMER
 70
     1
  9
$ANGBASE
 50
0.0
  9
$ANGDIR
 70
     0
  9
$PDMODE
 70
     0
  9
$PDSIZE
 40
0.0
  9
$PLINEWID
 40
0.0
  9
$COORDS
 70
     0
  9
$USERI1
 70
     0
  9
$USERI2
 70
     0
  9
$USERI3
 70
     0
  9
$USERI4
 70
     0
  9
$USERI5
 70
     0
  9
$USERR1
 40
0.0
  9
$USERR2
 40
0.0
  9
$USERR3
 40
0.0
  9
$USERR4
 40
0.0
  9
$USERR5
 40
0.0
  9
$CLAYER
  8
M1
  9
$EXTMIN
 10
286.8334
 20
208.496744
  9
$EXTMAX
 10
1432.469777
 20
832.80209
  9
$LIMMIN
 10
0.0
 20
0.0
  9
$LIMMAX
 10
841.0
 20
594.0
  9
$HANDSEED
  5
39F
  0
ENDSEC
  0
SECTION
  2
CLASSES
  0
ENDSEC
  0
SECTION
  2
TABLES
  0
TABLE
  2
VPORT
  5
8
100
AcDbSymbolTable
 70
     2
  0
VPORT
  5
14
100
AcDbSymbolTableRecord
100
AcDbViewportTableRecord
  2
*ACTIVE
 70
     0
 10
0.0
 20
0.0
 11
1.0
 21
1.0
 12
484.0
 22
297.0
 13
0.0
 23
0.0
 14
1.0
 24
1.0
 15
0.0
 25
0.0
 16
0.0
 26
0.0
 36
1.0
 17
0.0
 27
0.0
 37
0.0
 40
594.0
 41
2.0
 42
50.0
 43
0.0
 44
0.0
 50
0.0
 51
0.0
 71
     0
 72
   100
 73
     1
 74
     1
 75
     0
 76
     0
 77
     0
 78
     0
  0
ENDTAB
  0
TABLE
  2
LTYPE
  5
5
100
AcDbSymbolTable
 70
     5
  0
LTYPE
  5
15
100
AcDbSymbolTableRecord
100
AcDbLinetypeTableRecord
  2
BYBLOCK
 70
     0
  3

 72
    65
 73
     0
 40
0.0
  0
LTYPE
  5
16
100
AcDbSymbolTableRecord
100
AcDbLinetypeTableRecord
  2
BYLAYER
 70
     0
  3

 72
    65
 73
     0
 40
0.0
  0
LTYPE
  5
17
100
AcDbSymbolTableRecord
100
AcDbLinetypeTableRecord
  2
CONTINUOUS
 70
    64
  3
Solid line
 72
    65
 73
     0
 40
0.0
  0
LTYPE
  5
18
100
AcDbSymbolTableRecord
100
AcDbLinetypeTableRecord
  2
DASHED
 70
    64
  3
__ __ __ __ __ __ __ __ __ __ __ __ __ __ __ __
 72
    65
 73
     2
 40
0.75
 49
0.5
 74
     0
 49
-0.25
 74
     0
  0
LTYPE
  5
19
100
AcDbSymbolTableRecord
100
AcDbLinetypeTableRecord
  2
DASHDOT
 70
    64
  3
__ . __ . __ . __ . __ . __ . __ . __ . __ . __
 72
    65
 73
     4
 40
1.0
 49
0.5
 74
     0
 49
-0.25
 74
     0
 49
0.0
 74
     0
 49
-0.25
 74
     0
  0
LTYPE
  5
1A
100
AcDbSymbolTableRecord
100
AcDbLinetypeTableRecord
  2
DIVIDE
 70
    64
  3
____ . . ____ . . ____ . . ____ . . ____ . . __
 72
    65
 73
     6
 40
1.25
 49
0.5
 74
     0
 49
-0.25
 74
     0
 49
0.0
 74
     0
 49
-0.25
 74
     0
 49
0.0
 74
     0
 49
-0.25
 74
     0
  0
LTYPE
  5
1B
100
AcDbSymbolTableRecord
100
AcDbLinetypeTableRecord
  2
DOT
 70
    64
  3
. . . . . . . . . . . . . . . . . . . . . . . .
 72
    65
 73
     2
 40
0.25
 49
0.0
 74
     0
 49
-0.25
 74
     0
  0
ENDTAB
  0
TABLE
  2
LAYER
  5
2
100
AcDbSymbolTable
 70
   102
  0
LAYER
  5
F
100
AcDbSymbolTableRecord
100
AcDbLayerTableRecord
  2
0
 70
     0
 62
     7
  6
CONTINUOUS
370
     -3
390
F
  0
LAYER
  5
1C
100
AcDbSymbolTableRecord
100
AcDbLayerTableRecord
  2
M1
 70
     0
 62
     3
  6
CONTINUOUS
370
     -3
390
F
  0
ENDTAB
  0
TABLE
  2
STYLE
  5
3
100
AcDbSymbolTable
 70
     2
  0
STYLE
  5
10
100
AcDbSymbolTableRecord
100
AcDbTextStyleTableRecord
  2
STANDARD
 70
     0
 40
0.0
 41
1.0
 50
0.0
 71
     0
 42
0.2
  3
txt
  4
BIGFONT
  0
ENDTAB
  0
TABLE
  2
VIEW
  5
6
100
AcDbSymbolTable
 70
     0
  0
ENDTAB
  0
TABLE
  2
UCS
  5
7
100
AcDbSymbolTable
 70
     0
  0
ENDTAB
  0
TABLE
  2
APPID
  5
9
100
AcDbSymbolTable
 70
     1
  0
APPID
  5
11
100
AcDbSymbolTableRecord
100
AcDbRegAppTableRecord
  2
ACAD
 70
     0
  0
ENDTAB
  0
TABLE
  2
DIMSTYLE
  5
A
100
AcDbSymbolTable
 70
     2
100
AcDbDimStyleTable
 71
     1
  0
DIMSTYLE
105
23
100
AcDbSymbolTableRecord
100
AcDbDimStyleTableRecord
  2
STANDARD
 70
     0
  3

  4

  5

  6
_OPEN
  7
_OPEN
 40
1.0
 41
6.0
 42
0.5
 43
8.0
 44
1.5
 45
0.0
 46
0.0
 47
0.0
 48
0.0
140
6.3
141
0.09
142
0.0
143
0.03937
144
1.0
145
0.0
146
1.0
147
1.0
148
0.000000
 71
     0
 72
     0
 73
     0
 74
     0
 75
     0
 76
     0
 77
     3
 78
     8
170
     0
171
     2
172
     0
173
     1
174
     0
175
     0
176
     0
177
     0
178
     0
270
     2
271
     2
272
     4
273
     2
274
     2
340
10
275
     0
278
    46
280
     0
281
     0
282
     0
283
     1
284
     0
285
     0
286
     0
287
     3
288
     0
371
   13
372
   13
  0
DIMSTYLE
105
24
100
AcDbSymbolTableRecord
100
AcDbDimStyleTableRecord
  2
LEADSTYL
 70
     0
  3

  4

  5

  6
_OPEN
  7
_OPEN
 40
1.0
 41
6.0
 42
0.0625
 43
0.38
 44
0.18
 45
0.0
 46
0.0
 47
0.0
 48
0.0
140
6.3
141
0.09
142
0.0
143
25.4
144
1.0
145
0.0
146
1.0
147
1.0
 71
     0
 72
     0
 73
     1
 74
     1
 75
     0
 76
     0
 77
     0
 78
     0
170
     0
171
     2
172
     0
173
     1
174
     0
175
     0
176
     0
177
     0
178
     0
270
     2
271
     4
272
     4
273
     2
274
     2
340
10
275
     0
280
     0
281
     0
282
     0
283
     1
284
     0
285
     0
286
     0
287
     3
288
     0
  0
ENDTAB
  0
TABLE
  2
BLOCK_RECORD
  5
1
100
AcDbSymbolTable
 70
     6
  0
BLOCK_RECORD
  5
1D
100
AcDbSymbolTableRecord
100
AcDbBlockTableRecord
  2
*MODEL_SPACE
  0
BLOCK_RECORD
  5
20
100
AcDbSymbolTableRecord
100
AcDbBlockTableRecord
  2
*PAPER_SPACE
  0
BLOCK_RECORD
  5
25
100
AcDbSymbolTableRecord
100
AcDbBlockTableRecord
  2
_NONE
  0
BLOCK_RECORD
  5
29
100
AcDbSymbolTableRecord
100
AcDbBlockTableRecord
  2
_OPEN
  0
BLOCK_RECORD
  5
2F
100
AcDbSymbolTableRecord
100
AcDbBlockTableRecord
  2
_CLOSED
  0
BLOCK_RECORD
  5
36
100
AcDbSymbolTableRecord
100
AcDbBlockTableRecord
  2
_ORIGIN
  0
BLOCK_RECORD
  5
3B
100
AcDbSymbolTableRecord
100
AcDbBlockTableRecord
  2
_DOT
  0
BLOCK_RECORD
  5
43
100
AcDbSymbolTableRecord
100
AcDbBlockTableRecord
  2
_OBLIQUE
  0
ENDTAB
  0
ENDSEC
  0
SECTION
  2
BLOCKS
  0
BLOCK
  5
1E
100
AcDbEntity
  8
0
100
AcDbBlockBegin
  2
*MODEL_SPACE
 70
     0
 10
0.0
 20
0.0
 30
0.0
  3
*MODEL_SPACE
  1

  0
ENDBLK
  5
1F
100
AcDbEntity
  8
0
100
AcDbBlockEnd
  0
BLOCK
  5
21
100
AcDbEntity
 67
     1
  8
0
100
AcDbBlockBegin
  2
*PAPER_SPACE
 70
     0
 10
0.0
 20
0.0
 30
0.0
  3
*PAPER_SPACE
  1

  0
ENDBLK
  5
22
100
AcDbEntity
 67
     1
  8
0
100
AcDbBlockEnd
  0
BLOCK
  5
26
100
AcDbEntity
  8
0
100
AcDbBlockBegin
  2
_NONE
 70
     0
 10
0.0
 20
0.0
  0
CIRCLE
  5
27
100
AcDbEntity
  8
0
 62
     0
370
13
100
AcDbCircle
 10
0.0
 20
0.0
 40
0.25
  0
ENDBLK
  5
28
100
AcDbEntity
  8
0
100
AcDbBlockEnd
  0
BLOCK
  5
2A
100
AcDbEntity
  8
0
100
AcDbBlockBegin
  2
_OPEN
 70
     0
 10
0.0
 20
0.0
  0
LINE
  5
2B
100
AcDbEntity
  8
0
 62
     0
370
13
100
AcDbLine
 10
-0.965926
 20
0.258819
 11
0.0
 21
0.0
  0
LINE
  5
2C
100
AcDbEntity
  8
0
 62
     0
370
13
100
AcDbLine
 10
0.0
 20
0.0
 11
-0.965926
 21
-0.258819
  0
LINE
  5
2D
100
AcDbEntity
  8
0
 62
     0
370
13
100
AcDbLine
 10
0.0
 20
0.0
 11
-1.0
 21
0.0
  0
ENDBLK
  5
2E
100
AcDbEntity
  8
0
100
AcDbBlockEnd
  0
BLOCK
  5
30
100
AcDbEntity
  8
0
100
AcDbBlockBegin
  2
_CLOSED
 70
     0
 10
0.0
 20
0.0
  0
LINE
  5
31
100
AcDbEntity
  8
0
 62
     0
370
13
100
AcDbLine
 10
-0.965926
 20
0.258819
 11
0.0
 21
0.0
  0
LINE
  5
32
100
AcDbEntity
  8
0
 62
     0
370
13
100
AcDbLine
 10
0.0
 20
0.0
 11
-0.965926
 21
-0.258819
  0
LINE
  5
33
100
AcDbEntity
  8
0
 62
     0
370
13
100
AcDbLine
 10
-0.965926
 20
0.258819
 11
-0.965926
 21
-0.258819
  0
LINE
  5
34
100
AcDbEntity
  8
0
 62
     0
370
13
100
AcDbLine
 10
0.0
 20
0.0
 11
-1.0
 21
0.0
  0
ENDBLK
  5
35
100
AcDbEntity
  8
0
100
AcDbBlockEnd
  0
BLOCK
  5
37
100
AcDbEntity
  8
0
100
AcDbBlockBegin
  2
_ORIGIN
 70
     0
 10
0.0
 20
0.0
  0
CIRCLE
  5
38
100
AcDbEntity
  8
0
 62
     0
370
13
100
AcDbCircle
 10
0.0
 20
0.0
 40
0.5
  0
LINE
  5
39
100
AcDbEntity
  8
0
 62
     0
370
13
100
AcDbLine
 10
0.0
 20
0.0
 11
-1.0
 21
0.0
  0
ENDBLK
  5
3A
100
AcDbEntity
  8
0
100
AcDbBlockEnd
  0
BLOCK
  5
3C
100
AcDbEntity
  8
0
100
AcDbBlockBegin
  2
_DOT
 70
     0
 10
0.0
 20
0.0
  0
POLYLINE
  5
3D
100
AcDbEntity
  8
0
 62
     0
100
AcDb2dPolyline
 66
     1
 70
     1
 40
0.5
 41
0.5
  0
VERTEX
  5
3E
100
AcDbEntity
  8
0
 62
     0
100
AcDbVertex
100
AcDb2dVertex
 10
-0.25
 20
0.0
 42
1.0
  0
VERTEX
  5
3F
100
AcDbEntity
  8
0
 62
     0
100
AcDbVertex
100
AcDb2dVertex
 10
0.25
 20
0.0
 42
1.0
  0
SEQEND
  5
40
100
AcDbEntity
  8
0
 62
     0
  0
LINE
  5
41
100
AcDbEntity
  8
0
 62
     0
370
13
100
AcDbLine
 10
-0.5
 20
0.0
 11
-1.0
 21
0.0
  0
ENDBLK
  5
42
100
AcDbEntity
  8
0
100
AcDbBlockEnd
  0
BLOCK
  5
44
100
AcDbEntity
  8
0
100
AcDbBlockBegin
  2
_OBLIQUE
 70
     0
 10
0.0
 20
0.0
  0
LINE
  5
45
100
AcDbEntity
  8
0
 62
     0
370
13
100
AcDbLine
 10
-0.353553
 20
-0.353553
 11
0.353553
 21
0.353553
  0
ENDBLK
  5
46
100
AcDbEntity
  8
0
100
AcDbBlockEnd
  0
ENDSEC
  0
SECTION
  2
ENTITIES
  0
LINE
  5
47
100
AcDbEntity
  8
M1
  6
CONTINUOUS
370
13
 62
     7
100
AcDbLine
 10
1246.654841
 20
652.901699
 11
1233.230844
 21
652.901699
  0
LINE
  5
48
100
AcDbEntity
  8
M1
  6
CONTINUOUS
370
25
 62
     7
100
AcDbLine
 10
741.103418
 20
701.901699
 11
741.103418
 21
652.901699
  0
LINE
  5
49
100
AcDbEntity
  8
M1
  6
CONTINUOUS
370
25
 62
     7
100
AcDbLine
 10
766.103418
 20
702.901699
 11
742.103418
 21
702.901699
  0
LINE
  5
4A
100
AcDbEntity
  8
M1
  6
CONTINUOUS
370
25
 62
     7
100
AcDbLine
 10
766.103418
 20
732.901699
 11
766.103418
 21
652.901699
  0
LINE
  5
4B
100
AcDbEntity
  8
M1
  6
CONTINUOUS
370
25
 62
     7
100
AcDbLine
 10
773.103418
 20
732.901699
 11
766.103418
 21
732.901699
  0
LINE
  5
4C
100
AcDbEntity
  8
M1
  6
CONTINUOUS
370
25
 62
     7
100
AcDbLine
 10
802.534144
 20
780.901699
 11
783.103418
 21
780.901699
  0
LINE
  5
4D
100
AcDbEntity
  8
M1
  6
CONTINUOUS
370
25
 62
     7
100
AcDbLine
 10
781.103418
 20
778.901699
 11
781.103418
 21
652.901699
  0
LINE
  5
4E
100
AcDbEntity
  8
M1
  6
CONTINUOUS
370
25
 62
     7
100
AcDbLine
 10
742.103724
 20
702.901577
 11
741.103663
 21
701.901486
  0
LINE
  5
4F
100
AcDbEntity
  8
M1
  6
CONTINUOUS
370
25
 62
     7
100
AcDbLine
 10
802.603418
 20
795.901699
 11
802.603418
 21
652.901699
  0
LINE
  5
50
100
AcDbEntity
  8
M1
  6
CONTINUOUS
370
25
 62
     7
100
AcDbLine
 10
804.603724
 20
797.901272
 11
802.603663
 21
795.901273
  0
LINE
  5
51
100
AcDbEntity
  8
M1
  6
CONTINUOUS
370
25
 62
     7
100
AcDbLine
 10
837.853418
 20
797.901699
 11
804.603418
 21
797.901699
  0
LINE
  5
52
100
AcDbEntity
  8
M1
  6
CONTINUOUS
370
25
 62
     7
100
AcDbLine
 10
836.353418
 20
797.901699
 11
869.603418
 21
797.901699
  0
LINE
  5
53
100
AcDbEntity
  8
M1
  6
CONTINUOUS
370
25
 62
     7
100
AcDbLine
 10
869.603418
 20
797.901699
 11
871.603358
 21
795.901699
  0
LINE
  5
54
100
AcDbEntity
  8
M1
  6
CONTINUOUS
370
25
 62
     7
100
AcDbLine
 10
871.603418
 20
795.901699
 11
871.603418
 21
652.901699
  0
LINE
  5
55
100
AcDbEntity
  8
M1
  6
CONTINUOUS
370
25
 62
     7
100
AcDbLine
 10
871.603418
 20
780.901699
 11
891.103418
 21
780.901699
  0
LINE
  5
56
100
AcDbEntity
  8
M1
  6
CONTINUOUS
370
25
 62
     7
100
AcDbLine
 10
893.103418
 20
778.901699
 11
893.103418
 21
652.901699
  0
LINE
  5
57
100
AcDbEntity
  8
M1
  6
CONTINUOUS
370
25
 62
     7
100
AcDbLine
 10
901.103418
 20
732.901699
 11
908.103418
 21
732.901699
  0
LINE
  5
58
100
AcDbEntity
  8
M1
  6
CONTINUOUS
370
25
 62
     7
100
AcDbLine
 10
908.103418
 20
732.901699
 11
908.103418
 21
652.901699
  0
LINE
  5
59
100
AcDbEntity
  8
M1
  6
CONTINUOUS
370
25
 62
     7
100
AcDbLine
 10
908.103418
 20
702.901699
 11
932.103418
 21
702.901699
  0
LINE
  5
5A
100
AcDbEntity
  8
M1
  6
CONTINUOUS
370
25
 62
     7
100
AcDbLine
 10
933.103418
 20
701.901699
 11
933.103418
 21
652.901699
  0
LINE
  5
5B
100
AcDbEntity
  8
M1
  6
CONTINUOUS
370
25
 62
     7
100
AcDbLine
 10
932.103541
 20
702.901792
 11
933.103541
 21
701.901882
  0
LINE
  5
5C
100
AcDbEntity
  8
M1
  6
CONTINUOUS
370
25
 62
     7
100
AcDbLine
 10
773.603418
 20
716.701566
 11
773.603418
 21
704.101773
  0
LINE
  5
5D
100
AcDbEntity
  8
M1
  6
CONTINUOUS
370
25
 62
     7
100
AcDbLine
 10
779.103418
 20
718.101712
 11
779.103418
 21
702.701687
  0
LINE
  5
5E
100
AcDbEntity
  8
M1
  6
CONTINUOUS
370
25
 62
     7
100
AcDbLine
 10
779.103418
 20
702.701687
 11
781.103418
 21
702.701687
  0
LINE
  5
5F
100
AcDbEntity
  8
M1
  6
CONTINUOUS
370
25
 62
     7
100
AcDbLine
 10
779.103418
 20
718.101712
 11
781.103418
 21
718.101712
  0
LINE
  5
60
100
AcDbEntity
  8
M1
  6
CONTINUOUS
370
25
 62
     7
100
AcDbLine
 10
779.103724
 20
710.982784
 11
781.103724
 21
712.982816
  0
LINE
  5
61
100
AcDbEntity
  8
M1
  6
CONTINUOUS
370
25
 62
     7
100
AcDbLine
 10
779.103724
 20
708.154386
 11
781.103724
 21
710.154386
  0
LINE
  5
62
100
AcDbEntity
  8
M1
  6
CONTINUOUS
370
25
 62
     7
100
AcDbLine
 10
774.296351
 20
714.401699
 11
779.103418
 21
714.401699
  0
LINE
  5
63
100
AcDbEntity
  8
M1
  6
CONTINUOUS
370
25
 62
     7
100
AcDbLine
 10
774.296351
 20
706.401699
 11
779.103418
 21
706.401699
  0
LINE
  5
64
100
AcDbEntity
  8
M1
  6
CONTINUOUS
370
25
 62
     7
100
AcDbLine
 10
774.296351
 20
702.901699
 11
779.103418
 21
702.901699
  0
LINE
  5
65
100
AcDbEntity
  8
M1
  6
CONTINUOUS
370
25
 62
     7
100
AcDbLine
 10
774.296351
 20
717.901699
 11
779.103418
 21
717.901699
  0
LINE
  5
66
100
AcDbEntity
  8
M1
  6
CONTINUOUS
370
25
 62
     7
100
AcDbLine
 10
773.603053
 20
716.70187
 11
774.295863
 21
717.902004
  0
LINE
  5
67
100
AcDbEntity
  8
M1
  6
CONTINUOUS
370
25
 62
     7
100
AcDbLine
 10
773.603418
 20
704.101986
 11
774.296228
 21
702.901792
  0
LINE
  5
68
100
AcDbEntity
  8
M1
  6
CONTINUOUS
370
25
 62
     7
100
AcDbLine
 10
871.603418
 20
783.76376
 11
876.421411
 21
783.76376
  0
LINE
  5
69
100
AcDbEntity
  8
M1
  6
CONTINUOUS
370
25
 62
     7
100
AcDbLine
 10
871.603418
 20
786.535672
 11
875.959437
 21
786.535672
  0
LINE
  5
6A
100
AcDbEntity
  8
M1
  6
CONTINUOUS
370
25
 62
     7
100
AcDbLine
 10
877.448451
 20
788.176663
 11
877.448451
 21
798.655667
  0
LINE
  5
6B
100
AcDbEntity
  8
M1
  6
CONTINUOUS
370
25
 62
     7
100
AcDbLine
 10
880.247523
 20
787.481716
 11
880.247523
 21
800.527676
  0
LINE
  5
6C
100
AcDbEntity
  8
M1
  6
CONTINUOUS
370
25
 62
     7
100
AcDbLine
 10
880.247523
 20
800.527799
 11
877.448511
 21
798.655667
  0
LINE
  5
6D
100
AcDbEntity
  8
M1
  6
CONTINUOUS
370
25
 62
     7
100
AcDbLine
 10
880.246426
 20
804.20187
 11
877.447413
 21
802.158902
  0
LINE
  5
6E
100
AcDbEntity
  8
M1
  6
CONTINUOUS
370
25
 62
     7
100
AcDbLine
 10
880.247523
 20
804.20071
 11
880.247523
 21
814.664762
  0
LINE
  5
6F
100
AcDbEntity
  8
M1
  6
CONTINUOUS
370
25
 62
     7
100
AcDbLine
 10
877.448451
 20
802.157682
 11
877.448451
 21
814.664762
  0
LINE
  5
70
100
AcDbEntity
  8
M1
  6
CONTINUOUS
370
25
 62
     7
100
AcDbLine
 10
873.247218
 20
825.650906
 11
871.847133
 21
823.225857
  0
LINE
  5
71
100
AcDbEntity
  8
M1
  6
CONTINUOUS
370
25
 62
     7
100
AcDbLine
 10
872.547511
 20
824.439663
 11
866.485621
 21
827.938564
  0
LINE
  5
72
100
AcDbEntity
  8
M1
  6
CONTINUOUS
370
25
 62
     7
100
AcDbLine
 10
884.448268
 20
825.650296
 11
885.847011
 21
823.225369
  0
LINE
  5
73
100
AcDbEntity
  8
M1
  6
CONTINUOUS
370
25
 62
     7
100
AcDbLine
 10
885.146814
 20
824.44009
 11
891.208827
 21
827.939114
  0
LINE
  5
74
100
AcDbEntity
  8
M1
  6
CONTINUOUS
370
25
 62
     7
100
AcDbLine
 10
663.103418
 20
667.901699
 11
663.103418
 21
652.901699
  0
LINE
  5
75
100
AcDbEntity
  8
M1
  6
CONTINUOUS
370
25
 62
     7
100
AcDbLine
 10
719.103418
 20
656.401699
 11
719.103418
 21
652.901699
  0
LINE
  5
76
100
AcDbEntity
  8
M1
  6
CONTINUOUS
370
25
 62
     7
100
AcDbLine
 10
730.103418
 20
668.901699
 11
730.103418
 21
652.901699
  0
LINE
  5
77
100
AcDbEntity
  8
M1
  6
CONTINUOUS
370
25
 62
     7
100
AcDbLine
 10
730.103418
 20
667.901699
 11
663.103418
 21
667.901699
  0
LINE
  5
78
100
AcDbEntity
  8
M1
  6
CONTINUOUS
370
25
 62
     7
100
AcDbLine
 10
719.103418
 20
656.401699
 11
663.103418
 21
656.401699
  0
LINE
  5
79
100
AcDbEntity
  8
M1
  6
CONTINUOUS
370
25
 62
     7
100
AcDbLine
 10
736.056117
 20
687.482693
 11
738.056117
 21
687.482693
  0
LINE
  5
7A
100
AcDbEntity
  8
M1
  6
CONTINUOUS
370
25
 62
     7
100
AcDbLine
 10
736.056117
 20
687.482693
 11
736.056117
 21
652.901699
  0
LINE
  5
7B
100
AcDbEntity
  8
M1
  6
CONTINUOUS
370
25
 62
     7
100
AcDbLine
 10
731.103418
 20
681.794674
 11
736.056117
 21
681.794674
  0
LINE
  5
7C
100
AcDbEntity
  8
M1
  6
CONTINUOUS
370
25
 62
     7
100
AcDbLine
 10
738.055934
 20
687.482602
 11
741.103236
 21
680.947689
  0
LINE
  5
7D
100
AcDbEntity
  8
M1
  6
CONTINUOUS
370
25
 62
     7
100
AcDbLine
 10
936.150721
 20
687.482693
 11
933.103418
 21
680.947782
  0
LINE
  5
7E
100
AcDbEntity
  8
M1
  6
CONTINUOUS
370
25
 62
     7
100
AcDbLine
 10
1011.10345
 20
667.901699
 11
1011.10345
 21
652.901699
  0
LINE
  5
7F
100
AcDbEntity
  8
M1
  6
CONTINUOUS
370
25
 62
     7
100
AcDbLine
 10
955.103418
 20
656.401699
 11
955.103418
 21
652.901699
  0
LINE
  5
80
100
AcDbEntity
  8
M1
  6
CONTINUOUS
370
25
 62
     7
100
AcDbLine
 10
944.103418
 20
668.901699
 11
944.103418
 21
652.901699
  0
LINE
  5
81
100
AcDbEntity
  8
M1
  6
CONTINUOUS
370
25
 62
     7
100
AcDbLine
 10
944.103418
 20
667.901699
 11
1011.10345
 21
667.901699
  0
LINE
  5
82
100
AcDbEntity
  8
M1
  6
CONTINUOUS
370
25
 62
     7
100
AcDbLine
 10
955.103418
 20
656.401699
 11
1011.10345
 21
656.401699
  0
LINE
  5
83
100
AcDbEntity
  8
M1
  6
CONTINUOUS
370
25
 62
     7
100
AcDbLine
 10
938.150721
 20
687.482693
 11
936.150721
 21
687.482693
  0
LINE
  5
84
100
AcDbEntity
  8
M1
  6
CONTINUOUS
370
25
 62
     7
100
AcDbLine
 10
938.150721
 20
687.482693
 11
938.150721
 21
652.901699
  0
LINE
  5
85
100
AcDbEntity
  8
M1
  6
CONTINUOUS
370
25
 62
     7
100
AcDbLine
 10
943.103418
 20
681.794674
 11
938.150721
 21
681.794674
  0
LINE
  5
86
100
AcDbEntity
  8
M1
  6
CONTINUOUS
370
25
 62
     7
100
AcDbLine
 10
900.603418
 20
774.201566
 11
900.603418
 21
761.601773
  0
LINE
  5
87
100
AcDbEntity
  8
M1
  6
CONTINUOUS
370
25
 62
     7
100
AcDbLine
 10
895.103418
 20
775.601712
 11
895.103418
 21
760.201687
  0
LINE
  5
88
100
AcDbEntity
  8
M1
  6
CONTINUOUS
370
25
 62
     7
100
AcDbLine
 10
895.103418
 20
760.201687
 11
893.103418
 21
760.201687
  0
LINE
  5
89
100
AcDbEntity
  8
M1
  6
CONTINUOUS
370
25
 62
     7
100
AcDbLine
 10
895.103418
 20
775.601712
 11
893.103418
 21
775.601712
  0
LINE
  5
8A
100
AcDbEntity
  8
M1
  6
CONTINUOUS
370
25
 62
     7
100
AcDbLine
 10
899.910608
 20
771.901699
 11
895.103418
 21
771.901699
  0
LINE
  5
8B
100
AcDbEntity
  8
M1
  6
CONTINUOUS
370
25
 62
     7
100
AcDbLine
 10
899.910608
 20
763.901699
 11
895.103418
 21
763.901699
  0
LINE
  5
8C
100
AcDbEntity
  8
M1
  6
CONTINUOUS
370
25
 62
     7
100
AcDbLine
 10
899.910608
 20
760.401699
 11
895.103418
 21
760.401699
  0
LINE
  5
8D
100
AcDbEntity
  8
M1
  6
CONTINUOUS
370
25
 62
     7
100
AcDbLine
 10
899.910608
 20
775.401699
 11
895.103418
 21
775.401699
  0
LINE
  5
8E
100
AcDbEntity
  8
M1
  6
CONTINUOUS
370
25
 62
     7
100
AcDbLine
 10
900.603663
 20
774.201809
 11
899.910853
 21
775.401883
  0
LINE
  5
8F
100
AcDbEntity
  8
M1
  6
CONTINUOUS
370
25
 62
     7
100
AcDbLine
 10
900.603968
 20
761.601712
 11
899.911158
 21
760.401577
  0
LINE
  5
90
100
AcDbEntity
  8
M1
  6
CONTINUOUS
370
25
 62
     7
100
AcDbLine
 10
741.103418
 20
603.901699
 11
741.103418
 21
652.901699
  0
LINE
  5
91
100
AcDbEntity
  8
M1
  6
CONTINUOUS
370
25
 62
     7
100
AcDbLine
 10
766.103418
 20
602.901699
 11
742.103418
 21
602.901699
  0
LINE
  5
92
100
AcDbEntity
  8
M1
  6
CONTINUOUS
370
25
 62
     7
100
AcDbLine
 10
766.103418
 20
572.901699
 11
766.103418
 21
652.901699
  0
LINE
  5
93
100
AcDbEntity
  8
M1
  6
CONTINUOUS
370
25
 62
     7
100
AcDbLine
 10
773.103418
 20
572.901699
 11
766.103418
 21
572.901699
  0
LINE
  5
94
100
AcDbEntity
  8
M1
  6
CONTINUOUS
370
25
 62
     7
100
AcDbLine
 10
802.534144
 20
524.901699
 11
783.103418
 21
524.901699
  0
LINE
  5
95
100
AcDbEntity
  8
M1
  6
CONTINUOUS
370
25
 62
     7
100
AcDbLine
 10
781.103418
 20
526.901699
 11
781.103418
 21
652.901699
  0
LINE
  5
96
100
AcDbEntity
  8
M1
  6
CONTINUOUS
370
25
 62
     7
100
AcDbLine
 10
742.103418
 20
602.901577
 11
741.103358
 21
603.901577
  0
LINE
  5
97
100
AcDbEntity
  8
M1
  6
CONTINUOUS
370
25
 62
     7
100
AcDbLine
 10
802.603418
 20
509.901699
 11
802.603418
 21
652.901699
  0
LINE
  5
98
100
AcDbEntity
  8
M1
  6
CONTINUOUS
370
25
 62
     7
100
AcDbLine
 10
804.603724
 20
507.901974
 11
802.603724
 21
509.901974
  0
LINE
  5
99
100
AcDbEntity
  8
M1
  6
CONTINUOUS
370
25
 62
     7
100
AcDbLine
 10
837.853418
 20
507.901699
 11
804.603418
 21
507.901699
  0
LINE
  5
9A
100
AcDbEntity
  8
M1
  6
CONTINUOUS
370
25
 62
     7
100
AcDbLine
 10
836.353418
 20
507.901699
 11
869.603418
 21
507.901699
  0
LINE
  5
9B
100
AcDbEntity
  8
M1
  6
CONTINUOUS
370
25
 62
     7
100
AcDbLine
 10
869.603968
 20
507.901273
 11
871.603968
 21
509.901273
  0
LINE
  5
9C
100
AcDbEntity
  8
M1
  6
CONTINUOUS
370
25
 62
     7
100
AcDbLine
 10
871.603418
 20
509.901699
 11
871.603418
 21
652.901699
  0
LINE
  5
9D
100
AcDbEntity
  8
M1
  6
CONTINUOUS
370
25
 62
     7
100
AcDbLine
 10
871.603418
 20
524.901699
 11
891.103418
 21
524.901699
  0
LINE
  5
9E
100
AcDbEntity
  8
M1
  6
CONTINUOUS
370
25
 62
     7
100
AcDbLine
 10
893.103418
 20
526.901699
 11
893.103418
 21
652.901699
  0
LINE
  5
9F
100
AcDbEntity
  8
M1
  6
CONTINUOUS
370
25
 62
     7
100
AcDbLine
 10
901.103418
 20
572.901699
 11
908.103418
 21
572.901699
  0
LINE
  5
A0
100
AcDbEntity
  8
M1
  6
CONTINUOUS
370
25
 62
     7
100
AcDbLine
 10
908.103418
 20
572.901699
 11
908.103418
 21
652.901699
  0
LINE
  5
A1
100
AcDbEntity
  8
M1
  6
CONTINUOUS
370
25
 62
     7
100
AcDbLine
 10
908.103418
 20
602.901699
 11
932.103418
 21
602.901699
  0
LINE
  5
A2
100
AcDbEntity
  8
M1
  6
CONTINUOUS
370
25
 62
     7
100
AcDbLine
 10
933.103418
 20
603.901699
 11
933.103418
 21
652.901699
  0
LINE
  5
A3
100
AcDbEntity
  8
M1
  6
CONTINUOUS
370
25
 62
     7
100
AcDbLine
 10
932.103663
 20
602.901577
 11
933.103724
 21
603.901577
  0
LINE
  5
A4
100
AcDbEntity
  8
M1
  6
CONTINUOUS
370
25
 62
     7
100
AcDbLine
 10
773.603418
 20
531.601773
 11
773.603418
 21
544.201596
  0
LINE
  5
A5
100
AcDbEntity
  8
M1
  6
CONTINUOUS
370
25
 62
     7
100
AcDbLine
 10
779.103418
 20
530.201687
 11
779.103418
 21
545.601682
  0
LINE
  5
A6
100
AcDbEntity
  8
M1
  6
CONTINUOUS
370
25
 62
     7
100
AcDbLine
 10
779.103418
 20
545.601682
 11
781.103418
 21
545.601682
  0
LINE
  5
A7
100
AcDbEntity
  8
M1
  6
CONTINUOUS
370
25
 62
     7
100
AcDbLine
 10
779.103418
 20
530.201687
 11
781.103418
 21
530.201687
  0
LINE
  5
A8
100
AcDbEntity
  8
M1
  6
CONTINUOUS
370
25
 62
     7
100
AcDbLine
 10
774.296351
 20
533.901699
 11
779.103418
 21
533.901699
  0
LINE
  5
A9
100
AcDbEntity
  8
M1
  6
CONTINUOUS
370
25
 62
     7
100
AcDbLine
 10
774.296351
 20
541.901699
 11
779.103418
 21
541.901699
  0
LINE
  5
AA
100
AcDbEntity
  8
M1
  6
CONTINUOUS
370
25
 62
     7
100
AcDbLine
 10
774.296351
 20
545.401699
 11
779.103418
 21
545.401699
  0
LINE
  5
AB
100
AcDbEntity
  8
M1
  6
CONTINUOUS
370
25
 62
     7
100
AcDbLine
 10
774.296351
 20
530.401699
 11
779.103418
 21
530.401699
  0
LINE
  5
AC
100
AcDbEntity
  8
M1
  6
CONTINUOUS
370
25
 62
     7
100
AcDbLine
 10
773.603053
 20
531.601499
 11
774.295863
 21
530.401486
  0
LINE
  5
AD
100
AcDbEntity
  8
M1
  6
CONTINUOUS
370
25
 62
     7
100
AcDbLine
 10
773.603724
 20
544.201199
 11
774.296657
 21
545.401273
  0
LINE
  5
AE
100
AcDbEntity
  8
M1
  6
CONTINUOUS
370
25
 62
     7
100
AcDbLine
 10
663.103418
 20
637.901699
 11
663.103418
 21
652.901699
  0
LINE
  5
AF
100
AcDbEntity
  8
M1
  6
CONTINUOUS
370
25
 62
     7
100
AcDbLine
 10
719.103418
 20
649.401699
 11
719.103418
 21
652.901699
  0
LINE
  5
B0
100
AcDbEntity
  8
M1
  6
CONTINUOUS
370
25
 62
     7
100
AcDbLine
 10
730.103418
 20
636.901699
 11
730.103418
 21
652.901699
  0
LINE
  5
B1
100
AcDbEntity
  8
M1
  6
CONTINUOUS
370
25
 62
     7
100
AcDbLine
 10
730.103418
 20
637.901699
 11
663.103418
 21
637.901699
  0
LINE
  5
B2
100
AcDbEntity
  8
M1
  6
CONTINUOUS
370
25
 62
     7
100
AcDbLine
 10
719.103418
 20
649.401699
 11
663.103418
 21
649.401699
  0
LINE
  5
B3
100
AcDbEntity
  8
M1
  6
CONTINUOUS
370
25
 62
     7
100
AcDbLine
 10
736.056117
 20
618.320676
 11
738.056117
 21
618.320676
  0
LINE
  5
B4
100
AcDbEntity
  8
M1
  6
CONTINUOUS
370
25
 62
     7
100
AcDbLine
 10
736.056117
 20
618.320676
 11
736.056117
 21
652.901699
  0
LINE
  5
B5
100
AcDbEntity
  8
M1
  6
CONTINUOUS
370
25
 62
     7
100
AcDbLine
 10
731.103418
 20
624.008694
 11
736.056117
 21
624.008694
  0
LINE
  5
B6
100
AcDbEntity
  8
M1
  6
CONTINUOUS
370
25
 62
     7
100
AcDbLine
 10
738.056117
 20
618.320676
 11
741.103418
 21
624.855587
  0
LINE
  5
B7
100
AcDbEntity
  8
M1
  6
CONTINUOUS
370
25
 62
     7
100
AcDbLine
 10
936.150844
 20
618.320676
 11
933.103541
 21
624.855587
  0
LINE
  5
B8
100
AcDbEntity
  8
M1
  6
CONTINUOUS
370
25
 62
     7
100
AcDbLine
 10
1011.10345
 20
637.901699
 11
1011.10345
 21
652.901699
  0
LINE
  5
B9
100
AcDbEntity
  8
M1
  6
CONTINUOUS
370
25
 62
     7
100
AcDbLine
 10
955.103418
 20
649.401699
 11
955.103418
 21
652.901699
  0
LINE
  5
BA
100
AcDbEntity
  8
M1
  6
CONTINUOUS
370
25
 62
     7
100
AcDbLine
 10
944.103418
 20
636.901699
 11
944.103418
 21
652.901699
  0
LINE
  5
BB
100
AcDbEntity
  8
M1
  6
CONTINUOUS
370
25
 62
     7
100
AcDbLine
 10
944.103418
 20
637.901699
 11
1011.10345
 21
637.901699
  0
LINE
  5
BC
100
AcDbEntity
  8
M1
  6
CONTINUOUS
370
25
 62
     7
100
AcDbLine
 10
955.103418
 20
649.401699
 11
1011.10345
 21
649.401699
  0
LINE
  5
BD
100
AcDbEntity
  8
M1
  6
CONTINUOUS
370
25
 62
     7
100
AcDbLine
 10
938.150721
 20
618.320676
 11
936.150721
 21
618.320676
  0
LINE
  5
BE
100
AcDbEntity
  8
M1
  6
CONTINUOUS
370
25
 62
     7
100
AcDbLine
 10
938.150721
 20
618.320676
 11
938.150721
 21
652.901699
  0
LINE
  5
BF
100
AcDbEntity
  8
M1
  6
CONTINUOUS
370
25
 62
     7
100
AcDbLine
 10
943.103418
 20
624.008694
 11
938.150721
 21
624.008694
  0
LINE
  5
C0
100
AcDbEntity
  8
M1
  6
CONTINUOUS
370
25
 62
     7
100
AcDbLine
 10
900.603418
 20
531.601773
 11
900.603418
 21
544.201596
  0
LINE
  5
C1
100
AcDbEntity
  8
M1
  6
CONTINUOUS
370
25
 62
     7
100
AcDbLine
 10
895.103418
 20
530.201687
 11
895.103418
 21
545.601682
  0
LINE
  5
C2
100
AcDbEntity
  8
M1
  6
CONTINUOUS
370
25
 62
     7
100
AcDbLine
 10
895.103418
 20
545.601682
 11
893.103418
 21
545.601682
  0
LINE
  5
C3
100
AcDbEntity
  8
M1
  6
CONTINUOUS
370
25
 62
     7
100
AcDbLine
 10
895.103418
 20
530.201687
 11
893.103418
 21
530.201687
  0
LINE
  5
C4
100
AcDbEntity
  8
M1
  6
CONTINUOUS
370
25
 62
     7
100
AcDbLine
 10
895.103418
 20
537.320279
 11
893.103418
 21
535.320279
  0
LINE
  5
C5
100
AcDbEntity
  8
M1
  6
CONTINUOUS
370
25
 62
     7
100
AcDbLine
 10
895.103541
 20
540.148892
 11
893.103418
 21
538.1488
  0
LINE
  5
C6
100
AcDbEntity
  8
M1
  6
CONTINUOUS
370
25
 62
     7
100
AcDbLine
 10
899.910608
 20
533.901699
 11
895.103418
 21
533.901699
  0
LINE
  5
C7
100
AcDbEntity
  8
M1
  6
CONTINUOUS
370
25
 62
     7
100
AcDbLine
 10
899.910608
 20
541.901699
 11
895.103418
 21
541.901699
  0
LINE
  5
C8
100
AcDbEntity
  8
M1
  6
CONTINUOUS
370
25
 62
     7
100
AcDbLine
 10
899.910608
 20
545.401699
 11
895.103418
 21
545.401699
  0
LINE
  5
C9
100
AcDbEntity
  8
M1
  6
CONTINUOUS
370
25
 62
     7
100
AcDbLine
 10
899.910608
 20
530.401699
 11
895.103418
 21
530.401699
  0
LINE
  5
CA
100
AcDbEntity
  8
M1
  6
CONTINUOUS
370
25
 62
     7
100
AcDbLine
 10
900.60403
 20
531.601499
 11
899.91122
 21
530.401273
  0
LINE
  5
CB
100
AcDbEntity
  8
M1
  6
CONTINUOUS
370
25
 62
     7
100
AcDbLine
 10
900.603724
 20
544.201596
 11
899.910914
 21
545.401699
  0
LINE
  5
CC
100
AcDbEntity
  8
M1
  6
CONTINUOUS
370
25
 62
     7
100
AcDbLine
 10
449.833886
 20
649.401699
 11
442.833886
 21
649.401699
  0
LINE
  5
CD
100
AcDbEntity
  8
M1
  6
CONTINUOUS
370
25
 62
     7
100
AcDbLine
 10
449.833886
 20
656.401699
 11
442.833886
 21
656.401699
  0
LINE
  5
CE
100
AcDbEntity
  8
M1
  6
CONTINUOUS
370
25
 62
     7
100
AcDbLine
 10
442.833886
 20
656.401792
 11
442.833886
 21
649.401792
  0
LINE
  5
CF
100
AcDbEntity
  8
M1
  6
CONTINUOUS
370
25
 62
     7
100
AcDbLine
 10
449.833886
 20
656.401792
 11
449.833886
 21
649.401792
  0
LINE
  5
D0
100
AcDbEntity
  8
M1
  6
CONTINUOUS
370
13
 62
     7
100
AcDbLine
 10
438.270838
 20
652.901699
 11
425.405848
 21
652.901699
  0
LINE
  5
D1
100
AcDbEntity
  8
M1
  6
CONTINUOUS
370
13
 62
     7
100
AcDbLine
 10
1028.294551
 20
652.901699
 11
1006.658137
 21
652.901699
  0
LINE
  5
D2
100
AcDbEntity
  8
M1
  6
CONTINUOUS
370
13
 62
     7
100
AcDbLine
 10
431.833827
 20
731.160306
 11
431.833827
 21
712.14288
  0
LINE
  5
D3
100
AcDbEntity
  8
M1
  6
CONTINUOUS
370
25
 62
     7
100
AcDbLine
 10
361.771814
 20
779.851406
 11
354.070887
 21
793.189359
  0
LINE
  5
D4
100
AcDbEntity
  8
M1
  6
CONTINUOUS
370
25
 62
     7
100
AcDbLine
 10
356.92184
 20
777.051113
 11
349.723841
 21
789.517117
  0
LINE
  5
D5
100
AcDbEntity
  8
M1
  6
CONTINUOUS
370
25
 62
     7
100
AcDbLine
 10
354.069788
 20
793.191494
 11
349.723841
 21
789.519376
  0
LINE
  5
D6
100
AcDbEntity
  8
M1
  6
CONTINUOUS
370
25
 62
     7
100
AcDbLine
 10
352.012781
 20
796.753872
 11
347.805873
 21
792.841886
  0
LINE
  5
D7
100
AcDbEntity
  8
M1
  6
CONTINUOUS
370
25
 62
     7
100
AcDbLine
 10
352.013881
 20
796.75259
 11
342.950891
 21
812.451504
  0
LINE
  5
D8
100
AcDbEntity
  8
M1
  6
CONTINUOUS
370
25
 62
     7
100
AcDbLine
 10
347.805873
 20
792.840603
 11
338.099818
 21
809.651699
  0
LINE
  5
D9
100
AcDbEntity
  8
M1
  6
CONTINUOUS
370
25
 62
     7
100
AcDbLine
 10
341.739833
 20
824.350613
 11
345.239833
 21
830.412503
  0
LINE
  5
DA
100
AcDbEntity
  8
M1
  6
CONTINUOUS
370
25
 62
     7
100
AcDbLine
 10
340.52682
 20
825.051786
 11
342.951868
 21
823.651883
  0
LINE
  5
DB
100
AcDbEntity
  8
M1
  6
CONTINUOUS
370
25
 62
     7
100
AcDbLine
 10
340.52682
 20
811.051603
 11
349.91183
 21
794.796659
  0
LINE
  5
DC
100
AcDbEntity
  8
M1
  6
CONTINUOUS
370
25
 62
     7
100
AcDbLine
 10
351.89889
 20
791.353116
 11
359.333827
 21
778.475002
  0
LINE
  5
DD
100
AcDbEntity
  8
M1
  6
CONTINUOUS
370
25
 62
     7
100
AcDbLine
 10
328.400844
 20
816.652066
 11
321.400844
 21
816.650967
  0
LINE
  5
DE
100
AcDbEntity
  8
M1
  6
CONTINUOUS
370
25
 62
     7
100
AcDbLine
 10
328.402797
 20
818.051663
 11
328.400844
 21
815.251676
  0
LINE
  5
DF
100
AcDbEntity
  8
M1
  6
CONTINUOUS
370
25
 62
     7
100
AcDbLine
 10
524.93246
 20
714.157499
 11
524.93246
 21
706.651792
  0
LINE
  5
E0
100
AcDbEntity
  8
M1
  6
CONTINUOUS
370
25
 62
     7
100
AcDbLine
 10
531.422023
 20
717.904812
 11
524.931727
 21
714.157559
  0
LINE
  5
E1
100
AcDbEntity
  8
M1
  6
CONTINUOUS
370
25
 62
     7
100
AcDbLine
 10
531.422756
 20
717.904569
 11
537.922756
 21
714.15176
  0
LINE
  5
E2
100
AcDbEntity
  8
M1
  6
CONTINUOUS
370
25
 62
     7
100
AcDbLine
 10
537.922938
 20
706.645992
 11
537.922938
 21
714.151577
  0
LINE
  5
E3
100
AcDbEntity
  8
M1
  6
CONTINUOUS
370
25
 62
     7
100
AcDbLine
 10
537.922023
 20
706.646299
 11
531.431666
 21
702.899076
  0
LINE
  5
E4
100
AcDbEntity
  8
M1
  6
CONTINUOUS
370
25
 62
     7
100
AcDbLine
 10
531.431056
 20
702.897489
 11
524.930934
 21
706.650296
  0
LINE
  5
E5
100
AcDbEntity
  8
M1
  6
CONTINUOUS
370
25
 62
     7
100
AcDbLine
 10
425.333827
 20
764.154812
 11
431.833827
 21
760.402004
  0
LINE
  5
E6
100
AcDbEntity
  8
M1
  6
CONTINUOUS
370
25
 62
     7
100
AcDbLine
 10
425.333827
 20
771.648892
 11
425.333827
 21
764.154507
  0
LINE
  5
E7
100
AcDbEntity
  8
M1
  6
CONTINUOUS
370
25
 62
     7
100
AcDbLine
 10
425.333827
 20
771.649807
 11
431.833827
 21
775.402616
  0
LINE
  5
E8
100
AcDbEntity
  8
M1
  6
CONTINUOUS
370
25
 62
     7
100
AcDbLine
 10
438.333827
 20
771.649076
 11
431.833827
 21
775.402004
  0
LINE
  5
E9
100
AcDbEntity
  8
M1
  6
CONTINUOUS
370
25
 62
     7
100
AcDbLine
 10
438.333827
 20
771.649014
 11
438.333827
 21
764.154507
  0
LINE
  5
EA
100
AcDbEntity
  8
M1
  6
CONTINUOUS
370
25
 62
     7
100
AcDbLine
 10
438.334804
 20
764.152982
 11
431.834804
 21
760.400173
  0
LINE
  5
EB
100
AcDbEntity
  8
M1
  6
CONTINUOUS
370
25
 62
     7
100
AcDbLine
 10
332.236781
 20
702.89819
 11
338.736781
 21
706.650997
  0
LINE
  5
EC
100
AcDbEntity
  8
M1
  6
CONTINUOUS
370
25
 62
     7
100
AcDbLine
 10
325.745814
 20
706.646084
 11
332.236781
 21
702.898892
  0
LINE
  5
ED
100
AcDbEntity
  8
M1
  6
CONTINUOUS
370
25
 62
     7
100
AcDbLine
 10
325.745814
 20
706.646482
 11
325.745814
 21
714.152066
  0
LINE
  5
EE
100
AcDbEntity
  8
M1
  6
CONTINUOUS
370
25
 62
     7
100
AcDbLine
 10
332.246791
 20
717.903774
 11
325.746791
 21
714.150967
  0
LINE
  5
EF
100
AcDbEntity
  8
M1
  6
CONTINUOUS
370
25
 62
     7
100
AcDbLine
 10
332.245814
 20
717.904263
 11
338.736781
 21
714.15707
  0
LINE
  5
F0
100
AcDbEntity
  8
M1
  6
CONTINUOUS
370
25
 62
     7
100
AcDbLine
 10
338.73788
 20
714.157314
 11
338.73788
 21
706.651699
  0
LINE
  5
F1
100
AcDbEntity
  8
M1
  6
CONTINUOUS
370
25
 62
     7
100
AcDbLine
 10
338.735804
 20
591.645992
 11
338.735804
 21
599.151699
  0
LINE
  5
F2
100
AcDbEntity
  8
M1
  6
CONTINUOUS
370
25
 62
     7
100
AcDbLine
 10
332.245814
 20
587.899686
 11
338.735804
 21
591.646877
  0
LINE
  5
F3
100
AcDbEntity
  8
M1
  6
CONTINUOUS
370
25
 62
     7
100
AcDbLine
 10
332.245814
 20
587.898586
 11
325.745814
 21
591.651394
  0
LINE
  5
F4
100
AcDbEntity
  8
M1
  6
CONTINUOUS
370
25
 62
     7
100
AcDbLine
 10
325.745814
 20
599.157376
 11
325.745814
 21
591.651792
  0
LINE
  5
F5
100
AcDbEntity
  8
M1
  6
CONTINUOUS
370
25
 62
     7
100
AcDbLine
 10
325.745814
 20
599.158292
 11
332.235804
 21
602.905483
  0
LINE
  5
F6
100
AcDbEntity
  8
M1
  6
CONTINUOUS
370
25
 62
     7
100
AcDbLine
 10
332.236781
 20
602.905576
 11
338.736781
 21
599.152799
  0
LINE
  5
F7
100
AcDbEntity
  8
M1
  6
CONTINUOUS
370
25
 62
     7
100
AcDbLine
 10
438.333827
 20
541.648373
 11
431.833827
 21
545.40118
  0
LINE
  5
F8
100
AcDbEntity
  8
M1
  6
CONTINUOUS
370
25
 62
     7
100
AcDbLine
 10
438.333827
 20
534.154599
 11
438.333827
 21
541.648983
  0
LINE
  5
F9
100
AcDbEntity
  8
M1
  6
CONTINUOUS
370
25
 62
     7
100
AcDbLine
 10
438.333827
 20
534.154599
 11
431.833827
 21
530.401792
  0
LINE
  5
FA
100
AcDbEntity
  8
M1
  6
CONTINUOUS
370
25
 62
     7
100
AcDbLine
 10
425.333827
 20
534.15408
 11
431.833827
 21
530.401273
  0
LINE
  5
FB
100
AcDbEntity
  8
M1
  6
CONTINUOUS
370
25
 62
     7
100
AcDbLine
 10
425.333827
 20
534.154599
 11
425.333827
 21
541.648983
  0
LINE
  5
FC
100
AcDbEntity
  8
M1
  6
CONTINUOUS
370
25
 62
     7
100
AcDbLine
 10
425.33285
 20
541.650997
 11
431.83285
 21
545.403774
  0
LINE
  5
FD
100
AcDbEntity
  8
M1
  6
CONTINUOUS
370
25
 62
     7
100
AcDbLine
 10
531.43191
 20
602.905087
 11
524.93191
 21
599.152279
  0
LINE
  5
FE
100
AcDbEntity
  8
M1
  6
CONTINUOUS
370
25
 62
     7
100
AcDbLine
 10
537.922328
 20
599.157284
 11
531.432033
 21
602.904476
  0
LINE
  5
FF
100
AcDbEntity
  8
M1
  6
CONTINUOUS
370
25
 62
     7
100
AcDbLine
 10
537.922938
 20
599.156979
 11
537.922938
 21
591.651394
  0
LINE
  5
100
100
AcDbEntity
  8
M1
  6
CONTINUOUS
370
25
 62
     7
100
AcDbLine
 10
531.421961
 20
587.899076
 11
537.922023
 21
591.651883
  0
LINE
  5
101
100
AcDbEntity
  8
M1
  6
CONTINUOUS
370
25
 62
     7
100
AcDbLine
 10
531.422328
 20
587.898983
 11
524.932033
 21
591.646176
  0
LINE
  5
102
100
AcDbEntity
  8
M1
  6
CONTINUOUS
370
25
 62
     7
100
AcDbLine
 10
524.930628
 20
591.646176
 11
524.930628
 21
599.151792
  0
LINE
  5
103
100
AcDbEntity
  8
M1
  6
CONTINUOUS
370
25
 62
     7
100
AcDbLine
 10
773.603418
 20
774.201566
 11
773.603418
 21
761.601773
  0
LINE
  5
104
100
AcDbEntity
  8
M1
  6
CONTINUOUS
370
25
 62
     7
100
AcDbLine
 10
779.103418
 20
775.601712
 11
779.103418
 21
760.201687
  0
LINE
  5
105
100
AcDbEntity
  8
M1
  6
CONTINUOUS
370
25
 62
     7
100
AcDbLine
 10
779.103418
 20
760.201687
 11
781.103418
 21
760.201687
  0
LINE
  5
106
100
AcDbEntity
  8
M1
  6
CONTINUOUS
370
25
 62
     7
100
AcDbLine
 10
779.103418
 20
775.601712
 11
781.103418
 21
775.601712
  0
LINE
  5
107
100
AcDbEntity
  8
M1
  6
CONTINUOUS
370
25
 62
     7
100
AcDbLine
 10
779.103846
 20
768.482816
 11
781.103846
 21
770.482816
  0
LINE
  5
108
100
AcDbEntity
  8
M1
  6
CONTINUOUS
370
25
 62
     7
100
AcDbLine
 10
779.103968
 20
765.65408
 11
781.10403
 21
767.654202
  0
LINE
  5
109
100
AcDbEntity
  8
M1
  6
CONTINUOUS
370
25
 62
     7
100
AcDbLine
 10
774.296351
 20
771.901699
 11
779.103418
 21
771.901699
  0
LINE
  5
10A
100
AcDbEntity
  8
M1
  6
CONTINUOUS
370
25
 62
     7
100
AcDbLine
 10
774.296351
 20
763.901699
 11
779.103418
 21
763.901699
  0
LINE
  5
10B
100
AcDbEntity
  8
M1
  6
CONTINUOUS
370
25
 62
     7
100
AcDbLine
 10
774.296351
 20
760.401699
 11
779.103418
 21
760.401699
  0
LINE
  5
10C
100
AcDbEntity
  8
M1
  6
CONTINUOUS
370
25
 62
     7
100
AcDbLine
 10
774.296351
 20
775.401699
 11
779.103418
 21
775.401699
  0
LINE
  5
10D
100
AcDbEntity
  8
M1
  6
CONTINUOUS
370
25
 62
     7
100
AcDbLine
 10
773.60287
 20
774.20187
 11
774.295618
 21
775.402066
  0
LINE
  5
10E
100
AcDbEntity
  8
M1
  6
CONTINUOUS
370
25
 62
     7
100
AcDbLine
 10
773.603418
 20
761.602017
 11
774.296228
 21
760.40176
  0
LINE
  5
10F
100
AcDbEntity
  8
M1
  6
CONTINUOUS
370
25
 62
     7
100
AcDbLine
 10
773.603418
 20
589.101773
 11
773.603418
 21
601.701596
  0
LINE
  5
110
100
AcDbEntity
  8
M1
  6
CONTINUOUS
370
25
 62
     7
100
AcDbLine
 10
779.103418
 20
587.701687
 11
779.103418
 21
603.101682
  0
LINE
  5
111
100
AcDbEntity
  8
M1
  6
CONTINUOUS
370
25
 62
     7
100
AcDbLine
 10
779.103418
 20
603.101682
 11
781.103418
 21
603.101682
  0
LINE
  5
112
100
AcDbEntity
  8
M1
  6
CONTINUOUS
370
25
 62
     7
100
AcDbLine
 10
779.103418
 20
587.701687
 11
781.103418
 21
587.701687
  0
LINE
  5
113
100
AcDbEntity
  8
M1
  6
CONTINUOUS
370
25
 62
     7
100
AcDbLine
 10
774.296351
 20
591.401699
 11
779.103418
 21
591.401699
  0
LINE
  5
114
100
AcDbEntity
  8
M1
  6
CONTINUOUS
370
25
 62
     7
100
AcDbLine
 10
774.296351
 20
599.401699
 11
779.103418
 21
599.401699
  0
LINE
  5
115
100
AcDbEntity
  8
M1
  6
CONTINUOUS
370
25
 62
     7
100
AcDbLine
 10
774.296351
 20
602.901699
 11
779.103418
 21
602.901699
  0
LINE
  5
116
100
AcDbEntity
  8
M1
  6
CONTINUOUS
370
25
 62
     7
100
AcDbLine
 10
774.296351
 20
587.901699
 11
779.103418
 21
587.901699
  0
LINE
  5
117
100
AcDbEntity
  8
M1
  6
CONTINUOUS
370
25
 62
     7
100
AcDbLine
 10
773.603114
 20
589.101589
 11
774.295924
 21
587.901486
  0
LINE
  5
118
100
AcDbEntity
  8
M1
  6
CONTINUOUS
370
25
 62
     7
100
AcDbLine
 10
773.603724
 20
601.701382
 11
774.296534
 21
602.901486
  0
LINE
  5
119
100
AcDbEntity
  8
M1
  6
CONTINUOUS
370
25
 62
     7
100
AcDbLine
 10
900.603418
 20
716.701566
 11
900.603418
 21
704.101773
  0
LINE
  5
11A
100
AcDbEntity
  8
M1
  6
CONTINUOUS
370
25
 62
     7
100
AcDbLine
 10
895.103418
 20
718.101712
 11
895.103418
 21
702.701687
  0
LINE
  5
11B
100
AcDbEntity
  8
M1
  6
CONTINUOUS
370
25
 62
     7
100
AcDbLine
 10
895.103418
 20
702.701687
 11
893.103418
 21
702.701687
  0
LINE
  5
11C
100
AcDbEntity
  8
M1
  6
CONTINUOUS
370
25
 62
     7
100
AcDbLine
 10
895.103418
 20
718.101712
 11
893.103418
 21
718.101712
  0
LINE
  5
11D
100
AcDbEntity
  8
M1
  6
CONTINUOUS
370
25
 62
     7
100
AcDbLine
 10
899.910608
 20
714.401699
 11
895.103418
 21
714.401699
  0
LINE
  5
11E
100
AcDbEntity
  8
M1
  6
CONTINUOUS
370
25
 62
     7
100
AcDbLine
 10
899.910608
 20
706.401699
 11
895.103418
 21
706.401699
  0
LINE
  5
11F
100
AcDbEntity
  8
M1
  6
CONTINUOUS
370
25
 62
     7
100
AcDbLine
 10
899.910608
 20
702.901699
 11
895.103418
 21
702.901699
  0
LINE
  5
120
100
AcDbEntity
  8
M1
  6
CONTINUOUS
370
25
 62
     7
100
AcDbLine
 10
899.910608
 20
717.901699
 11
895.103418
 21
717.901699
  0
LINE
  5
121
100
AcDbEntity
  8
M1
  6
CONTINUOUS
370
25
 62
     7
100
AcDbLine
 10
900.603846
 20
716.701687
 11
899.910914
 21
717.90176
  0
LINE
  5
122
100
AcDbEntity
  8
M1
  6
CONTINUOUS
370
25
 62
     7
100
AcDbLine
 10
900.603724
 20
704.101682
 11
899.910914
 21
702.901577
  0
LINE
  5
123
100
AcDbEntity
  8
M1
  6
CONTINUOUS
370
25
 62
     7
100
AcDbLine
 10
900.603418
 20
589.101773
 11
900.603418
 21
601.701596
  0
LINE
  5
124
100
AcDbEntity
  8
M1
  6
CONTINUOUS
370
25
 62
     7
100
AcDbLine
 10
895.103418
 20
587.701687
 11
895.103418
 21
603.101682
  0
LINE
  5
125
100
AcDbEntity
  8
M1
  6
CONTINUOUS
370
25
 62
     7
100
AcDbLine
 10
895.103418
 20
603.101682
 11
893.103418
 21
603.101682
  0
LINE
  5
126
100
AcDbEntity
  8
M1
  6
CONTINUOUS
370
25
 62
     7
100
AcDbLine
 10
895.103418
 20
587.701687
 11
893.103418
 21
587.701687
  0
LINE
  5
127
100
AcDbEntity
  8
M1
  6
CONTINUOUS
370
25
 62
     7
100
AcDbLine
 10
895.103358
 20
594.8204
 11
893.103358
 21
592.8204
  0
LINE
  5
128
100
AcDbEntity
  8
M1
  6
CONTINUOUS
370
25
 62
     7
100
AcDbLine
 10
895.103418
 20
597.6488
 11
893.103358
 21
595.6488
  0
LINE
  5
129
100
AcDbEntity
  8
M1
  6
CONTINUOUS
370
25
 62
     7
100
AcDbLine
 10
899.910608
 20
591.401699
 11
895.103418
 21
591.401699
  0
LINE
  5
12A
100
AcDbEntity
  8
M1
  6
CONTINUOUS
370
25
 62
     7
100
AcDbLine
 10
899.910608
 20
599.401699
 11
895.103418
 21
599.401699
  0
LINE
  5
12B
100
AcDbEntity
  8
M1
  6
CONTINUOUS
370
25
 62
     7
100
AcDbLine
 10
899.910608
 20
602.901699
 11
895.103418
 21
602.901699
  0
LINE
  5
12C
100
AcDbEntity
  8
M1
  6
CONTINUOUS
370
25
 62
     7
100
AcDbLine
 10
899.910608
 20
587.901699
 11
895.103418
 21
587.901699
  0
LINE
  5
12D
100
AcDbEntity
  8
M1
  6
CONTINUOUS
370
25
 62
     7
100
AcDbLine
 10
900.603663
 20
589.101682
 11
899.910853
 21
587.901577
  0
LINE
  5
12E
100
AcDbEntity
  8
M1
  6
CONTINUOUS
370
25
 62
     7
100
AcDbLine
 10
900.603663
 20
601.701596
 11
899.910853
 21
602.901699
  0
LINE
  5
12F
100
AcDbEntity
  8
M1
  6
CONTINUOUS
370
25
 62
     7
100
AcDbLine
 10
421.833827
 20
780.510464
 11
421.833827
 21
708.155697
  0
LINE
  5
130
100
AcDbEntity
  8
M1
  6
CONTINUOUS
370
25
 62
     7
100
AcDbLine
 10
326.321864
 20
725.365873
 11
388.982876
 21
689.188596
  0
LINE
  5
131
100
AcDbEntity
  8
M1
  6
CONTINUOUS
370
25
 62
     7
100
AcDbLine
 10
441.833827
 20
780.510464
 11
441.833827
 21
708.155697
  0
LINE
  5
132
100
AcDbEntity
  8
M1
  6
CONTINUOUS
370
25
 62
     7
100
AcDbLine
 10
474.684778
 20
689.189389
 11
537.346461
 21
725.366787
  0
LINE
  5
133
100
AcDbEntity
  8
M1
  6
CONTINUOUS
370
25
 62
     7
100
AcDbLine
 10
398.723841
 20
698.931302
 11
391.916836
 21
707.64349
  0
LINE
  5
134
100
AcDbEntity
  8
M1
  6
CONTINUOUS
370
25
 62
     7
100
AcDbLine
 10
395.177821
 20
696.161099
 11
388.370814
 21
704.873196
  0
LINE
  5
135
100
AcDbEntity
  8
M1
  6
CONTINUOUS
370
25
 62
     7
100
AcDbLine
 10
412.695887
 20
706.275082
 11
408.553798
 21
716.525967
  0
LINE
  5
136
100
AcDbEntity
  8
M1
  6
CONTINUOUS
370
25
 62
     7
100
AcDbLine
 10
408.522791
 20
704.589383
 11
404.381801
 21
714.840299
  0
LINE
  5
137
100
AcDbEntity
  8
M1
  6
CONTINUOUS
370
25
 62
     7
100
AcDbLine
 10
547.346461
 20
708.045986
 11
484.68484
 21
671.868589
  0
LINE
  5
138
100
AcDbEntity
  8
M1
  6
CONTINUOUS
370
25
 62
     7
100
AcDbLine
 10
484.685817
 20
633.93478
 11
547.346644
 21
597.75729
  0
LINE
  5
139
100
AcDbEntity
  8
M1
  6
CONTINUOUS
370
25
 62
     7
100
AcDbLine
 10
537.346644
 20
580.436673
 11
474.685878
 21
616.614072
  0
LINE
  5
13A
100
AcDbEntity
  8
M1
  6
CONTINUOUS
370
25
 62
     7
100
AcDbLine
 10
441.833827
 20
597.647793
 11
441.833827
 21
525.292874
  0
LINE
  5
13B
100
AcDbEntity
  8
M1
  6
CONTINUOUS
370
25
 62
     7
100
AcDbLine
 10
421.833827
 20
525.292783
 11
421.833827
 21
597.647702
  0
LINE
  5
13C
100
AcDbEntity
  8
M1
  6
CONTINUOUS
370
25
 62
     7
100
AcDbLine
 10
388.982876
 20
616.614682
 11
326.321864
 21
580.437192
  0
LINE
  5
13D
100
AcDbEntity
  8
M1
  6
CONTINUOUS
370
25
 62
     7
100
AcDbLine
 10
316.321864
 20
597.757596
 11
378.982876
 21
633.934994
  0
LINE
  5
13E
100
AcDbEntity
  8
M1
  6
CONTINUOUS
370
25
 62
     7
100
AcDbLine
 10
378.982876
 20
671.868192
 11
316.321864
 21
708.04559
  0
LINE
  5
13F
100
AcDbEntity
  8
M1
  6
CONTINUOUS
370
13
 62
     7
100
AcDbLine
 10
363.89889
 20
613.679593
 11
379.666836
 21
622.783077
  0
LINE
  5
140
100
AcDbEntity
  8
M1
  6
CONTINUOUS
370
13
 62
     7
100
AcDbLine
 10
364.374843
 20
691.849087
 11
378.389857
 21
683.757687
  0
LINE
  5
141
100
AcDbEntity
  8
M1
  6
CONTINUOUS
370
13
 62
     7
100
AcDbLine
 10
484.731837
 20
622.360897
 11
499.244838
 21
613.981686
  0
LINE
  5
142
100
AcDbEntity
  8
M1
  6
CONTINUOUS
370
13
 62
     7
100
AcDbLine
 10
484.389857
 20
683.2449
 11
499.400844
 21
691.911893
  0
LINE
  5
143
100
AcDbEntity
  8
M1
  6
CONTINUOUS
370
25
 62
     7
100
AcDbLine
 10
450.969813
 20
706.276577
 11
455.110804
 21
716.52731
  0
LINE
  5
144
100
AcDbEntity
  8
M1
  6
CONTINUOUS
370
25
 62
     7
100
AcDbLine
 10
455.14181
 20
704.590573
 11
459.2839
 21
714.841396
  0
LINE
  5
145
100
AcDbEntity
  8
M1
  6
CONTINUOUS
370
25
 62
     7
100
AcDbLine
 10
464.942836
 20
698.932583
 11
471.748866
 21
707.644773
  0
LINE
  5
146
100
AcDbEntity
  8
M1
  6
CONTINUOUS
370
25
 62
     7
100
AcDbLine
 10
468.488856
 20
696.162076
 11
475.295863
 21
704.874172
  0
LINE
  5
147
100
AcDbEntity
  8
M1
  6
CONTINUOUS
370
25
 62
     7
100
AcDbLine
 10
487.625818
 20
663.016476
 11
498.573817
 21
664.555172
  0
LINE
  5
148
100
AcDbEntity
  8
M1
  6
CONTINUOUS
370
25
 62
     7
100
AcDbLine
 10
488.251857
 20
658.560299
 11
499.199856
 21
660.098996
  0
LINE
  5
149
100
AcDbEntity
  8
M1
  6
CONTINUOUS
370
25
 62
     7
100
AcDbLine
 10
488.252833
 20
647.244596
 11
499.200831
 21
645.70599
  0
LINE
  5
14A
100
AcDbEntity
  8
M1
  6
CONTINUOUS
370
25
 62
     7
100
AcDbLine
 10
487.625818
 20
642.788387
 11
498.574856
 21
641.249692
  0
LINE
  5
14B
100
AcDbEntity
  8
M1
  6
CONTINUOUS
370
25
 62
     7
100
AcDbLine
 10
468.486781
 20
609.640286
 11
475.293788
 21
600.928097
  0
LINE
  5
14C
100
AcDbEntity
  8
M1
  6
CONTINUOUS
370
25
 62
     7
100
AcDbLine
 10
464.940883
 20
606.8699
 11
471.747888
 21
598.157682
  0
LINE
  5
14D
100
AcDbEntity
  8
M1
  6
CONTINUOUS
370
25
 62
     7
100
AcDbLine
 10
455.144861
 20
601.213773
 11
459.285853
 21
590.962887
  0
LINE
  5
14E
100
AcDbEntity
  8
M1
  6
CONTINUOUS
370
25
 62
     7
100
AcDbLine
 10
450.971888
 20
599.528073
 11
455.113856
 21
589.277279
  0
LINE
  5
14F
100
AcDbEntity
  8
M1
  6
CONTINUOUS
370
25
 62
     7
100
AcDbLine
 10
412.692836
 20
599.529476
 11
408.550868
 21
589.278683
  0
LINE
  5
150
100
AcDbEntity
  8
M1
  6
CONTINUOUS
370
25
 62
     7
100
AcDbLine
 10
408.520838
 20
601.215176
 11
404.378871
 21
590.964383
  0
LINE
  5
151
100
AcDbEntity
  8
M1
  6
CONTINUOUS
370
25
 62
     7
100
AcDbLine
 10
398.725796
 20
606.870876
 11
391.918788
 21
598.158689
  0
LINE
  5
152
100
AcDbEntity
  8
M1
  6
CONTINUOUS
370
25
 62
     7
100
AcDbLine
 10
395.179896
 20
609.641293
 11
388.372888
 21
600.929073
  0
LINE
  5
153
100
AcDbEntity
  8
M1
  6
CONTINUOUS
370
25
 62
     7
100
AcDbLine
 10
376.041834
 20
642.790372
 11
365.093837
 21
641.251676
  0
LINE
  5
154
100
AcDbEntity
  8
M1
  6
CONTINUOUS
370
25
 62
     7
100
AcDbLine
 10
375.415858
 20
647.246793
 11
364.466884
 21
645.708096
  0
LINE
  5
155
100
AcDbEntity
  8
M1
  6
CONTINUOUS
370
25
 62
     7
100
AcDbLine
 10
375.415858
 20
658.558683
 11
364.46786
 21
660.097379
  0
LINE
  5
156
100
AcDbEntity
  8
M1
  6
CONTINUOUS
370
25
 62
     7
100
AcDbLine
 10
376.042811
 20
663.015073
 11
365.093837
 21
664.553799
  0
LINE
  5
157
100
AcDbEntity
  8
M1
  6
CONTINUOUS
370
25
 62
     7
100
AcDbLine
 10
520.676051
 20
663.117582
 11
531.57986
 21
664.64999
  0
LINE
  5
158
100
AcDbEntity
  8
M1
  6
CONTINUOUS
370
25
 62
     7
100
AcDbLine
 10
520.676111
 20
642.687893
 11
531.579921
 21
641.155483
  0
LINE
  5
159
100
AcDbEntity
  8
M1
  6
CONTINUOUS
370
25
 62
     7
100
AcDbLine
 10
467.407801
 20
734.949063
 11
471.532801
 21
745.158413
  0
LINE
  5
15A
100
AcDbEntity
  8
M1
  6
CONTINUOUS
370
25
 62
     7
100
AcDbLine
 10
485.100856
 20
724.734159
 11
491.879847
 21
733.411099
  0
LINE
  5
15B
100
AcDbEntity
  8
M1
  6
CONTINUOUS
370
25
 62
     7
100
AcDbLine
 10
378.565883
 20
724.733364
 11
371.78683
 21
733.410306
  0
LINE
  5
15C
100
AcDbEntity
  8
M1
  6
CONTINUOUS
370
25
 62
     7
100
AcDbLine
 10
396.257898
 20
734.947964
 11
392.132898
 21
745.157314
  0
LINE
  5
15D
100
AcDbEntity
  8
M1
  6
CONTINUOUS
370
25
 62
     7
100
AcDbLine
 10
342.991786
 20
642.688992
 11
332.087856
 21
641.156583
  0
LINE
  5
15E
100
AcDbEntity
  8
M1
  6
CONTINUOUS
370
25
 62
     7
100
AcDbLine
 10
342.991786
 20
663.11578
 11
332.087856
 21
664.64819
  0
LINE
  5
15F
100
AcDbEntity
  8
M1
  6
CONTINUOUS
370
25
 62
     7
100
AcDbLine
 10
396.254847
 20
570.856777
 11
392.129847
 21
560.647579
  0
LINE
  5
160
100
AcDbEntity
  8
M1
  6
CONTINUOUS
370
25
 62
     7
100
AcDbLine
 10
378.565883
 20
581.070584
 11
371.78683
 21
572.393796
  0
LINE
  5
161
100
AcDbEntity
  8
M1
  6
CONTINUOUS
370
25
 62
     7
100
AcDbLine
 10
485.098841
 20
581.067684
 11
491.877833
 21
572.390896
  0
LINE
  5
162
100
AcDbEntity
  8
M1
  6
CONTINUOUS
370
25
 62
     7
100
AcDbLine
 10
467.407801
 20
570.854794
 11
471.532801
 21
560.645474
  0
LINE
  5
163
100
AcDbEntity
  8
M1
  6
CONTINUOUS
370
25
 62
     7
100
AcDbLine
 10
1221.562846
 20
649.401699
 11
1228.562846
 21
649.401699
  0
LINE
  5
164
100
AcDbEntity
  8
M1
  6
CONTINUOUS
370
25
 62
     7
100
AcDbLine
 10
1221.562846
 20
656.401699
 11
1228.562846
 21
656.401699
  0
LINE
  5
165
100
AcDbEntity
  8
M1
  6
CONTINUOUS
370
25
 62
     7
100
AcDbLine
 10
1228.562738
 20
656.401792
 11
1228.562738
 21
649.401792
  0
LINE
  5
166
100
AcDbEntity
  8
M1
  6
CONTINUOUS
370
25
 62
     7
100
AcDbLine
 10
1221.562738
 20
656.401792
 11
1221.562738
 21
649.401792
  0
LINE
  5
167
100
AcDbEntity
  8
M1
  6
CONTINUOUS
370
13
 62
     7
100
AcDbLine
 10
1239.372737
 20
731.71957
 11
1239.372737
 21
712.702297
  0
LINE
  5
168
100
AcDbEntity
  8
M1
  6
CONTINUOUS
370
25
 62
     7
100
AcDbLine
 10
1305.380541
 20
772.829312
 11
1317.135737
 21
793.189359
  0
LINE
  5
169
100
AcDbEntity
  8
M1
  6
CONTINUOUS
370
25
 62
     7
100
AcDbLine
 10
1310.231143
 20
770.028713
 11
1321.482638
 21
789.516996
  0
LINE
  5
16A
100
AcDbEntity
  8
M1
  6
CONTINUOUS
370
25
 62
     7
100
AcDbLine
 10
1317.136638
 20
793.190702
 11
1321.482837
 21
789.518583
  0
LINE
  5
16B
100
AcDbEntity
  8
M1
  6
CONTINUOUS
370
25
 62
     7
100
AcDbLine
 10
1319.193041
 20
796.752957
 11
1323.400041
 21
792.840969
  0
LINE
  5
16C
100
AcDbEntity
  8
M1
  6
CONTINUOUS
370
25
 62
     7
100
AcDbLine
 10
1319.192438
 20
796.752712
 11
1328.255473
 21
812.451566
  0
LINE
  5
16D
100
AcDbEntity
  8
M1
  6
CONTINUOUS
370
25
 62
     7
100
AcDbLine
 10
1323.400041
 20
792.840969
 11
1333.106051
 21
809.652066
  0
LINE
  5
16E
100
AcDbEntity
  8
M1
  6
CONTINUOUS
370
25
 62
     7
100
AcDbLine
 10
1329.467837
 20
824.351284
 11
1325.967837
 21
830.413174
  0
LINE
  5
16F
100
AcDbEntity
  8
M1
  6
CONTINUOUS
370
25
 62
     7
100
AcDbLine
 10
1330.680903
 20
825.051602
 11
1328.255831
 21
823.651699
  0
LINE
  5
170
100
AcDbEntity
  8
M1
  6
CONTINUOUS
370
25
 62
     7
100
AcDbLine
 10
1330.680797
 20
811.051357
 11
1321.295741
 21
794.796476
  0
LINE
  5
171
100
AcDbEntity
  8
M1
  6
CONTINUOUS
370
25
 62
     7
100
AcDbLine
 10
1319.308436
 20
791.353359
 11
1307.805338
 21
771.429287
  0
LINE
  5
172
100
AcDbEntity
  8
M1
  6
CONTINUOUS
370
25
 62
     7
100
AcDbLine
 10
1342.806108
 20
816.652189
 11
1349.806108
 21
816.651212
  0
LINE
  5
173
100
AcDbEntity
  8
M1
  6
CONTINUOUS
370
25
 62
     7
100
AcDbLine
 10
1342.804788
 20
818.051663
 11
1342.805888
 21
815.251676
  0
LINE
  5
174
100
AcDbEntity
  8
M1
  6
CONTINUOUS
370
25
 62
     7
100
AcDbLine
 10
1146.274531
 20
714.157499
 11
1146.274531
 21
706.651792
  0
LINE
  5
175
100
AcDbEntity
  8
M1
  6
CONTINUOUS
370
25
 62
     7
100
AcDbLine
 10
1139.784846
 20
717.904569
 11
1146.275233
 21
714.157499
  0
LINE
  5
176
100
AcDbEntity
  8
M1
  6
CONTINUOUS
370
25
 62
     7
100
AcDbLine
 10
1139.784327
 20
717.90469
 11
1133.284327
 21
714.152004
  0
LINE
  5
177
100
AcDbEntity
  8
M1
  6
CONTINUOUS
370
25
 62
     7
100
AcDbLine
 10
1133.284053
 20
706.645992
 11
1133.284053
 21
714.151577
  0
LINE
  5
178
100
AcDbEntity
  8
M1
  6
CONTINUOUS
370
25
 62
     7
100
AcDbLine
 10
1133.284846
 20
706.646299
 11
1139.775141
 21
702.899076
  0
LINE
  5
179
100
AcDbEntity
  8
M1
  6
CONTINUOUS
370
25
 62
     7
100
AcDbLine
 10
1139.776148
 20
702.897396
 11
1146.27624
 21
706.650173
  0
LINE
  5
17A
100
AcDbEntity
  8
M1
  6
CONTINUOUS
370
25
 62
     7
100
AcDbLine
 10
1245.872844
 20
764.154507
 11
1239.372844
 21
760.401699
  0
LINE
  5
17B
100
AcDbEntity
  8
M1
  6
CONTINUOUS
370
25
 62
     7
100
AcDbLine
 10
1245.872737
 20
771.648892
 11
1245.872737
 21
764.154507
  0
LINE
  5
17C
100
AcDbEntity
  8
M1
  6
CONTINUOUS
370
25
 62
     7
100
AcDbLine
 10
1245.872844
 20
771.649503
 11
1239.372844
 21
775.40231
  0
LINE
  5
17D
100
AcDbEntity
  8
M1
  6
CONTINUOUS
370
25
 62
     7
100
AcDbLine
 10
1232.872934
 20
771.648586
 11
1239.373041
 21
775.401394
  0
LINE
  5
17E
100
AcDbEntity
  8
M1
  6
CONTINUOUS
370
25
 62
     7
100
AcDbLine
 10
1232.872737
 20
771.649014
 11
1232.872737
 21
764.154507
  0
LINE
  5
17F
100
AcDbEntity
  8
M1
  6
CONTINUOUS
370
25
 62
     7
100
AcDbLine
 10
1232.872141
 20
764.153469
 11
1239.37234
 21
760.400663
  0
LINE
  5
180
100
AcDbEntity
  8
M1
  6
CONTINUOUS
370
25
 62
     7
100
AcDbLine
 10
1338.970491
 20
702.8988
 11
1332.4705
 21
706.651577
  0
LINE
  5
181
100
AcDbEntity
  8
M1
  6
CONTINUOUS
370
25
 62
     7
100
AcDbLine
 10
1345.460696
 20
706.646389
 11
1338.970363
 21
702.899289
  0
LINE
  5
182
100
AcDbEntity
  8
M1
  6
CONTINUOUS
370
25
 62
     7
100
AcDbLine
 10
1345.46139
 20
706.646482
 11
1345.46139
 21
714.152066
  0
LINE
  5
183
100
AcDbEntity
  8
M1
  6
CONTINUOUS
370
25
 62
     7
100
AcDbLine
 10
1338.960803
 20
717.904507
 11
1345.460826
 21
714.151577
  0
LINE
  5
184
100
AcDbEntity
  8
M1
  6
CONTINUOUS
370
25
 62
     7
100
AcDbLine
 10
1338.960757
 20
717.904812
 11
1332.470416
 21
714.157559
  0
LINE
  5
185
100
AcDbEntity
  8
M1
  6
CONTINUOUS
370
25
 62
     7
100
AcDbLine
 10
1332.469081
 20
714.157314
 11
1332.469081
 21
706.651699
  0
LINE
  5
186
100
AcDbEntity
  8
M1
  6
CONTINUOUS
370
25
 62
     7
100
AcDbLine
 10
1332.470911
 20
591.645992
 11
1332.470911
 21
599.151699
  0
LINE
  5
187
100
AcDbEntity
  8
M1
  6
CONTINUOUS
370
25
 62
     7
100
AcDbLine
 10
1338.960978
 20
587.899197
 11
1332.470561
 21
591.646389
  0
LINE
  5
188
100
AcDbEntity
  8
M1
  6
CONTINUOUS
370
25
 62
     7
100
AcDbLine
 10
1338.961511
 20
587.898373
 11
1345.461627
 21
591.651272
  0
LINE
  5
189
100
AcDbEntity
  8
M1
  6
CONTINUOUS
370
25
 62
     7
100
AcDbLine
 10
1345.46139
 20
599.157376
 11
1345.46139
 21
591.651792
  0
LINE
  5
18A
100
AcDbEntity
  8
M1
  6
CONTINUOUS
370
25
 62
     7
100
AcDbLine
 10
1345.460948
 20
599.157499
 11
1338.970607
 21
602.90469
  0
LINE
  5
18B
100
AcDbEntity
  8
M1
  6
CONTINUOUS
370
25
 62
     7
100
AcDbLine
 10
1338.97008
 20
602.905483
 11
1332.469951
 21
599.152676
  0
LINE
  5
18C
100
AcDbEntity
  8
M1
  6
CONTINUOUS
370
25
 62
     7
100
AcDbLine
 10
1232.872934
 20
541.648282
 11
1239.372936
 21
545.401089
  0
LINE
  5
18D
100
AcDbEntity
  8
M1
  6
CONTINUOUS
370
25
 62
     7
100
AcDbLine
 10
1232.872646
 20
534.154599
 11
1232.872646
 21
541.648983
  0
LINE
  5
18E
100
AcDbEntity
  8
M1
  6
CONTINUOUS
370
25
 62
     7
100
AcDbLine
 10
1232.872737
 20
534.153774
 11
1239.372844
 21
530.400997
  0
LINE
  5
18F
100
AcDbEntity
  8
M1
  6
CONTINUOUS
370
25
 62
     7
100
AcDbLine
 10
1245.873438
 20
534.153896
 11
1239.37324
 21
530.401089
  0
LINE
  5
190
100
AcDbEntity
  8
M1
  6
CONTINUOUS
370
25
 62
     7
100
AcDbLine
 10
1245.872646
 20
534.154599
 11
1245.872646
 21
541.648983
  0
LINE
  5
191
100
AcDbEntity
  8
M1
  6
CONTINUOUS
370
25
 62
     7
100
AcDbLine
 10
1245.873637
 20
541.650083
 11
1239.373438
 21
545.402889
  0
LINE
  5
192
100
AcDbEntity
  8
M1
  6
CONTINUOUS
370
25
 62
     7
100
AcDbLine
 10
1139.774746
 20
602.904172
 11
1146.274746
 21
599.151394
  0
LINE
  5
193
100
AcDbEntity
  8
M1
  6
CONTINUOUS
370
25
 62
     7
100
AcDbLine
 10
1133.284633
 20
599.157682
 11
1139.774928
 21
602.904873
  0
LINE
  5
194
100
AcDbEntity
  8
M1
  6
CONTINUOUS
370
25
 62
     7
100
AcDbLine
 10
1133.284053
 20
599.156979
 11
1133.284053
 21
591.651394
  0
LINE
  5
195
100
AcDbEntity
  8
M1
  6
CONTINUOUS
370
25
 62
     7
100
AcDbLine
 10
1139.784633
 20
587.898373
 11
1133.284541
 21
591.65118
  0
LINE
  5
196
100
AcDbEntity
  8
M1
  6
CONTINUOUS
370
25
 62
     7
100
AcDbLine
 10
1139.784846
 20
587.898892
 11
1146.275141
 21
591.646176
  0
LINE
  5
197
100
AcDbEntity
  8
M1
  6
CONTINUOUS
370
25
 62
     7
100
AcDbLine
 10
1146.276331
 20
591.646176
 11
1146.276331
 21
599.151792
  0
LINE
  5
198
100
AcDbEntity
  8
M1
  6
CONTINUOUS
370
25
 62
     7
100
AcDbLine
 10
1249.372737
 20
780.510464
 11
1249.372737
 21
708.155697
  0
LINE
  5
199
100
AcDbEntity
  8
M1
  6
CONTINUOUS
370
25
 62
     7
100
AcDbLine
 10
1344.885493
 20
725.365994
 11
1282.224437
 21
689.188596
  0
LINE
  5
19A
100
AcDbEntity
  8
M1
  6
CONTINUOUS
370
25
 62
     7
100
AcDbLine
 10
1229.372737
 20
780.510464
 11
1229.372737
 21
708.155697
  0
LINE
  5
19B
100
AcDbEntity
  8
M1
  6
CONTINUOUS
370
25
 62
     7
100
AcDbLine
 10
1196.521341
 20
689.188687
 11
1133.860226
 21
725.366116
  0
LINE
  5
19C
100
AcDbEntity
  8
M1
  6
CONTINUOUS
370
25
 62
     7
100
AcDbLine
 10
1272.48144
 20
698.932889
 11
1279.288141
 21
707.645077
  0
LINE
  5
19D
100
AcDbEntity
  8
M1
  6
CONTINUOUS
370
25
 62
     7
100
AcDbLine
 10
1276.027446
 20
696.16238
 11
1282.834131
 21
704.8746
  0
LINE
  5
19E
100
AcDbEntity
  8
M1
  6
CONTINUOUS
370
25
 62
     7
100
AcDbLine
 10
1258.510234
 20
706.275479
 11
1262.651834
 21
716.526273
  0
LINE
  5
19F
100
AcDbEntity
  8
M1
  6
CONTINUOUS
370
25
 62
     7
100
AcDbLine
 10
1262.682536
 20
704.589779
 11
1266.824138
 21
714.840603
  0
LINE
  5
1A0
100
AcDbEntity
  8
M1
  6
CONTINUOUS
370
25
 62
     7
100
AcDbLine
 10
1123.860133
 20
708.045682
 11
1186.521341
 21
671.868192
  0
LINE
  5
1A1
100
AcDbEntity
  8
M1
  6
CONTINUOUS
370
25
 62
     7
100
AcDbLine
 10
1186.521341
 20
633.935392
 11
1123.860041
 21
597.7579
  0
LINE
  5
1A2
100
AcDbEntity
  8
M1
  6
CONTINUOUS
370
25
 62
     7
100
AcDbLine
 10
1133.860438
 20
580.436886
 11
1196.521541
 21
616.614286
  0
LINE
  5
1A3
100
AcDbEntity
  8
M1
  6
CONTINUOUS
370
25
 62
     7
100
AcDbLine
 10
1229.372737
 20
597.647793
 11
1229.372737
 21
525.292874
  0
LINE
  5
1A4
100
AcDbEntity
  8
M1
  6
CONTINUOUS
370
25
 62
     7
100
AcDbLine
 10
1249.372646
 20
525.292783
 11
1249.372646
 21
597.647702
  0
LINE
  5
1A5
100
AcDbEntity
  8
M1
  6
CONTINUOUS
370
25
 62
     7
100
AcDbLine
 10
1282.224147
 20
616.614499
 11
1344.885333
 21
580.436979
  0
LINE
  5
1A6
100
AcDbEntity
  8
M1
  6
CONTINUOUS
370
25
 62
     7
100
AcDbLine
 10
1354.88528
 20
597.757596
 11
1292.224238
 21
633.934994
  0
LINE
  5
1A7
100
AcDbEntity
  8
M1
  6
CONTINUOUS
370
25
 62
     7
100
AcDbLine
 10
1292.224344
 20
671.868099
 11
1354.885493
 21
708.04559
  0
LINE
  5
1A8
100
AcDbEntity
  8
M1
  6
CONTINUOUS
370
13
 62
     7
100
AcDbLine
 10
1307.307841
 20
613.679073
 11
1291.540141
 21
622.782499
  0
LINE
  5
1A9
100
AcDbEntity
  8
M1
  6
CONTINUOUS
370
13
 62
     7
100
AcDbLine
 10
1306.83224
 20
691.848783
 11
1292.817438
 21
683.75729
  0
LINE
  5
1AA
100
AcDbEntity
  8
M1
  6
CONTINUOUS
370
13
 62
     7
100
AcDbLine
 10
1186.475444
 20
622.360196
 11
1171.962246
 21
613.980984
  0
LINE
  5
1AB
100
AcDbEntity
  8
M1
  6
CONTINUOUS
370
13
 62
     7
100
AcDbLine
 10
1186.817241
 20
683.244992
 11
1171.805628
 21
691.911893
  0
LINE
  5
1AC
100
AcDbEntity
  8
M1
  6
CONTINUOUS
370
25
 62
     7
100
AcDbLine
 10
1220.23524
 20
706.275602
 11
1216.093638
 21
716.526273
  0
LINE
  5
1AD
100
AcDbEntity
  8
M1
  6
CONTINUOUS
370
25
 62
     7
100
AcDbLine
 10
1216.062938
 20
704.589779
 11
1211.921336
 21
714.840603
  0
LINE
  5
1AE
100
AcDbEntity
  8
M1
  6
CONTINUOUS
370
25
 62
     7
100
AcDbLine
 10
1206.264537
 20
698.932676
 11
1199.457941
 21
707.644894
  0
LINE
  5
1AF
100
AcDbEntity
  8
M1
  6
CONTINUOUS
370
25
 62
     7
100
AcDbLine
 10
1202.718547
 20
696.162289
 11
1195.911844
 21
704.874386
  0
LINE
  5
1B0
100
AcDbEntity
  8
M1
  6
CONTINUOUS
370
25
 62
     7
100
AcDbLine
 10
1183.581141
 20
663.014889
 11
1172.632747
 21
664.553586
  0
LINE
  5
1B1
100
AcDbEntity
  8
M1
  6
CONTINUOUS
370
25
 62
     7
100
AcDbLine
 10
1182.955043
 20
658.558683
 11
1172.006648
 21
660.097379
  0
LINE
  5
1B2
100
AcDbEntity
  8
M1
  6
CONTINUOUS
370
25
 62
     7
100
AcDbLine
 10
1182.954738
 20
647.244382
 11
1172.006343
 21
645.705686
  0
LINE
  5
1B3
100
AcDbEntity
  8
M1
  6
CONTINUOUS
370
25
 62
     7
100
AcDbLine
 10
1183.580943
 20
642.788479
 11
1172.63264
 21
641.249783
  0
LINE
  5
1B4
100
AcDbEntity
  8
M1
  6
CONTINUOUS
370
25
 62
     7
100
AcDbLine
 10
1202.71844
 20
609.641293
 11
1195.911738
 21
600.929073
  0
LINE
  5
1B5
100
AcDbEntity
  8
M1
  6
CONTINUOUS
370
25
 62
     7
100
AcDbLine
 10
1206.264841
 20
606.870693
 11
1199.458247
 21
598.158474
  0
LINE
  5
1B6
100
AcDbEntity
  8
M1
  6
CONTINUOUS
370
25
 62
     7
100
AcDbLine
 10
1216.062631
 20
601.213773
 11
1211.921046
 21
590.962979
  0
LINE
  5
1B7
100
AcDbEntity
  8
M1
  6
CONTINUOUS
370
25
 62
     7
100
AcDbLine
 10
1220.235041
 20
599.527889
 11
1216.09344
 21
589.276974
  0
LINE
  5
1B8
100
AcDbEntity
  8
M1
  6
CONTINUOUS
370
25
 62
     7
100
AcDbLine
 10
1258.510844
 20
599.527889
 11
1262.652446
 21
589.276974
  0
LINE
  5
1B9
100
AcDbEntity
  8
M1
  6
CONTINUOUS
370
25
 62
     7
100
AcDbLine
 10
1262.682933
 20
601.21368
 11
1266.824534
 21
590.962796
  0
LINE
  5
1BA
100
AcDbEntity
  8
M1
  6
CONTINUOUS
370
25
 62
     7
100
AcDbLine
 10
1272.480738
 20
606.870572
 11
1279.287547
 21
598.158474
  0
LINE
  5
1BB
100
AcDbEntity
  8
M1
  6
CONTINUOUS
370
25
 62
     7
100
AcDbLine
 10
1276.027034
 20
609.641079
 11
1282.833644
 21
600.92889
  0
LINE
  5
1BC
100
AcDbEntity
  8
M1
  6
CONTINUOUS
370
25
 62
     7
100
AcDbLine
 10
1295.165141
 20
642.788876
 11
1306.113337
 21
641.250179
  0
LINE
  5
1BD
100
AcDbEntity
  8
M1
  6
CONTINUOUS
370
25
 62
     7
100
AcDbLine
 10
1295.791346
 20
647.244686
 11
1306.739741
 21
645.70599
  0
LINE
  5
1BE
100
AcDbEntity
  8
M1
  6
CONTINUOUS
370
25
 62
     7
100
AcDbLine
 10
1295.790934
 20
658.55859
 11
1306.739238
 21
660.097286
  0
LINE
  5
1BF
100
AcDbEntity
  8
M1
  6
CONTINUOUS
370
25
 62
     7
100
AcDbLine
 10
1295.164744
 20
663.014584
 11
1306.11304
 21
664.55328
  0
LINE
  5
1C0
100
AcDbEntity
  8
M1
  6
CONTINUOUS
370
25
 62
     7
100
AcDbLine
 10
1150.530848
 20
663.11578
 11
1139.62704
 21
664.64819
  0
LINE
  5
1C1
100
AcDbEntity
  8
M1
  6
CONTINUOUS
370
25
 62
     7
100
AcDbLine
 10
1150.531154
 20
642.687589
 11
1139.627131
 21
641.155087
  0
LINE
  5
1C2
100
AcDbEntity
  8
M1
  6
CONTINUOUS
370
25
 62
     7
100
AcDbLine
 10
1203.797633
 20
734.948269
 11
1199.67274
 21
745.157559
  0
LINE
  5
1C3
100
AcDbEntity
  8
M1
  6
CONTINUOUS
370
25
 62
     7
100
AcDbLine
 10
1186.106044
 20
724.734402
 11
1179.327144
 21
733.411099
  0
LINE
  5
1C4
100
AcDbEntity
  8
M1
  6
CONTINUOUS
370
25
 62
     7
100
AcDbLine
 10
1292.640147
 20
724.734097
 11
1299.419246
 21
733.410916
  0
LINE
  5
1C5
100
AcDbEntity
  8
M1
  6
CONTINUOUS
370
25
 62
     7
100
AcDbLine
 10
1274.948436
 20
734.948209
 11
1279.073344
 21
745.157499
  0
LINE
  5
1C6
100
AcDbEntity
  8
M1
  6
CONTINUOUS
370
25
 62
     7
100
AcDbLine
 10
1328.215258
 20
642.687192
 11
1339.119081
 21
641.154782
  0
LINE
  5
1C7
100
AcDbEntity
  8
M1
  6
CONTINUOUS
370
25
 62
     7
100
AcDbLine
 10
1328.214991
 20
663.115994
 11
1339.1188
 21
664.648373
  0
LINE
  5
1C8
100
AcDbEntity
  8
M1
  6
CONTINUOUS
370
25
 62
     7
100
AcDbLine
 10
1274.948436
 20
570.855099
 11
1279.073237
 21
560.645902
  0
LINE
  5
1C9
100
AcDbEntity
  8
M1
  6
CONTINUOUS
370
25
 62
     7
100
AcDbLine
 10
1292.639444
 20
581.06918
 11
1299.418437
 21
572.392392
  0
LINE
  5
1CA
100
AcDbEntity
  8
M1
  6
CONTINUOUS
370
25
 62
     7
100
AcDbLine
 10
1186.106531
 20
581.069089
 11
1179.327434
 21
572.3923
  0
LINE
  5
1CB
100
AcDbEntity
  8
M1
  6
CONTINUOUS
370
25
 62
     7
100
AcDbLine
 10
1203.797541
 20
570.855283
 11
1199.672847
 21
560.646084
  0
LINE
  5
1CC
100
AcDbEntity
  8
M1
  6
CONTINUOUS
370
25
 62
     7
100
AcDbLine
 10
893.103418
 20
768.444303
 11
895.103418
 21
770.444302
  0
LINE
  5
1CD
100
AcDbEntity
  8
M1
  6
CONTINUOUS
370
25
 62
     7
100
AcDbLine
 10
893.103358
 20
765.615872
 11
895.103358
 21
767.615872
  0
LINE
  5
1CE
100
AcDbEntity
  8
M1
  6
CONTINUOUS
370
25
 62
     7
100
AcDbLine
 10
893.103418
 20
709.869382
 11
895.103418
 21
711.869382
  0
LINE
  5
1CF
100
AcDbEntity
  8
M1
  6
CONTINUOUS
370
25
 62
     7
100
AcDbLine
 10
893.103418
 20
707.04089
 11
895.103418
 21
709.04089
  0
LINE
  5
1D0
100
AcDbEntity
  8
M1
  6
CONTINUOUS
370
25
 62
     7
100
AcDbLine
 10
779.103418
 20
595.857784
 11
781.103418
 21
597.857784
  0
LINE
  5
1D1
100
AcDbEntity
  8
M1
  6
CONTINUOUS
370
25
 62
     7
100
AcDbLine
 10
779.103418
 20
538.326993
 11
781.103418
 21
540.327084
  0
LINE
  5
1D2
100
AcDbEntity
  8
M1
  6
CONTINUOUS
370
25
 62
     7
100
AcDbLine
 10
779.103418
 20
593.029386
 11
781.103418
 21
595.029386
  0
LINE
  5
1D3
100
AcDbEntity
  8
M1
  6
CONTINUOUS
370
25
 62
     7
100
AcDbLine
 10
779.103418
 20
535.498593
 11
781.103418
 21
537.498593
  0
LINE
  5
1D4
100
AcDbEntity
  8
M1
  6
CONTINUOUS
370
13
 62
     7
100
AcDbLine
 10
431.833827
 20
661.243496
 11
431.833827
 21
644.463497
  0
LINE
  5
1D5
100
AcDbEntity
  8
M1
  6
CONTINUOUS
370
13
 62
     7
100
AcDbLine
 10
431.833827
 20
591.886074
 11
431.833827
 21
573.987393
  0
LINE
  5
1D6
100
AcDbEntity
  8
M1
  6
CONTINUOUS
370
13
 62
     7
100
AcDbLine
 10
666.656216
 20
652.901699
 11
647.337916
 21
652.901699
  0
LINE
  5
1D7
100
AcDbEntity
  8
M1
  6
CONTINUOUS
370
13
 62
     7
100
AcDbLine
 10
1239.372737
 20
661.243496
 11
1239.372737
 21
645.022886
  0
LINE
  5
1D8
100
AcDbEntity
  8
M1
  6
CONTINUOUS
370
13
 62
     7
100
AcDbLine
 10
1239.372737
 20
593.004789
 11
1239.372737
 21
574.54678
  0
LINE
  5
1D9
100
AcDbEntity
  8
M1
  6
CONTINUOUS
370
25
 62
     7
100
AcDbLine
 10
731.103418
 20
681.794674
 11
731.103418
 21
652.901699
  0
LINE
  5
1DA
100
AcDbEntity
  8
M1
  6
CONTINUOUS
370
25
 62
     7
100
AcDbLine
 10
731.103418
 20
624.008694
 11
731.103418
 21
652.901699
  0
LINE
  5
1DB
100
AcDbEntity
  8
M1
  6
CONTINUOUS
370
25
 62
     7
100
AcDbLine
 10
944.103418
 20
668.901699
 11
943.103418
 21
668.901699
  0
LINE
  5
1DC
100
AcDbEntity
  8
M1
  6
CONTINUOUS
370
25
 62
     7
100
AcDbLine
 10
944.103418
 20
636.901699
 11
943.103418
 21
636.901699
  0
LINE
  5
1DD
100
AcDbEntity
  8
M1
  6
CONTINUOUS
370
25
 62
     7
100
AcDbLine
 10
943.103418
 20
624.008694
 11
943.103418
 21
652.901699
  0
LINE
  5
1DE
100
AcDbEntity
  8
M1
  6
CONTINUOUS
370
25
 62
     7
100
AcDbLine
 10
943.103418
 20
681.794674
 11
943.103418
 21
652.901699
  0
LINE
  5
1DF
100
AcDbEntity
  8
M1
  6
CONTINUOUS
370
25
 62
     7
100
AcDbLine
 10
731.103418
 20
636.901699
 11
730.103418
 21
636.901699
  0
LINE
  5
1E0
100
AcDbEntity
  8
M1
  6
CONTINUOUS
370
25
 62
     7
100
AcDbLine
 10
731.103418
 20
668.901699
 11
730.103418
 21
668.901699
  0
ARC
  5
1E1
100
AcDbEntity
  8
M1
  6
CONTINUOUS
370
25
 62
     7
100
AcDbCircle
 10
783.103418
 20
778.901699
 40
2.0
100
AcDbArc
 50
90.0
 51
180.0
  0
ARC
  5
1E2
100
AcDbEntity
  8
M1
  6
CONTINUOUS
370
25
 62
     7
100
AcDbCircle
 10
773.103418
 20
740.901699
 40
8.0
100
AcDbArc
 50
270.0
 51
360.0
  0
ARC
  5
1E3
100
AcDbEntity
  8
M1
  6
CONTINUOUS
370
25
 62
     7
100
AcDbCircle
 10
891.103418
 20
778.901699
 40
2.0
100
AcDbArc
 50
0.0
 51
90.0
  0
ARC
  5
1E4
100
AcDbEntity
  8
M1
  6
CONTINUOUS
370
25
 62
     7
100
AcDbCircle
 10
901.103418
 20
740.901699
 40
8.0
100
AcDbArc
 50
180.0
 51
270.0
  0
ARC
  5
1E5
100
AcDbEntity
  8
M1
  6
CONTINUOUS
370
25
 62
     7
100
AcDbCircle
 10
777.603114
 20
704.15118
 40
3.999906
100
AcDbArc
 50
145.737427
 51
180.707741
  0
ARC
  5
1E6
100
AcDbEntity
  8
M1
  6
CONTINUOUS
370
25
 62
     7
100
AcDbCircle
 10
777.603114
 20
716.65231
 40
3.999999
100
AcDbArc
 50
179.294449
 51
214.264023
  0
ARC
  5
1E7
100
AcDbEntity
  8
M1
  6
CONTINUOUS
370
25
 62
     7
100
AcDbCircle
 10
876.421411
 20
787.591763
 40
3.828003
100
AcDbArc
 50
270.0
 51
360.0
  0
ARC
  5
1E8
100
AcDbEntity
  8
M1
  6
CONTINUOUS
370
25
 62
     7
100
AcDbCircle
 10
891.448451
 20
813.526699
 40
11.200966
100
AcDbArc
 50
120.005653
 51
179.999996
  0
ARC
  5
1E9
100
AcDbEntity
  8
M1
  6
CONTINUOUS
370
25
 62
     7
100
AcDbCircle
 10
875.497523
 20
788.515713
 40
1.980041
100
AcDbArc
 50
270.0
 51
360.0
  0
ARC
  5
1EA
100
AcDbEntity
  8
M1
  6
CONTINUOUS
370
25
 62
     7
100
AcDbCircle
 10
866.247523
 20
813.526699
 40
11.199524
100
AcDbArc
 50
0.0
 51
59.998535
  0
ARC
  5
1EB
100
AcDbEntity
  8
M1
  6
CONTINUOUS
370
25
 62
     7
100
AcDbCircle
 10
891.448451
 20
813.526699
 40
14.000696
100
AcDbArc
 50
120.000664
 51
180.000004
  0
ARC
  5
1EC
100
AcDbEntity
  8
M1
  6
CONTINUOUS
370
25
 62
     7
100
AcDbCircle
 10
866.247523
 20
813.526699
 40
13.999556
100
AcDbArc
 50
25.840126
 51
59.999195
  0
ARC
  5
1ED
100
AcDbEntity
  8
M1
  6
CONTINUOUS
370
25
 62
     7
100
AcDbCircle
 10
719.103418
 20
652.901699
 40
3.5
100
AcDbArc
 50
0.0
 51
90.0
  0
ARC
  5
1EE
100
AcDbEntity
  8
M1
  6
CONTINUOUS
370
25
 62
     7
100
AcDbCircle
 10
955.103418
 20
652.901699
 40
3.5
100
AcDbArc
 50
90.0
 51
180.0
  0
ARC
  5
1EF
100
AcDbEntity
  8
M1
  6
CONTINUOUS
370
25
 62
     7
100
AcDbCircle
 10
896.603724
 20
761.651212
 40
4.0
100
AcDbArc
 50
359.29184
 51
394.261608
  0
ARC
  5
1F0
100
AcDbEntity
  8
M1
  6
CONTINUOUS
370
25
 62
     7
100
AcDbCircle
 10
896.603724
 20
774.15231
 40
4.000074
100
AcDbArc
 50
325.736969
 51
360.705559
  0
ARC
  5
1F1
100
AcDbEntity
  8
M1
  6
CONTINUOUS
370
25
 62
     7
100
AcDbCircle
 10
896.603724
 20
531.65118
 40
4.0
100
AcDbArc
 50
359.292267
 51
394.261597
  0
ARC
  5
1F2
100
AcDbEntity
  8
M1
  6
CONTINUOUS
370
25
 62
     7
100
AcDbCircle
 10
783.103418
 20
526.901699
 40
2.0
100
AcDbArc
 50
180.0
 51
270.0
  0
ARC
  5
1F3
100
AcDbEntity
  8
M1
  6
CONTINUOUS
370
25
 62
     7
100
AcDbCircle
 10
773.103418
 20
564.901699
 40
8.0
100
AcDbArc
 50
0.0
 51
90.0
  0
ARC
  5
1F4
100
AcDbEntity
  8
M1
  6
CONTINUOUS
370
25
 62
     7
100
AcDbCircle
 10
891.103418
 20
526.901699
 40
2.0
100
AcDbArc
 50
270.0
 51
360.0
  0
ARC
  5
1F5
100
AcDbEntity
  8
M1
  6
CONTINUOUS
370
25
 62
     7
100
AcDbCircle
 10
901.103418
 20
564.901699
 40
8.0
100
AcDbArc
 50
90.0
 51
180.0
  0
ARC
  5
1F6
100
AcDbEntity
  8
M1
  6
CONTINUOUS
370
25
 62
     7
100
AcDbCircle
 10
777.603114
 20
544.152279
 40
3.999999
100
AcDbArc
 50
179.293579
 51
214.263664
  0
ARC
  5
1F7
100
AcDbEntity
  8
M1
  6
CONTINUOUS
370
25
 62
     7
100
AcDbCircle
 10
777.603114
 20
531.65118
 40
3.999906
100
AcDbArc
 50
145.737427
 51
180.707741
  0
ARC
  5
1F8
100
AcDbEntity
  8
M1
  6
CONTINUOUS
370
25
 62
     7
100
AcDbCircle
 10
719.103418
 20
652.901699
 40
3.5
100
AcDbArc
 50
270.0
 51
360.0
  0
ARC
  5
1F9
100
AcDbEntity
  8
M1
  6
CONTINUOUS
370
25
 62
     7
100
AcDbCircle
 10
955.103418
 20
652.901699
 40
3.5
100
AcDbArc
 50
180.0
 51
270.0
  0
ARC
  5
1FA
100
AcDbEntity
  8
M1
  6
CONTINUOUS
370
25
 62
     7
100
AcDbCircle
 10
896.603724
 20
544.152279
 40
4.000057
100
AcDbArc
 50
325.737335
 51
360.706436
  0
ARC
  5
1FB
100
AcDbEntity
  8
M1
  6
CONTINUOUS
370
25
 62
     7
100
AcDbCircle
 10
431.833827
 20
652.901699
 40
15.000106
100
AcDbArc
 50
13.493303
 51
346.506701
  0
CIRCLE
  5
1FC
100
AcDbEntity
  8
M1
  6
CONTINUOUS
370
25
 62
     7
100
AcDbCircle
 10
431.833827
 20
652.901699
 40
145.000427
  0
CIRCLE
  5
1FD
100
AcDbEntity
  8
M1
  6
CONTINUOUS
370
25
 62
     7
100
AcDbCircle
 10
431.833827
 20
652.901699
 40
128.000427
  0
ARC
  5
1FE
100
AcDbEntity
  8
M1
  6
CONTINUOUS
370
25
 62
     7
100
AcDbCircle
 10
328.400844
 20
804.051663
 40
11.200331
100
AcDbArc
 50
29.998158
 51
90.0
  0
ARC
  5
1FF
100
AcDbEntity
  8
M1
  6
CONTINUOUS
370
25
 62
     7
100
AcDbCircle
 10
328.400844
 20
804.051663
 40
14.000404
100
AcDbArc
 50
29.997601
 51
90.0
  0
ARC
  5
200
100
AcDbEntity
  8
M1
  6
CONTINUOUS
370
25
 62
     7
100
AcDbCircle
 10
352.649867
 20
818.051663
 40
11.199607
100
AcDbArc
 50
149.99826
 51
210.000652
  0
ARC
  5
201
100
AcDbEntity
  8
M1
  6
CONTINUOUS
370
25
 62
     7
100
AcDbCircle
 10
352.649867
 20
818.051663
 40
13.999711
100
AcDbArc
 50
149.999313
 51
210.000671
  0
CIRCLE
  5
202
100
AcDbEntity
  8
M1
  6
CONTINUOUS
370
25
 62
     7
100
AcDbCircle
 10
531.427028
 20
710.401699
 40
6.5
  0
CIRCLE
  5
203
100
AcDbEntity
  8
M1
  6
CONTINUOUS
370
25
 62
     7
100
AcDbCircle
 10
431.833827
 20
767.901699
 40
6.5
  0
CIRCLE
  5
204
100
AcDbEntity
  8
M1
  6
CONTINUOUS
370
25
 62
     7
100
AcDbCircle
 10
332.240808
 20
710.401699
 40
6.5
  0
CIRCLE
  5
205
100
AcDbEntity
  8
M1
  6
CONTINUOUS
370
25
 62
     7
100
AcDbCircle
 10
332.240808
 20
595.401792
 40
6.5
  0
CIRCLE
  5
206
100
AcDbEntity
  8
M1
  6
CONTINUOUS
370
25
 62
     7
100
AcDbCircle
 10
431.833827
 20
537.901792
 40
6.5
  0
CIRCLE
  5
207
100
AcDbEntity
  8
M1
  6
CONTINUOUS
370
25
 62
     7
100
AcDbCircle
 10
531.427028
 20
595.401699
 40
6.5
  0
ARC
  5
208
100
AcDbEntity
  8
M1
  6
CONTINUOUS
370
25
 62
     7
100
AcDbCircle
 10
777.603114
 20
761.651212
 40
3.999906
100
AcDbArc
 50
145.737427
 51
180.708179
  0
ARC
  5
209
100
AcDbEntity
  8
M1
  6
CONTINUOUS
370
25
 62
     7
100
AcDbCircle
 10
777.603114
 20
774.15231
 40
3.999999
100
AcDbArc
 50
179.294449
 51
214.264023
  0
ARC
  5
20A
100
AcDbEntity
  8
M1
  6
CONTINUOUS
370
25
 62
     7
100
AcDbCircle
 10
777.603114
 20
601.652279
 40
3.999999
100
AcDbArc
 50
179.293579
 51
214.263664
  0
ARC
  5
20B
100
AcDbEntity
  8
M1
  6
CONTINUOUS
370
25
 62
     7
100
AcDbCircle
 10
777.603114
 20
589.15118
 40
3.999906
100
AcDbArc
 50
145.737427
 51
180.707741
  0
ARC
  5
20C
100
AcDbEntity
  8
M1
  6
CONTINUOUS
370
25
 62
     7
100
AcDbCircle
 10
896.603724
 20
704.15118
 40
4.0
100
AcDbArc
 50
359.292267
 51
394.261597
  0
ARC
  5
20D
100
AcDbEntity
  8
M1
  6
CONTINUOUS
370
25
 62
     7
100
AcDbCircle
 10
896.603724
 20
716.65231
 40
4.000074
100
AcDbArc
 50
325.736969
 51
360.705559
  0
ARC
  5
20E
100
AcDbEntity
  8
M1
  6
CONTINUOUS
370
25
 62
     7
100
AcDbCircle
 10
896.603724
 20
601.652279
 40
4.000057
100
AcDbArc
 50
325.737335
 51
360.706436
  0
ARC
  5
20F
100
AcDbEntity
  8
M1
  6
CONTINUOUS
370
25
 62
     7
100
AcDbCircle
 10
896.603724
 20
589.15118
 40
4.0
100
AcDbArc
 50
359.292267
 51
394.261597
  0
CIRCLE
  5
210
100
AcDbEntity
  8
M1
  6
CONTINUOUS
370
25
 62
     7
100
AcDbCircle
 10
431.833827
 20
652.901699
 40
50.0
  0
CIRCLE
  5
211
100
AcDbEntity
  8
M1
  6
CONTINUOUS
370
25
 62
     7
100
AcDbCircle
 10
431.833827
 20
652.901699
 40
40.0
  0
ARC
  5
212
100
AcDbEntity
  8
M1
  6
CONTINUOUS
370
13
 62
     7
100
AcDbCircle
 10
431.833827
 20
652.901699
 40
70.000351
100
AcDbArc
 50
23.729864
 51
36.656617
  0
CIRCLE
  5
213
100
AcDbEntity
  8
M1
  6
CONTINUOUS
370
13
 62
     7
100
AcDbCircle
 10
371.212854
 20
687.901699
 40
5.0
  0
CIRCLE
  5
214
100
AcDbEntity
  8
M1
  6
CONTINUOUS
370
25
 62
     7
100
AcDbCircle
 10
371.212854
 20
687.901699
 40
4.184937
  0
ARC
  5
215
100
AcDbEntity
  8
M1
  6
CONTINUOUS
370
25
 62
     7
100
AcDbCircle
 10
371.212854
 20
687.901699
 40
10.000021
100
AcDbArc
 50
60.000069
 51
239.999901
  0
ARC
  5
216
100
AcDbEntity
  8
M1
  6
CONTINUOUS
370
25
 62
     7
100
AcDbCircle
 10
417.833827
 20
708.155697
 40
4.000171
100
AcDbArc
 50
284.226013
 51
360.0
  0
ARC
  5
217
100
AcDbEntity
  8
M1
  6
CONTINUOUS
370
25
 62
     7
100
AcDbCircle
 10
416.405848
 20
707.773893
 40
4.000226
100
AcDbArc
 50
201.998489
 51
285.695122
  0
CIRCLE
  5
218
100
AcDbEntity
  8
M1
  6
CONTINUOUS
370
13
 62
     7
100
AcDbCircle
 10
431.833827
 20
722.901699
 40
5.0
  0
CIRCLE
  5
219
100
AcDbEntity
  8
M1
  6
CONTINUOUS
370
25
 62
     7
100
AcDbCircle
 10
431.833827
 20
722.901699
 40
4.185059
  0
ARC
  5
21A
100
AcDbEntity
  8
M1
  6
CONTINUOUS
370
25
 62
     7
100
AcDbCircle
 10
431.833827
 20
722.901699
 40
10.0
100
AcDbArc
 50
0.0
 51
180.0
  0
ARC
  5
21B
100
AcDbEntity
  8
M1
  6
CONTINUOUS
370
25
 62
     7
100
AcDbCircle
 10
390.982876
 20
692.653073
 40
4.000061
100
AcDbArc
 50
240.000504
 51
315.783562
  0
ARC
  5
21C
100
AcDbEntity
  8
M1
  6
CONTINUOUS
370
25
 62
     7
100
AcDbCircle
 10
392.027797
 20
693.699582
 40
4.000453
100
AcDbArc
 50
314.301819
 51
398.000206
  0
ARC
  5
21D
100
AcDbEntity
  8
M1
  6
CONTINUOUS
370
25
 62
     7
100
AcDbCircle
 10
401.877894
 20
701.395292
 40
4.000026
100
AcDbArc
 50
217.999161
 51
301.70224
  0
ARC
  5
21E
100
AcDbEntity
  8
M1
  6
CONTINUOUS
370
25
 62
     7
100
AcDbCircle
 10
404.815883
 20
703.091183
 40
3.999913
100
AcDbArc
 50
298.294861
 51
382.004944
  0
ARC
  5
21F
100
AcDbEntity
  8
M1
  6
CONTINUOUS
370
25
 62
     7
100
AcDbCircle
 10
431.833827
 20
652.901699
 40
52.999866
100
AcDbArc
 50
104.217522
 51
135.781435
  0
CIRCLE
  5
220
100
AcDbEntity
  8
M1
  6
CONTINUOUS
370
13
 62
     7
100
AcDbCircle
 10
492.455836
 20
687.901699
 40
5.0
  0
CIRCLE
  5
221
100
AcDbEntity
  8
M1
  6
CONTINUOUS
370
25
 62
     7
100
AcDbCircle
 10
492.455836
 20
687.901699
 40
4.184999
  0
ARC
  5
222
100
AcDbEntity
  8
M1
  6
CONTINUOUS
370
25
 62
     7
100
AcDbCircle
 10
492.455836
 20
687.901699
 40
9.999969
100
AcDbArc
 50
300.000092
 51
479.999924
  0
CIRCLE
  5
223
100
AcDbEntity
  8
M1
  6
CONTINUOUS
370
13
 62
     7
100
AcDbCircle
 10
492.455836
 20
617.901699
 40
5.0
  0
CIRCLE
  5
224
100
AcDbEntity
  8
M1
  6
CONTINUOUS
370
25
 62
     7
100
AcDbCircle
 10
492.455836
 20
617.901699
 40
4.184999
  0
ARC
  5
225
100
AcDbEntity
  8
M1
  6
CONTINUOUS
370
25
 62
     7
100
AcDbCircle
 10
492.455836
 20
617.901699
 40
10.000049
100
AcDbArc
 50
240.000153
 51
419.999802
  0
CIRCLE
  5
226
100
AcDbEntity
  8
M1
  6
CONTINUOUS
370
13
 62
     7
100
AcDbCircle
 10
431.833827
 20
582.901699
 40
5.0
  0
CIRCLE
  5
227
100
AcDbEntity
  8
M1
  6
CONTINUOUS
370
25
 62
     7
100
AcDbCircle
 10
431.833827
 20
582.901699
 40
4.185059
  0
ARC
  5
228
100
AcDbEntity
  8
M1
  6
CONTINUOUS
370
25
 62
     7
100
AcDbCircle
 10
431.833827
 20
582.901699
 40
10.0
100
AcDbArc
 50
180.0
 51
360.0
  0
CIRCLE
  5
229
100
AcDbEntity
  8
M1
  6
CONTINUOUS
370
13
 62
     7
100
AcDbCircle
 10
371.212854
 20
617.901699
 40
5.0
  0
CIRCLE
  5
22A
100
AcDbEntity
  8
M1
  6
CONTINUOUS
370
25
 62
     7
100
AcDbCircle
 10
371.212854
 20
617.901699
 40
4.184937
  0
ARC
  5
22B
100
AcDbEntity
  8
M1
  6
CONTINUOUS
370
25
 62
     7
100
AcDbCircle
 10
371.212854
 20
617.901699
 40
10.000021
100
AcDbArc
 50
119.999931
 51
300.000099
  0
ARC
  5
22C
100
AcDbEntity
  8
M1
  6
CONTINUOUS
370
13
 62
     7
100
AcDbCircle
 10
431.833827
 20
652.901699
 40
69.999809
100
AcDbArc
 50
143.585678
 51
156.592426
  0
ARC
  5
22D
100
AcDbEntity
  8
M1
  6
CONTINUOUS
370
13
 62
     7
100
AcDbCircle
 10
431.833827
 20
652.901699
 40
70.000009
100
AcDbArc
 50
83.501839
 51
96.758585
  0
ARC
  5
22E
100
AcDbEntity
  8
M1
  6
CONTINUOUS
370
13
 62
     7
100
AcDbCircle
 10
431.833827
 20
652.901699
 40
70.000511
100
AcDbArc
 50
323.839325
 51
336.34299
  0
ARC
  5
22F
100
AcDbEntity
  8
M1
  6
CONTINUOUS
370
13
 62
     7
100
AcDbCircle
 10
431.833827
 20
652.901699
 40
69.999901
100
AcDbArc
 50
263.566071
 51
276.173644
  0
ARC
  5
230
100
AcDbEntity
  8
M1
  6
CONTINUOUS
370
13
 62
     7
100
AcDbCircle
 10
431.833827
 20
652.901699
 40
69.999496
100
AcDbArc
 50
203.936981
 51
216.679383
  0
ARC
  5
231
100
AcDbEntity
  8
M1
  6
CONTINUOUS
370
25
 62
     7
100
AcDbCircle
 10
431.833827
 20
652.901699
 40
71.999826
100
AcDbArc
 50
101.880753
 51
106.725803
  0
ARC
  5
232
100
AcDbEntity
  8
M1
  6
CONTINUOUS
370
25
 62
     7
100
AcDbCircle
 10
431.833827
 20
652.901699
 40
71.999481
100
AcDbArc
 50
133.273148
 51
138.118709
  0
ARC
  5
233
100
AcDbEntity
  8
M1
  6
CONTINUOUS
370
25
 62
     7
100
AcDbCircle
 10
431.833827
 20
652.901699
 40
71.999901
100
AcDbArc
 50
117.273422
 51
122.7262
  0
ARC
  5
234
100
AcDbEntity
  8
M1
  6
CONTINUOUS
370
25
 62
     7
100
AcDbCircle
 10
381.205897
 20
698.297696
 40
3.999886
100
AcDbArc
 50
138.118591
 51
240.000076
  0
ARC
  5
235
100
AcDbEntity
  8
M1
  6
CONTINUOUS
370
25
 62
     7
100
AcDbCircle
 10
385.221888
 20
702.411802
 40
3.999911
100
AcDbArc
 50
37.999893
 51
133.274704
  0
ARC
  5
236
100
AcDbEntity
  8
M1
  6
CONTINUOUS
370
25
 62
     7
100
AcDbCircle
 10
395.071864
 20
710.107479
 40
4.000221
100
AcDbArc
 50
122.732048
 51
218.001274
  0
ARC
  5
237
100
AcDbEntity
  8
M1
  6
CONTINUOUS
370
25
 62
     7
100
AcDbCircle
 10
400.673793
 20
713.342069
 40
4.000386
100
AcDbArc
 50
21.999454
 51
117.274311
  0
ARC
  5
238
100
AcDbEntity
  8
M1
  6
CONTINUOUS
370
25
 62
     7
100
AcDbCircle
 10
412.263881
 20
718.024686
 40
3.999871
100
AcDbArc
 50
106.723862
 51
201.999298
  0
ARC
  5
239
100
AcDbEntity
  8
M1
  6
CONTINUOUS
370
25
 62
     7
100
AcDbCircle
 10
417.833827
 20
719.444973
 40
4.0
100
AcDbArc
 50
0.0
 51
101.873711
  0
ARC
  5
23A
100
AcDbEntity
  8
M1
  6
CONTINUOUS
370
25
 62
     7
100
AcDbCircle
 10
431.833827
 20
652.901699
 40
72.000084
100
AcDbArc
 50
73.273361
 51
78.118488
  0
ARC
  5
23B
100
AcDbEntity
  8
M1
  6
CONTINUOUS
370
25
 62
     7
100
AcDbCircle
 10
445.833827
 20
719.444973
 40
4.000091
100
AcDbArc
 50
78.112602
 51
180.0
  0
ARC
  5
23C
100
AcDbEntity
  8
M1
  6
CONTINUOUS
370
25
 62
     7
100
AcDbCircle
 10
451.404871
 20
718.024563
 40
4.000203
100
AcDbArc
 50
338.002319
 51
433.276634
  0
ARC
  5
23D
100
AcDbEntity
  8
M1
  6
CONTINUOUS
370
25
 62
     7
100
AcDbCircle
 10
447.262781
 20
707.7738
 40
3.999721
100
AcDbArc
 50
254.306213
 51
338.002174
  0
ARC
  5
23E
100
AcDbEntity
  8
M1
  6
CONTINUOUS
370
25
 62
     7
100
AcDbCircle
 10
445.833827
 20
708.155697
 40
4.0
100
AcDbArc
 50
180.0
 51
255.789246
  0
ARC
  5
23F
100
AcDbEntity
  8
M1
  6
CONTINUOUS
370
25
 62
     7
100
AcDbCircle
 10
431.833827
 20
652.901699
 40
53.000249
100
AcDbArc
 50
44.217762
 51
75.781332
  0
ARC
  5
240
100
AcDbEntity
  8
M1
  6
CONTINUOUS
370
25
 62
     7
100
AcDbCircle
 10
458.85287
 20
703.091274
 40
4.000226
100
AcDbArc
 50
158.001511
 51
241.705757
  0
ARC
  5
241
100
AcDbEntity
  8
M1
  6
CONTINUOUS
370
25
 62
     7
100
AcDbCircle
 10
431.833827
 20
652.901699
 40
72.000397
100
AcDbArc
 50
57.273037
 51
62.725885
  0
ARC
  5
242
100
AcDbEntity
  8
M1
  6
CONTINUOUS
370
25
 62
     7
100
AcDbCircle
 10
462.994838
 20
713.342069
 40
4.000009
100
AcDbArc
 50
62.725689
 51
158.001514
  0
ARC
  5
243
100
AcDbEntity
  8
M1
  6
CONTINUOUS
370
25
 62
     7
100
AcDbCircle
 10
468.596888
 20
710.107479
 40
3.999911
100
AcDbArc
 50
322.000092
 51
417.26841
  0
ARC
  5
244
100
AcDbEntity
  8
M1
  6
CONTINUOUS
370
25
 62
     7
100
AcDbCircle
 10
461.789881
 20
701.395382
 40
3.999969
100
AcDbArc
 50
238.296967
 51
322.007339
  0
ARC
  5
245
100
AcDbEntity
  8
M1
  6
CONTINUOUS
370
25
 62
     7
100
AcDbCircle
 10
471.640834
 20
693.699582
 40
3.99993
100
AcDbArc
 50
141.999756
 51
225.69944
  0
ARC
  5
246
100
AcDbEntity
  8
M1
  6
CONTINUOUS
370
25
 62
     7
100
AcDbCircle
 10
478.446864
 20
702.411679
 40
4.000027
100
AcDbArc
 50
46.72533
 51
141.99976
  0
ARC
  5
247
100
AcDbEntity
  8
M1
  6
CONTINUOUS
370
25
 62
     7
100
AcDbCircle
 10
431.833827
 20
652.901699
 40
72.000541
100
AcDbArc
 50
41.880737
 51
46.726198
  0
ARC
  5
248
100
AcDbEntity
  8
M1
  6
CONTINUOUS
370
25
 62
     7
100
AcDbCircle
 10
482.462856
 20
698.297696
 40
4.000009
100
AcDbArc
 50
299.999939
 51
401.882011
  0
ARC
  5
249
100
AcDbEntity
  8
M1
  6
CONTINUOUS
370
25
 62
     7
100
AcDbCircle
 10
472.685878
 20
692.653073
 40
4.000229
100
AcDbArc
 50
224.215225
 51
299.999504
  0
ARC
  5
24A
100
AcDbEntity
  8
M1
  6
CONTINUOUS
370
25
 62
     7
100
AcDbCircle
 10
431.833827
 20
652.901699
 40
72.000366
100
AcDbArc
 50
13.273445
 51
18.118824
  0
ARC
  5
24B
100
AcDbEntity
  8
M1
  6
CONTINUOUS
370
25
 62
     7
100
AcDbCircle
 10
496.462856
 20
674.048977
 40
3.999596
100
AcDbArc
 50
18.121679
 51
119.999929
  0
ARC
  5
24C
100
AcDbEntity
  8
M1
  6
CONTINUOUS
370
25
 62
     7
100
AcDbCircle
 10
498.017848
 20
668.514584
 40
3.999917
100
AcDbArc
 50
277.989716
 51
373.273445
  0
ARC
  5
24D
100
AcDbEntity
  8
M1
  6
CONTINUOUS
370
25
 62
     7
100
AcDbCircle
 10
487.068811
 20
666.975887
 40
3.999821
100
AcDbArc
 50
194.294952
 51
278.004616
  0
ARC
  5
24E
100
AcDbEntity
  8
M1
  6
CONTINUOUS
370
25
 62
     7
100
AcDbCircle
 10
486.685817
 20
668.404293
 40
3.999981
100
AcDbArc
 50
120.000153
 51
195.779167
  0
ARC
  5
24F
100
AcDbEntity
  8
M1
  6
CONTINUOUS
370
25
 62
     7
100
AcDbCircle
 10
431.833827
 20
652.901699
 40
52.999931
100
AcDbArc
 50
344.217987
 51
375.781858
  0
ARC
  5
250
100
AcDbEntity
  8
M1
  6
CONTINUOUS
370
25
 62
     7
100
AcDbCircle
 10
488.808864
 20
654.597593
 40
4.000061
100
AcDbArc
 50
98.004425
 51
181.705147
  0
ARC
  5
251
100
AcDbEntity
  8
M1
  6
CONTINUOUS
370
25
 62
     7
100
AcDbCircle
 10
431.833827
 20
652.901699
 40
72.000389
100
AcDbArc
 50
357.273529
 51
362.726376
  0
ARC
  5
252
100
AcDbEntity
  8
M1
  6
CONTINUOUS
370
25
 62
     7
100
AcDbCircle
 10
499.756861
 20
656.136289
 40
4.000311
100
AcDbArc
 50
2.725022
 51
97.990571
  0
ARC
  5
253
100
AcDbEntity
  8
M1
  6
CONTINUOUS
370
25
 62
     7
100
AcDbCircle
 10
499.756861
 20
649.66708
 40
3.999926
100
AcDbArc
 50
262.00943
 51
357.273277
  0
ARC
  5
254
100
AcDbEntity
  8
M1
  6
CONTINUOUS
370
25
 62
     7
100
AcDbCircle
 10
488.808864
 20
651.205899
 40
3.999817
100
AcDbArc
 50
178.295288
 51
261.995628
  0
ARC
  5
255
100
AcDbEntity
  8
M1
  6
CONTINUOUS
370
25
 62
     7
100
AcDbCircle
 10
487.068811
 20
638.827389
 40
4.000061
100
AcDbArc
 50
81.995575
 51
165.703781
  0
ARC
  5
256
100
AcDbEntity
  8
M1
  6
CONTINUOUS
370
25
 62
     7
100
AcDbCircle
 10
498.017848
 20
637.288693
 40
3.99963
100
AcDbArc
 50
346.725281
 51
442.010292
  0
ARC
  5
257
100
AcDbEntity
  8
M1
  6
CONTINUOUS
370
25
 62
     7
100
AcDbCircle
 10
431.833827
 20
652.901699
 40
72.000359
100
AcDbArc
 50
341.881165
 51
346.726379
  0
ARC
  5
258
100
AcDbEntity
  8
M1
  6
CONTINUOUS
370
25
 62
     7
100
AcDbCircle
 10
496.462856
 20
631.754392
 40
4.000009
100
AcDbArc
 50
240.000076
 51
341.878326
  0
ARC
  5
259
100
AcDbEntity
  8
M1
  6
CONTINUOUS
370
25
 62
     7
100
AcDbCircle
 10
486.685817
 20
637.399076
 40
4.000736
100
AcDbArc
 50
164.22084
 51
239.999855
  0
ARC
  5
25A
100
AcDbEntity
  8
M1
  6
CONTINUOUS
370
25
 62
     7
100
AcDbCircle
 10
431.833827
 20
652.901699
 40
72.000214
100
AcDbArc
 50
313.273743
 51
318.119252
  0
ARC
  5
25B
100
AcDbEntity
  8
M1
  6
CONTINUOUS
370
25
 62
     7
100
AcDbCircle
 10
482.462856
 20
607.505673
 40
3.99984
100
AcDbArc
 50
318.118011
 51
420.000084
  0
ARC
  5
25C
100
AcDbEntity
  8
M1
  6
CONTINUOUS
370
25
 62
     7
100
AcDbCircle
 10
478.446864
 20
603.391689
 40
3.99993
100
AcDbArc
 50
218.000244
 51
313.273773
  0
ARC
  5
25D
100
AcDbEntity
  8
M1
  6
CONTINUOUS
370
25
 62
     7
100
AcDbCircle
 10
471.640834
 20
612.103787
 40
4.000367
100
AcDbArc
 50
134.300552
 51
217.999893
  0
ARC
  5
25E
100
AcDbEntity
  8
M1
  6
CONTINUOUS
370
25
 62
     7
100
AcDbCircle
 10
472.685878
 20
613.150387
 40
4.000009
100
AcDbArc
 50
60.000069
 51
135.78447
  0
ARC
  5
25F
100
AcDbEntity
  8
M1
  6
CONTINUOUS
370
25
 62
     7
100
AcDbCircle
 10
431.833827
 20
652.901699
 40
53.000164
100
AcDbArc
 50
284.218658
 51
315.782141
  0
ARC
  5
260
100
AcDbEntity
  8
M1
  6
CONTINUOUS
370
25
 62
     7
100
AcDbCircle
 10
461.789881
 20
604.408077
 40
3.999986
100
AcDbArc
 50
38.001274
 51
121.703041
  0
ARC
  5
261
100
AcDbEntity
  8
M1
  6
CONTINUOUS
370
25
 62
     7
100
AcDbCircle
 10
431.833827
 20
652.901699
 40
72.000404
100
AcDbArc
 50
297.274078
 51
302.726949
  0
ARC
  5
262
100
AcDbEntity
  8
M1
  6
CONTINUOUS
370
25
 62
     7
100
AcDbCircle
 10
468.596888
 20
595.69598
 40
4.000274
100
AcDbArc
 50
302.731567
 51
398.000229
  0
ARC
  5
263
100
AcDbEntity
  8
M1
  6
CONTINUOUS
370
25
 62
     7
100
AcDbCircle
 10
462.994838
 20
592.4613
 40
4.000226
100
AcDbArc
 50
201.998489
 51
297.274109
  0
ARC
  5
264
100
AcDbEntity
  8
M1
  6
CONTINUOUS
370
25
 62
     7
100
AcDbCircle
 10
458.85287
 20
602.712186
 40
3.999994
100
AcDbArc
 50
118.294243
 51
201.998489
  0
ARC
  5
265
100
AcDbEntity
  8
M1
  6
CONTINUOUS
370
25
 62
     7
100
AcDbCircle
 10
447.262781
 20
598.029599
 40
4.000329
100
AcDbArc
 50
21.997427
 51
105.707022
  0
ARC
  5
266
100
AcDbEntity
  8
M1
  6
CONTINUOUS
370
25
 62
     7
100
AcDbCircle
 10
451.404871
 20
587.778774
 40
3.99996
100
AcDbArc
 50
286.72348
 51
381.998482
  0
ARC
  5
267
100
AcDbEntity
  8
M1
  6
CONTINUOUS
370
25
 62
     7
100
AcDbCircle
 10
431.833827
 20
652.901699
 40
72.000084
100
AcDbArc
 50
281.8815
 51
286.72663
  0
ARC
  5
268
100
AcDbEntity
  8
M1
  6
CONTINUOUS
370
25
 62
     7
100
AcDbCircle
 10
445.833827
 20
586.358396
 40
4.0
100
AcDbArc
 50
180.0
 51
281.887398
  0
ARC
  5
269
100
AcDbEntity
  8
M1
  6
CONTINUOUS
370
25
 62
     7
100
AcDbCircle
 10
445.833827
 20
597.647793
 40
3.999784
100
AcDbArc
 50
104.211189
 51
180.0
  0
ARC
  5
26A
100
AcDbEntity
  8
M1
  6
CONTINUOUS
370
25
 62
     7
100
AcDbCircle
 10
431.833827
 20
652.901699
 40
71.999801
100
AcDbArc
 50
253.2742
 51
258.119254
  0
ARC
  5
26B
100
AcDbEntity
  8
M1
  6
CONTINUOUS
370
25
 62
     7
100
AcDbCircle
 10
417.833827
 20
586.358396
 40
3.99989
100
AcDbArc
 50
258.126282
 51
359.999992
  0
ARC
  5
26C
100
AcDbEntity
  8
M1
  6
CONTINUOUS
370
25
 62
     7
100
AcDbCircle
 10
412.263881
 20
587.778774
 40
4.00026
100
AcDbArc
 50
158.00029
 51
253.276131
  0
ARC
  5
26D
100
AcDbEntity
  8
M1
  6
CONTINUOUS
370
25
 62
     7
100
AcDbCircle
 10
416.404871
 20
598.029599
 40
4.000079
100
AcDbArc
 50
74.291298
 51
157.995461
  0
ARC
  5
26E
100
AcDbEntity
  8
M1
  6
CONTINUOUS
370
25
 62
     7
100
AcDbCircle
 10
417.833827
 20
597.647793
 40
4.0
100
AcDbArc
 50
0.0
 51
75.773987
  0
ARC
  5
26F
100
AcDbEntity
  8
M1
  6
CONTINUOUS
370
25
 62
     7
100
AcDbCircle
 10
431.833827
 20
652.901699
 40
52.99955
100
AcDbArc
 50
224.218491
 51
255.782484
  0
ARC
  5
270
100
AcDbEntity
  8
M1
  6
CONTINUOUS
370
25
 62
     7
100
AcDbCircle
 10
404.815883
 20
602.712186
 40
3.999321
100
AcDbArc
 50
337.996277
 51
421.705765
  0
ARC
  5
271
100
AcDbEntity
  8
M1
  6
CONTINUOUS
370
25
 62
     7
100
AcDbCircle
 10
431.833827
 20
652.901699
 40
71.999801
100
AcDbArc
 50
237.273773
 51
242.726599
  0
ARC
  5
272
100
AcDbEntity
  8
M1
  6
CONTINUOUS
370
25
 62
     7
100
AcDbCircle
 10
400.673793
 20
592.461393
 40
4.000009
100
AcDbArc
 50
242.725693
 51
338.002174
  0
ARC
  5
273
100
AcDbEntity
  8
M1
  6
CONTINUOUS
370
25
 62
     7
100
AcDbCircle
 10
395.071864
 20
595.695889
 40
3.999911
100
AcDbArc
 50
142.000107
 51
237.267715
  0
ARC
  5
274
100
AcDbEntity
  8
M1
  6
CONTINUOUS
370
25
 62
     7
100
AcDbCircle
 10
401.877894
 20
604.408077
 40
3.999906
100
AcDbArc
 50
58.29845
 51
142.000835
  0
ARC
  5
275
100
AcDbEntity
  8
M1
  6
CONTINUOUS
370
25
 62
     7
100
AcDbCircle
 10
392.027797
 20
612.103879
 40
4.000064
100
AcDbArc
 50
322.000153
 51
405.698196
  0
ARC
  5
276
100
AcDbEntity
  8
M1
  6
CONTINUOUS
370
25
 62
     7
100
AcDbCircle
 10
385.22079
 20
603.391782
 40
4.000029
100
AcDbArc
 50
226.726562
 51
322.008408
  0
ARC
  5
277
100
AcDbEntity
  8
M1
  6
CONTINUOUS
370
25
 62
     7
100
AcDbCircle
 10
431.833827
 20
652.901699
 40
71.999786
100
AcDbArc
 50
221.881302
 51
226.726229
  0
ARC
  5
278
100
AcDbEntity
  8
M1
  6
CONTINUOUS
370
25
 62
     7
100
AcDbCircle
 10
381.205897
 20
607.505673
 40
4.000009
100
AcDbArc
 50
119.999931
 51
221.881416
  0
ARC
  5
279
100
AcDbEntity
  8
M1
  6
CONTINUOUS
370
25
 62
     7
100
AcDbCircle
 10
390.982876
 20
613.150387
 40
4.000161
100
AcDbArc
 50
44.216751
 51
119.999931
  0
ARC
  5
27A
100
AcDbEntity
  8
M1
  6
CONTINUOUS
370
25
 62
     7
100
AcDbCircle
 10
431.833827
 20
652.901699
 40
71.99942
100
AcDbArc
 50
193.273651
 51
198.119138
  0
ARC
  5
27B
100
AcDbEntity
  8
M1
  6
CONTINUOUS
370
25
 62
     7
100
AcDbCircle
 10
367.205897
 20
631.754392
 40
3.999421
100
AcDbArc
 50
198.122498
 51
299.999931
  0
ARC
  5
27C
100
AcDbEntity
  8
M1
  6
CONTINUOUS
370
25
 62
     7
100
AcDbCircle
 10
365.650844
 20
637.288876
 40
3.999971
100
AcDbArc
 50
98.004608
 51
193.274117
  0
ARC
  5
27D
100
AcDbEntity
  8
M1
  6
CONTINUOUS
370
25
 62
     7
100
AcDbCircle
 10
376.598841
 20
638.827573
 40
3.999821
100
AcDbArc
 50
14.294945
 51
98.004547
  0
ARC
  5
27E
100
AcDbEntity
  8
M1
  6
CONTINUOUS
370
25
 62
     7
100
AcDbCircle
 10
376.982874
 20
637.399076
 40
3.999981
100
AcDbArc
 50
300.000153
 51
375.782967
  0
ARC
  5
27F
100
AcDbEntity
  8
M1
  6
CONTINUOUS
370
25
 62
     7
100
AcDbCircle
 10
431.833827
 20
652.901699
 40
52.999831
100
AcDbArc
 50
164.218124
 51
195.781904
  0
ARC
  5
280
100
AcDbEntity
  8
M1
  6
CONTINUOUS
370
25
 62
     7
100
AcDbCircle
 10
374.859828
 20
651.205776
 40
3.999836
100
AcDbArc
 50
277.990753
 51
361.706451
  0
ARC
  5
281
100
AcDbEntity
  8
M1
  6
CONTINUOUS
370
25
 62
     7
100
AcDbCircle
 10
431.833827
 20
652.901699
 40
71.999474
100
AcDbArc
 50
177.273499
 51
182.726415
  0
ARC
  5
282
100
AcDbEntity
  8
M1
  6
CONTINUOUS
370
25
 62
     7
100
AcDbCircle
 10
363.910853
 20
649.667172
 40
3.999524
100
AcDbArc
 50
182.726868
 51
278.004417
  0
ARC
  5
283
100
AcDbEntity
  8
M1
  6
CONTINUOUS
370
25
 62
     7
100
AcDbCircle
 10
363.910853
 20
656.136289
 40
4.000061
100
AcDbArc
 50
81.995575
 51
177.27269
  0
ARC
  5
284
100
AcDbEntity
  8
M1
  6
CONTINUOUS
370
25
 62
     7
100
AcDbCircle
 10
374.859828
 20
654.597593
 40
3.999819
100
AcDbArc
 50
358.294861
 51
442.00943
  0
ARC
  5
285
100
AcDbEntity
  8
M1
  6
CONTINUOUS
370
25
 62
     7
100
AcDbCircle
 10
376.598841
 20
666.976102
 40
3.999956
100
AcDbArc
 50
262.009491
 51
345.703789
  0
ARC
  5
286
100
AcDbEntity
  8
M1
  6
CONTINUOUS
370
25
 62
     7
100
AcDbCircle
 10
365.650844
 20
668.514676
 40
3.999809
100
AcDbArc
 50
166.725891
 51
261.995575
  0
ARC
  5
287
100
AcDbEntity
  8
M1
  6
CONTINUOUS
370
25
 62
     7
100
AcDbCircle
 10
431.833827
 20
652.901699
 40
71.999251
100
AcDbArc
 50
161.88089
 51
166.726236
  0
ARC
  5
288
100
AcDbEntity
  8
M1
  6
CONTINUOUS
370
25
 62
     7
100
AcDbCircle
 10
367.205897
 20
674.048977
 40
4.000009
100
AcDbArc
 50
60.000069
 51
161.877502
  0
ARC
  5
289
100
AcDbEntity
  8
M1
  6
CONTINUOUS
370
25
 62
     7
100
AcDbCircle
 10
376.982874
 20
668.404293
 40
3.999763
100
AcDbArc
 50
344.218719
 51
419.999855
  0
ARC
  5
28A
100
AcDbEntity
  8
M1
  6
CONTINUOUS
370
25
 62
     7
100
AcDbCircle
 10
431.833827
 20
652.901699
 40
102.500389
100
AcDbArc
 50
354.423676
 51
365.576287
  0
ARC
  5
28B
100
AcDbEntity
  8
M1
  6
CONTINUOUS
370
25
 62
     7
100
AcDbCircle
 10
431.833827
 20
652.901699
 40
87.500366
100
AcDbArc
 50
354.721741
 51
365.278251
  0
ARC
  5
28C
100
AcDbEntity
  8
M1
  6
CONTINUOUS
370
25
 62
     7
100
AcDbCircle
 10
531.858668
 20
662.667477
 40
1.999949
100
AcDbArc
 50
5.578013
 51
98.002879
  0
ARC
  5
28D
100
AcDbEntity
  8
M1
  6
CONTINUOUS
370
25
 62
     7
100
AcDbCircle
 10
520.954616
 20
661.135099
 40
1.999951
100
AcDbArc
 50
97.997681
 51
185.279442
  0
ARC
  5
28E
100
AcDbEntity
  8
M1
  6
CONTINUOUS
370
25
 62
     7
100
AcDbCircle
 10
531.858668
 20
643.135983
 40
2.000067
100
AcDbArc
 50
261.997498
 51
354.421997
  0
ARC
  5
28F
100
AcDbEntity
  8
M1
  6
CONTINUOUS
370
25
 62
     7
100
AcDbCircle
 10
520.954616
 20
644.668302
 40
1.999946
100
AcDbArc
 50
174.718811
 51
262.002434
  0
ARC
  5
290
100
AcDbEntity
  8
M1
  6
CONTINUOUS
370
25
 62
     7
100
AcDbCircle
 10
431.833827
 20
652.901699
 40
102.50042
100
AcDbArc
 50
54.423244
 51
65.576231
  0
ARC
  5
291
100
AcDbEntity
  8
M1
  6
CONTINUOUS
370
25
 62
     7
100
AcDbCircle
 10
431.833827
 20
652.901699
 40
87.50032
100
AcDbArc
 50
54.721436
 51
65.277987
  0
ARC
  5
292
100
AcDbEntity
  8
M1
  6
CONTINUOUS
370
25
 62
     7
100
AcDbCircle
 10
473.388881
 20
744.408292
 40
1.999939
100
AcDbArc
 50
65.577316
 51
157.996269
  0
ARC
  5
293
100
AcDbEntity
  8
M1
  6
CONTINUOUS
370
25
 62
     7
100
AcDbCircle
 10
469.263881
 20
734.199002
 40
1.99966
100
AcDbArc
 50
157.996277
 51
245.287888
  0
ARC
  5
294
100
AcDbEntity
  8
M1
  6
CONTINUOUS
370
25
 62
     7
100
AcDbCircle
 10
490.303858
 20
734.642483
 40
1.999974
100
AcDbArc
 50
321.99942
 51
414.414162
  0
ARC
  5
295
100
AcDbEntity
  8
M1
  6
CONTINUOUS
370
25
 62
     7
100
AcDbCircle
 10
483.524867
 20
725.965603
 40
1.999943
100
AcDbArc
 50
234.722916
 51
321.99942
  0
ARC
  5
296
100
AcDbEntity
  8
M1
  6
CONTINUOUS
370
25
 62
     7
100
AcDbCircle
 10
431.833827
 20
652.901699
 40
102.49968
100
AcDbArc
 50
114.423271
 51
125.576256
  0
ARC
  5
297
100
AcDbEntity
  8
M1
  6
CONTINUOUS
370
25
 62
     7
100
AcDbCircle
 10
431.833827
 20
652.901699
 40
87.499786
100
AcDbArc
 50
114.721436
 51
125.278045
  0
ARC
  5
298
100
AcDbEntity
  8
M1
  6
CONTINUOUS
370
25
 62
     7
100
AcDbCircle
 10
373.364833
 20
734.642606
 40
2.000136
100
AcDbArc
 50
125.586456
 51
218.002258
  0
ARC
  5
299
100
AcDbEntity
  8
M1
  6
CONTINUOUS
370
25
 62
     7
100
AcDbCircle
 10
380.143886
 20
725.965603
 40
2.000021
100
AcDbArc
 50
217.999512
 51
305.274239
  0
ARC
  5
29A
100
AcDbEntity
  8
M1
  6
CONTINUOUS
370
25
 62
     7
100
AcDbCircle
 10
390.279871
 20
744.408169
 40
1.999706
100
AcDbArc
 50
22.006971
 51
114.424421
  0
ARC
  5
29B
100
AcDbEntity
  8
M1
  6
CONTINUOUS
370
25
 62
     7
100
AcDbCircle
 10
394.403896
 20
734.199002
 40
2.000216
100
AcDbArc
 50
294.734344
 51
381.99324
  0
ARC
  5
29C
100
AcDbEntity
  8
M1
  6
CONTINUOUS
370
25
 62
     7
100
AcDbCircle
 10
431.833827
 20
652.901699
 40
102.500084
100
AcDbArc
 50
174.423691
 51
185.576336
  0
ARC
  5
29D
100
AcDbEntity
  8
M1
  6
CONTINUOUS
370
25
 62
     7
100
AcDbCircle
 10
431.833827
 20
652.901699
 40
87.500061
100
AcDbArc
 50
174.721741
 51
185.278228
  0
ARC
  5
29E
100
AcDbEntity
  8
M1
  6
CONTINUOUS
370
25
 62
     7
100
AcDbCircle
 10
331.809778
 20
643.135983
 40
2.000436
100
AcDbArc
 50
185.57666
 51
277.992126
  0
ARC
  5
29F
100
AcDbEntity
  8
M1
  6
CONTINUOUS
370
25
 62
     7
100
AcDbCircle
 10
342.713831
 20
644.668393
 40
2.00003
100
AcDbArc
 50
277.988525
 51
365.279846
  0
ARC
  5
2A0
100
AcDbEntity
  8
M1
  6
CONTINUOUS
370
25
 62
     7
100
AcDbCircle
 10
331.809778
 20
662.667477
 40
1.999926
100
AcDbArc
 50
82.007515
 51
174.425957
  0
ARC
  5
2A1
100
AcDbEntity
  8
M1
  6
CONTINUOUS
370
25
 62
     7
100
AcDbCircle
 10
342.713831
 20
661.135099
 40
1.999453
100
AcDbArc
 50
354.719269
 51
442.010971
  0
ARC
  5
2A2
100
AcDbEntity
  8
M1
  6
CONTINUOUS
370
25
 62
     7
100
AcDbCircle
 10
431.833827
 20
652.901699
 40
102.499809
100
AcDbArc
 50
234.423752
 51
245.576734
  0
ARC
  5
2A3
100
AcDbEntity
  8
M1
  6
CONTINUOUS
370
25
 62
     7
100
AcDbCircle
 10
431.833827
 20
652.901699
 40
87.499756
100
AcDbArc
 50
234.721954
 51
245.278572
  0
ARC
  5
2A4
100
AcDbEntity
  8
M1
  6
CONTINUOUS
370
25
 62
     7
100
AcDbCircle
 10
390.279871
 20
561.395199
 40
2.0001
100
AcDbArc
 50
245.575577
 51
337.993835
  0
ARC
  5
2A5
100
AcDbEntity
  8
M1
  6
CONTINUOUS
370
25
 62
     7
100
AcDbCircle
 10
394.403896
 20
571.604397
 40
2.000566
100
AcDbArc
 50
338.006744
 51
425.266731
  0
ARC
  5
2A6
100
AcDbEntity
  8
M1
  6
CONTINUOUS
370
25
 62
     7
100
AcDbCircle
 10
373.364833
 20
571.160886
 40
2.000079
100
AcDbArc
 50
141.998428
 51
234.413544
  0
ARC
  5
2A7
100
AcDbEntity
  8
M1
  6
CONTINUOUS
370
25
 62
     7
100
AcDbCircle
 10
380.143886
 20
579.837796
 40
1.999871
100
AcDbArc
 50
54.725769
 51
142.001183
  0
ARC
  5
2A8
100
AcDbEntity
  8
M1
  6
CONTINUOUS
370
25
 62
     7
100
AcDbCircle
 10
431.833827
 20
652.901699
 40
102.500107
100
AcDbArc
 50
294.423767
 51
305.576751
  0
ARC
  5
2A9
100
AcDbEntity
  8
M1
  6
CONTINUOUS
370
25
 62
     7
100
AcDbCircle
 10
431.833827
 20
652.901699
 40
87.500229
100
AcDbArc
 50
294.722015
 51
305.278575
  0
ARC
  5
2AA
100
AcDbEntity
  8
M1
  6
CONTINUOUS
370
25
 62
     7
100
AcDbCircle
 10
490.303858
 20
571.160886
 40
2.000171
100
AcDbArc
 50
305.587891
 51
397.999908
  0
ARC
  5
2AB
100
AcDbEntity
  8
M1
  6
CONTINUOUS
370
25
 62
     7
100
AcDbCircle
 10
483.524867
 20
579.837796
 40
1.999956
100
AcDbArc
 50
37.999893
 51
125.277084
  0
ARC
  5
2AC
100
AcDbEntity
  8
M1
  6
CONTINUOUS
370
25
 62
     7
100
AcDbCircle
 10
473.388881
 20
561.395199
 40
1.999694
100
AcDbArc
 50
202.006165
 51
294.421242
  0
ARC
  5
2AD
100
AcDbEntity
  8
M1
  6
CONTINUOUS
370
25
 62
     7
100
AcDbCircle
 10
469.263881
 20
571.604397
 40
1.999941
100
AcDbArc
 50
114.711021
 51
202.003723
  0
ARC
  5
2AE
100
AcDbEntity
  8
M1
  6
CONTINUOUS
370
25
 62
     7
100
AcDbCircle
 10
1239.372737
 20
652.901699
 40
14.999941
100
AcDbArc
 50
193.493454
 51
526.506546
  0
ARC
  5
2AF
100
AcDbEntity
  8
M1
  6
CONTINUOUS
370
25
 62
     7
100
AcDbCircle
 10
1239.372737
 20
652.901699
 40
145.0
100
AcDbArc
 50
61.106159
 51
418.892902
  0
CIRCLE
  5
2B0
100
AcDbEntity
  8
M1
  6
CONTINUOUS
370
25
 62
     7
100
AcDbCircle
 10
1239.372737
 20
652.901699
 40
128.000031
  0
ARC
  5
2B1
100
AcDbEntity
  8
M1
  6
CONTINUOUS
370
25
 62
     7
100
AcDbCircle
 10
1342.805873
 20
804.051663
 40
11.200011
100
AcDbArc
 50
90.0
 51
150.000984
  0
ARC
  5
2B2
100
AcDbEntity
  8
M1
  6
CONTINUOUS
370
25
 62
     7
100
AcDbCircle
 10
1342.805873
 20
804.051663
 40
14.0
100
AcDbArc
 50
90.00415
 51
150.001431
  0
ARC
  5
2B3
100
AcDbEntity
  8
M1
  6
CONTINUOUS
370
25
 62
     7
100
AcDbCircle
 10
1318.556841
 20
818.051663
 40
11.199511
100
AcDbArc
 50
329.99942
 51
390.001694
  0
ARC
  5
2B4
100
AcDbEntity
  8
M1
  6
CONTINUOUS
370
25
 62
     7
100
AcDbCircle
 10
1318.556841
 20
818.051663
 40
13.999719
100
AcDbArc
 50
329.999329
 51
390.000656
  0
CIRCLE
  5
2B5
100
AcDbEntity
  8
M1
  6
CONTINUOUS
370
25
 62
     7
100
AcDbCircle
 10
1139.779841
 20
710.401699
 40
6.5
  0
CIRCLE
  5
2B6
100
AcDbEntity
  8
M1
  6
CONTINUOUS
370
25
 62
     7
100
AcDbCircle
 10
1239.372737
 20
767.901699
 40
6.5
  0
CIRCLE
  5
2B7
100
AcDbEntity
  8
M1
  6
CONTINUOUS
370
25
 62
     7
100
AcDbCircle
 10
1338.965663
 20
710.401699
 40
6.5
  0
CIRCLE
  5
2B8
100
AcDbEntity
  8
M1
  6
CONTINUOUS
370
25
 62
     7
100
AcDbCircle
 10
1338.965663
 20
595.401792
 40
6.5
  0
CIRCLE
  5
2B9
100
AcDbEntity
  8
M1
  6
CONTINUOUS
370
25
 62
     7
100
AcDbCircle
 10
1239.372737
 20
537.901792
 40
6.5
  0
CIRCLE
  5
2BA
100
AcDbEntity
  8
M1
  6
CONTINUOUS
370
25
 62
     7
100
AcDbCircle
 10
1139.779841
 20
595.401699
 40
6.5
  0
CIRCLE
  5
2BB
100
AcDbEntity
  8
M1
  6
CONTINUOUS
370
25
 62
     7
100
AcDbCircle
 10
1239.372737
 20
652.901699
 40
50.0
  0
CIRCLE
  5
2BC
100
AcDbEntity
  8
M1
  6
CONTINUOUS
370
25
 62
     7
100
AcDbCircle
 10
1239.372737
 20
652.901699
 40
40.0
  0
ARC
  5
2BD
100
AcDbEntity
  8
M1
  6
CONTINUOUS
370
13
 62
     7
100
AcDbCircle
 10
1239.372737
 20
652.901699
 40
70.000031
100
AcDbArc
 50
143.343277
 51
156.269933
  0
CIRCLE
  5
2BE
100
AcDbEntity
  8
M1
  6
CONTINUOUS
370
13
 62
     7
100
AcDbCircle
 10
1299.994638
 20
687.901699
 40
5.0
  0
CIRCLE
  5
2BF
100
AcDbEntity
  8
M1
  6
CONTINUOUS
370
25
 62
     7
100
AcDbCircle
 10
1299.994638
 20
687.901699
 40
4.184999
  0
ARC
  5
2C0
100
AcDbEntity
  8
M1
  6
CONTINUOUS
370
25
 62
     7
100
AcDbCircle
 10
1299.994638
 20
687.901699
 40
9.999969
100
AcDbArc
 50
300.000092
 51
479.999924
  0
ARC
  5
2C1
100
AcDbEntity
  8
M1
  6
CONTINUOUS
370
25
 62
     7
100
AcDbCircle
 10
1253.372737
 20
708.155697
 40
4.0
100
AcDbArc
 50
180.0
 51
255.781403
  0
ARC
  5
2C2
100
AcDbEntity
  8
M1
  6
CONTINUOUS
370
25
 62
     7
100
AcDbCircle
 10
1254.801646
 20
707.773893
 40
4.000053
100
AcDbArc
 50
254.294144
 51
337.999947
  0
CIRCLE
  5
2C3
100
AcDbEntity
  8
M1
  6
CONTINUOUS
370
13
 62
     7
100
AcDbCircle
 10
1239.372737
 20
722.901699
 40
5.0
  0
CIRCLE
  5
2C4
100
AcDbEntity
  8
M1
  6
CONTINUOUS
370
25
 62
     7
100
AcDbCircle
 10
1239.372737
 20
722.901699
 40
4.184999
  0
ARC
  5
2C5
100
AcDbEntity
  8
M1
  6
CONTINUOUS
370
25
 62
     7
100
AcDbCircle
 10
1239.372737
 20
722.901699
 40
10.0
100
AcDbArc
 50
0.0
 51
180.0
  0
ARC
  5
2C6
100
AcDbEntity
  8
M1
  6
CONTINUOUS
370
25
 62
     7
100
AcDbCircle
 10
1280.22404
 20
692.653073
 40
3.999966
100
AcDbArc
 50
224.218872
 51
299.999489
  0
ARC
  5
2C7
100
AcDbEntity
  8
M1
  6
CONTINUOUS
370
25
 62
     7
100
AcDbCircle
 10
1279.178936
 20
693.699582
 40
4.000081
100
AcDbArc
 50
141.999802
 51
225.70507
  0
ARC
  5
2C8
100
AcDbEntity
  8
M1
  6
CONTINUOUS
370
25
 62
     7
100
AcDbCircle
 10
1269.328837
 20
701.395292
 40
3.999971
100
AcDbArc
 50
238.294418
 51
322.000031
  0
ARC
  5
2C9
100
AcDbEntity
  8
M1
  6
CONTINUOUS
370
25
 62
     7
100
AcDbCircle
 10
1266.391444
 20
703.091183
 40
4.000006
100
AcDbArc
 50
157.998825
 51
241.704948
  0
ARC
  5
2CA
100
AcDbEntity
  8
M1
  6
CONTINUOUS
370
25
 62
     7
100
AcDbCircle
 10
1239.372737
 20
652.901699
 40
53.000039
100
AcDbArc
 50
44.218121
 51
75.781811
  0
CIRCLE
  5
2CB
100
AcDbEntity
  8
M1
  6
CONTINUOUS
370
13
 62
     7
100
AcDbCircle
 10
1178.750941
 20
687.901699
 40
5.0
  0
CIRCLE
  5
2CC
100
AcDbEntity
  8
M1
  6
CONTINUOUS
370
25
 62
     7
100
AcDbCircle
 10
1178.750941
 20
687.901699
 40
4.184999
  0
ARC
  5
2CD
100
AcDbEntity
  8
M1
  6
CONTINUOUS
370
25
 62
     7
100
AcDbCircle
 10
1178.750941
 20
687.901699
 40
10.000021
100
AcDbArc
 50
60.000069
 51
239.999901
  0
CIRCLE
  5
2CE
100
AcDbEntity
  8
M1
  6
CONTINUOUS
370
13
 62
     7
100
AcDbCircle
 10
1178.750941
 20
617.901699
 40
5.0
  0
CIRCLE
  5
2CF
100
AcDbEntity
  8
M1
  6
CONTINUOUS
370
25
 62
     7
100
AcDbCircle
 10
1178.750941
 20
617.901699
 40
4.184999
  0
ARC
  5
2D0
100
AcDbEntity
  8
M1
  6
CONTINUOUS
370
25
 62
     7
100
AcDbCircle
 10
1178.750941
 20
617.901699
 40
9.999941
100
AcDbArc
 50
120.000191
 51
299.99984
  0
CIRCLE
  5
2D1
100
AcDbEntity
  8
M1
  6
CONTINUOUS
370
13
 62
     7
100
AcDbCircle
 10
1239.372737
 20
582.901699
 40
5.0
  0
CIRCLE
  5
2D2
100
AcDbEntity
  8
M1
  6
CONTINUOUS
370
25
 62
     7
100
AcDbCircle
 10
1239.372737
 20
582.901699
 40
4.184999
  0
ARC
  5
2D3
100
AcDbEntity
  8
M1
  6
CONTINUOUS
370
25
 62
     7
100
AcDbCircle
 10
1239.372737
 20
582.901699
 40
10.0
100
AcDbArc
 50
180.0
 51
360.0
  0
CIRCLE
  5
2D4
100
AcDbEntity
  8
M1
  6
CONTINUOUS
370
13
 62
     7
100
AcDbCircle
 10
1299.994638
 20
617.901699
 40
5.0
  0
CIRCLE
  5
2D5
100
AcDbEntity
  8
M1
  6
CONTINUOUS
370
25
 62
     7
100
AcDbCircle
 10
1299.994638
 20
617.901699
 40
4.184999
  0
ARC
  5
2D6
100
AcDbEntity
  8
M1
  6
CONTINUOUS
370
25
 62
     7
100
AcDbCircle
 10
1299.994638
 20
617.901699
 40
9.999969
100
AcDbArc
 50
239.999893
 51
420.000061
  0
ARC
  5
2D7
100
AcDbEntity
  8
M1
  6
CONTINUOUS
370
13
 62
     7
100
AcDbCircle
 10
1239.372737
 20
652.901699
 40
69.999984
100
AcDbArc
 50
23.407436
 51
36.414182
  0
ARC
  5
2D8
100
AcDbEntity
  8
M1
  6
CONTINUOUS
370
13
 62
     7
100
AcDbCircle
 10
1239.372737
 20
652.901699
 40
70.000099
100
AcDbArc
 50
83.241119
 51
96.497915
  0
ARC
  5
2D9
100
AcDbEntity
  8
M1
  6
CONTINUOUS
370
13
 62
     7
100
AcDbCircle
 10
1239.372737
 20
652.901699
 40
69.999939
100
AcDbArc
 50
203.657257
 51
216.160883
  0
ARC
  5
2DA
100
AcDbEntity
  8
M1
  6
CONTINUOUS
370
13
 62
     7
100
AcDbCircle
 10
1239.372737
 20
652.901699
 40
69.999961
100
AcDbArc
 50
263.826569
 51
276.434589
  0
ARC
  5
2DB
100
AcDbEntity
  8
M1
  6
CONTINUOUS
370
13
 62
     7
100
AcDbCircle
 10
1239.372737
 20
652.901699
 40
69.999977
100
AcDbArc
 50
323.320862
 51
336.063238
  0
ARC
  5
2DC
100
AcDbEntity
  8
M1
  6
CONTINUOUS
370
25
 62
     7
100
AcDbCircle
 10
1239.372737
 20
652.901699
 40
71.999991
100
AcDbArc
 50
73.273613
 51
78.11877
  0
ARC
  5
2DD
100
AcDbEntity
  8
M1
  6
CONTINUOUS
370
25
 62
     7
100
AcDbCircle
 10
1239.372737
 20
652.901699
 40
72.000031
100
AcDbArc
 50
41.881104
 51
46.726391
  0
ARC
  5
2DE
100
AcDbEntity
  8
M1
  6
CONTINUOUS
370
25
 62
     7
100
AcDbCircle
 10
1239.372737
 20
652.901699
 40
72.000009
100
AcDbArc
 50
57.273518
 51
62.726393
  0
ARC
  5
2DF
100
AcDbEntity
  8
M1
  6
CONTINUOUS
370
25
 62
     7
100
AcDbCircle
 10
1290.000941
 20
698.297696
 40
4.000009
100
AcDbArc
 50
299.999939
 51
401.879822
  0
ARC
  5
2E0
100
AcDbEntity
  8
M1
  6
CONTINUOUS
370
25
 62
     7
100
AcDbCircle
 10
1285.985544
 20
702.411802
 40
3.999999
100
AcDbArc
 50
46.727043
 51
142.000374
  0
ARC
  5
2E1
100
AcDbEntity
  8
M1
  6
CONTINUOUS
370
25
 62
     7
100
AcDbCircle
 10
1276.135431
 20
710.107479
 40
4.000094
100
AcDbArc
 50
321.999939
 51
417.273468
  0
ARC
  5
2E2
100
AcDbEntity
  8
M1
  6
CONTINUOUS
370
25
 62
     7
100
AcDbCircle
 10
1270.533046
 20
713.342069
 40
4.0
100
AcDbArc
 50
62.725883
 51
157.998421
  0
ARC
  5
2E3
100
AcDbEntity
  8
M1
  6
CONTINUOUS
370
25
 62
     7
100
AcDbCircle
 10
1258.943231
 20
718.024686
 40
3.999994
100
AcDbArc
 50
337.999237
 51
433.274681
  0
ARC
  5
2E4
100
AcDbEntity
  8
M1
  6
CONTINUOUS
370
25
 62
     7
100
AcDbCircle
 10
1253.372737
 20
719.444973
 40
3.999994
100
AcDbArc
 50
78.119232
 51
180.0
  0
ARC
  5
2E5
100
AcDbEntity
  8
M1
  6
CONTINUOUS
370
25
 62
     7
100
AcDbCircle
 10
1239.372737
 20
652.901699
 40
71.999909
100
AcDbArc
 50
101.881065
 51
106.726377
  0
ARC
  5
2E6
100
AcDbEntity
  8
M1
  6
CONTINUOUS
370
25
 62
     7
100
AcDbCircle
 10
1225.372737
 20
719.444973
 40
4.0
100
AcDbArc
 50
0.0
 51
101.880768
  0
ARC
  5
2E7
100
AcDbEntity
  8
M1
  6
CONTINUOUS
370
25
 62
     7
100
AcDbCircle
 10
1219.802241
 20
718.024563
 40
4.000077
100
AcDbArc
 50
106.727547
 51
201.998657
  0
ARC
  5
2E8
100
AcDbEntity
  8
M1
  6
CONTINUOUS
370
25
 62
     7
100
AcDbCircle
 10
1223.943843
 20
707.7738
 40
4.000056
100
AcDbArc
 50
201.999466
 51
285.704727
  0
ARC
  5
2E9
100
AcDbEntity
  8
M1
  6
CONTINUOUS
370
25
 62
     7
100
AcDbCircle
 10
1225.372737
 20
708.155697
 40
4.000019
100
AcDbArc
 50
284.217316
 51
359.999992
  0
ARC
  5
2EA
100
AcDbEntity
  8
M1
  6
CONTINUOUS
370
25
 62
     7
100
AcDbCircle
 10
1239.372737
 20
652.901699
 40
52.999996
100
AcDbArc
 50
104.218079
 51
135.781801
  0
ARC
  5
2EB
100
AcDbEntity
  8
M1
  6
CONTINUOUS
370
25
 62
     7
100
AcDbCircle
 10
1212.354136
 20
703.091274
 40
3.999994
100
AcDbArc
 50
298.29425
 51
381.999969
  0
ARC
  5
2EC
100
AcDbEntity
  8
M1
  6
CONTINUOUS
370
25
 62
     7
100
AcDbCircle
 10
1239.372737
 20
652.901699
 40
71.999977
100
AcDbArc
 50
117.273529
 51
122.726409
  0
ARC
  5
2ED
100
AcDbEntity
  8
M1
  6
CONTINUOUS
370
25
 62
     7
100
AcDbCircle
 10
1208.212443
 20
713.342069
 40
4.000056
100
AcDbArc
 50
21.99947
 51
117.272953
  0
ARC
  5
2EE
100
AcDbEntity
  8
M1
  6
CONTINUOUS
370
25
 62
     7
100
AcDbCircle
 10
1202.609936
 20
710.107479
 40
4.000019
100
AcDbArc
 50
122.725876
 51
217.999763
  0
ARC
  5
2EF
100
AcDbEntity
  8
M1
  6
CONTINUOUS
370
25
 62
     7
100
AcDbCircle
 10
1209.416743
 20
701.395382
 40
4.000081
100
AcDbArc
 50
218.000198
 51
301.704903
  0
ARC
  5
2F0
100
AcDbEntity
  8
M1
  6
CONTINUOUS
370
25
 62
     7
100
AcDbCircle
 10
1199.566538
 20
693.699582
 40
3.999984
100
AcDbArc
 50
314.294922
 51
397.999969
  0
ARC
  5
2F1
100
AcDbEntity
  8
M1
  6
CONTINUOUS
370
25
 62
     7
100
AcDbCircle
 10
1192.759837
 20
702.411679
 40
4.000026
100
AcDbArc
 50
37.999165
 51
133.273556
  0
ARC
  5
2F2
100
AcDbEntity
  8
M1
  6
CONTINUOUS
370
25
 62
     7
100
AcDbCircle
 10
1239.372737
 20
652.901699
 40
71.999954
100
AcDbArc
 50
133.273666
 51
138.118847
  0
ARC
  5
2F3
100
AcDbEntity
  8
M1
  6
CONTINUOUS
370
25
 62
     7
100
AcDbCircle
 10
1188.744638
 20
698.297696
 40
4.00001
100
AcDbArc
 50
138.120193
 51
240.000076
  0
ARC
  5
2F4
100
AcDbEntity
  8
M1
  6
CONTINUOUS
370
25
 62
     7
100
AcDbCircle
 10
1198.521434
 20
692.653073
 40
4.000061
100
AcDbArc
 50
240.000504
 51
315.782188
  0
ARC
  5
2F5
100
AcDbEntity
  8
M1
  6
CONTINUOUS
370
25
 62
     7
100
AcDbCircle
 10
1239.372737
 20
652.901699
 40
71.999947
100
AcDbArc
 50
161.881073
 51
166.726414
  0
ARC
  5
2F6
100
AcDbEntity
  8
M1
  6
CONTINUOUS
370
25
 62
     7
100
AcDbCircle
 10
1174.744638
 20
674.048977
 40
4.000009
100
AcDbArc
 50
60.000069
 51
161.880562
  0
ARC
  5
2F7
100
AcDbEntity
  8
M1
  6
CONTINUOUS
370
25
 62
     7
100
AcDbCircle
 10
1173.189433
 20
668.514584
 40
4.00004
100
AcDbArc
 50
166.728012
 51
262.000114
  0
ARC
  5
2F8
100
AcDbEntity
  8
M1
  6
CONTINUOUS
370
25
 62
     7
100
AcDbCircle
 10
1184.137644
 20
666.975887
 40
3.999929
100
AcDbArc
 50
261.999725
 51
345.705811
  0
ARC
  5
2F9
100
AcDbEntity
  8
M1
  6
CONTINUOUS
370
25
 62
     7
100
AcDbCircle
 10
1184.521434
 20
668.404293
 40
4.000001
100
AcDbArc
 50
344.217865
 51
419.999847
  0
ARC
  5
2FA
100
AcDbEntity
  8
M1
  6
CONTINUOUS
370
25
 62
     7
100
AcDbCircle
 10
1239.372737
 20
652.901699
 40
52.999961
100
AcDbArc
 50
164.21817
 51
195.78187
  0
ARC
  5
2FB
100
AcDbEntity
  8
M1
  6
CONTINUOUS
370
25
 62
     7
100
AcDbCircle
 10
1182.398036
 20
654.597593
 40
3.99997
100
AcDbArc
 50
358.294922
 51
441.999908
  0
ARC
  5
2FC
100
AcDbEntity
  8
M1
  6
CONTINUOUS
370
25
 62
     7
100
AcDbCircle
 10
1239.372737
 20
652.901699
 40
71.999991
100
AcDbArc
 50
177.273529
 51
182.726406
  0
ARC
  5
2FD
100
AcDbEntity
  8
M1
  6
CONTINUOUS
370
25
 62
     7
100
AcDbCircle
 10
1171.449856
 20
656.136289
 40
4.000016
100
AcDbArc
 50
82.000336
 51
177.274788
  0
ARC
  5
2FE
100
AcDbEntity
  8
M1
  6
CONTINUOUS
370
25
 62
     7
100
AcDbCircle
 10
1171.449641
 20
649.66708
 40
4.000043
100
AcDbArc
 50
182.726959
 51
278.000099
  0
ARC
  5
2FF
100
AcDbEntity
  8
M1
  6
CONTINUOUS
370
25
 62
     7
100
AcDbCircle
 10
1182.398036
 20
651.205899
 40
4.000049
100
AcDbArc
 50
278.000031
 51
361.704636
  0
ARC
  5
300
100
AcDbEntity
  8
M1
  6
CONTINUOUS
370
25
 62
     7
100
AcDbCircle
 10
1184.137644
 20
638.827389
 40
4.000051
100
AcDbArc
 50
14.295461
 51
98.000096
  0
ARC
  5
301
100
AcDbEntity
  8
M1
  6
CONTINUOUS
370
25
 62
     7
100
AcDbCircle
 10
1173.189433
 20
637.288693
 40
4.000017
100
AcDbArc
 50
97.999878
 51
193.273659
  0
ARC
  5
302
100
AcDbEntity
  8
M1
  6
CONTINUOUS
370
25
 62
     7
100
AcDbCircle
 10
1239.372737
 20
652.901699
 40
71.999909
100
AcDbArc
 50
193.273712
 51
198.11896
  0
ARC
  5
303
100
AcDbEntity
  8
M1
  6
CONTINUOUS
370
25
 62
     7
100
AcDbCircle
 10
1174.744638
 20
631.754392
 40
4.000074
100
AcDbArc
 50
198.119431
 51
299.999924
  0
ARC
  5
304
100
AcDbEntity
  8
M1
  6
CONTINUOUS
370
25
 62
     7
100
AcDbCircle
 10
1184.521434
 20
637.399076
 40
3.999981
100
AcDbArc
 50
300.000153
 51
375.780457
  0
ARC
  5
305
100
AcDbEntity
  8
M1
  6
CONTINUOUS
370
25
 62
     7
100
AcDbCircle
 10
1239.372737
 20
652.901699
 40
71.999977
100
AcDbArc
 50
221.881073
 51
226.726467
  0
ARC
  5
306
100
AcDbEntity
  8
M1
  6
CONTINUOUS
370
25
 62
     7
100
AcDbCircle
 10
1188.744638
 20
607.505673
 40
4.000009
100
AcDbArc
 50
119.999931
 51
221.879814
  0
ARC
  5
307
100
AcDbEntity
  8
M1
  6
CONTINUOUS
370
25
 62
     7
100
AcDbCircle
 10
1192.759944
 20
603.391689
 40
4.00002
100
AcDbArc
 50
226.727341
 51
322.000832
  0
ARC
  5
308
100
AcDbEntity
  8
M1
  6
CONTINUOUS
370
25
 62
     7
100
AcDbCircle
 10
1199.566646
 20
612.103787
 40
3.999923
100
AcDbArc
 50
322.000244
 51
405.705078
  0
ARC
  5
309
100
AcDbEntity
  8
M1
  6
CONTINUOUS
370
25
 62
     7
100
AcDbCircle
 10
1198.521434
 20
613.150387
 40
4.000064
100
AcDbArc
 50
44.218121
 51
119.999928
  0
ARC
  5
30A
100
AcDbEntity
  8
M1
  6
CONTINUOUS
370
25
 62
     7
100
AcDbCircle
 10
1239.372737
 20
652.901699
 40
52.999901
100
AcDbArc
 50
224.218124
 51
255.781925
  0
ARC
  5
30B
100
AcDbEntity
  8
M1
  6
CONTINUOUS
370
25
 62
     7
100
AcDbCircle
 10
1209.416743
 20
604.408077
 40
4.000049
100
AcDbArc
 50
58.295101
 51
141.999805
  0
ARC
  5
30C
100
AcDbEntity
  8
M1
  6
CONTINUOUS
370
25
 62
     7
100
AcDbCircle
 10
1239.372737
 20
652.901699
 40
71.999954
100
AcDbArc
 50
237.27359
 51
242.726492
  0
ARC
  5
30D
100
AcDbEntity
  8
M1
  6
CONTINUOUS
370
25
 62
     7
100
AcDbCircle
 10
1202.610041
 20
595.69598
 40
3.999954
100
AcDbArc
 50
142.000031
 51
237.273941
  0
ARC
  5
30E
100
AcDbEntity
  8
M1
  6
CONTINUOUS
370
25
 62
     7
100
AcDbCircle
 10
1208.212443
 20
592.4613
 40
3.999986
100
AcDbArc
 50
242.727249
 51
338.000526
  0
ARC
  5
30F
100
AcDbEntity
  8
M1
  6
CONTINUOUS
370
25
 62
     7
100
AcDbCircle
 10
1212.354136
 20
602.712186
 40
3.999971
100
AcDbArc
 50
338.000031
 51
421.70575
  0
ARC
  5
310
100
AcDbEntity
  8
M1
  6
CONTINUOUS
370
25
 62
     7
100
AcDbCircle
 10
1223.943934
 20
598.029599
 40
3.999996
100
AcDbArc
 50
74.295502
 51
158.000359
  0
ARC
  5
311
100
AcDbEntity
  8
M1
  6
CONTINUOUS
370
25
 62
     7
100
AcDbCircle
 10
1219.802333
 20
587.778774
 40
3.999957
100
AcDbArc
 50
157.999954
 51
253.273788
  0
ARC
  5
312
100
AcDbEntity
  8
M1
  6
CONTINUOUS
370
25
 62
     7
100
AcDbCircle
 10
1239.372737
 20
652.901699
 40
71.999986
100
AcDbArc
 50
253.273697
 51
258.118858
  0
ARC
  5
313
100
AcDbEntity
  8
M1
  6
CONTINUOUS
370
25
 62
     7
100
AcDbCircle
 10
1225.372737
 20
586.358396
 40
3.999994
100
AcDbArc
 50
258.119232
 51
360.0
  0
ARC
  5
314
100
AcDbEntity
  8
M1
  6
CONTINUOUS
370
25
 62
     7
100
AcDbCircle
 10
1225.372737
 20
597.647793
 40
4.0
100
AcDbArc
 50
0.0
 51
75.780975
  0
ARC
  5
315
100
AcDbEntity
  8
M1
  6
CONTINUOUS
370
25
 62
     7
100
AcDbCircle
 10
1239.372737
 20
652.901699
 40
71.999986
100
AcDbArc
 50
281.881134
 51
286.726447
  0
ARC
  5
316
100
AcDbEntity
  8
M1
  6
CONTINUOUS
370
25
 62
     7
100
AcDbCircle
 10
1253.372737
 20
586.358396
 40
4.0
100
AcDbArc
 50
180.0
 51
281.880768
  0
ARC
  5
317
100
AcDbEntity
  8
M1
  6
CONTINUOUS
370
25
 62
     7
100
AcDbCircle
 10
1258.943338
 20
587.778774
 40
3.999929
100
AcDbArc
 50
286.726593
 51
382.001266
  0
ARC
  5
318
100
AcDbEntity
  8
M1
  6
CONTINUOUS
370
25
 62
     7
100
AcDbCircle
 10
1254.801738
 20
598.029599
 40
3.99998
100
AcDbArc
 50
22.000854
 51
105.705757
  0
ARC
  5
319
100
AcDbEntity
  8
M1
  6
CONTINUOUS
370
25
 62
     7
100
AcDbCircle
 10
1253.372737
 20
597.647793
 40
4.000016
100
AcDbArc
 50
104.21711
 51
180.0
  0
ARC
  5
31A
100
AcDbEntity
  8
M1
  6
CONTINUOUS
370
25
 62
     7
100
AcDbCircle
 10
1239.372737
 20
652.901699
 40
53.000053
100
AcDbArc
 50
284.21817
 51
315.78194
  0
ARC
  5
31B
100
AcDbEntity
  8
M1
  6
CONTINUOUS
370
25
 62
     7
100
AcDbCircle
 10
1266.391444
 20
602.712186
 40
4.000001
100
AcDbArc
 50
118.294434
 51
201.999962
  0
ARC
  5
31C
100
AcDbEntity
  8
M1
  6
CONTINUOUS
370
25
 62
     7
100
AcDbCircle
 10
1239.372737
 20
652.901699
 40
72.000076
100
AcDbArc
 50
297.27359
 51
302.726488
  0
ARC
  5
31D
100
AcDbEntity
  8
M1
  6
CONTINUOUS
370
25
 62
     7
100
AcDbCircle
 10
1270.533046
 20
592.461393
 40
3.999971
100
AcDbArc
 50
201.999954
 51
297.274109
  0
ARC
  5
31E
100
AcDbEntity
  8
M1
  6
CONTINUOUS
370
25
 62
     7
100
AcDbCircle
 10
1276.135538
 20
595.695889
 40
3.999949
100
AcDbArc
 50
302.726776
 51
397.998825
  0
ARC
  5
31F
100
AcDbEntity
  8
M1
  6
CONTINUOUS
370
25
 62
     7
100
AcDbCircle
 10
1269.328837
 20
604.408077
 40
3.999954
100
AcDbArc
 50
37.999969
 51
121.704895
  0
ARC
  5
320
100
AcDbEntity
  8
M1
  6
CONTINUOUS
370
25
 62
     7
100
AcDbCircle
 10
1279.179041
 20
612.103879
 40
3.999984
100
AcDbArc
 50
134.294922
 51
217.999847
  0
ARC
  5
321
100
AcDbEntity
  8
M1
  6
CONTINUOUS
370
25
 62
     7
100
AcDbCircle
 10
1285.985637
 20
603.391782
 40
3.999999
100
AcDbArc
 50
218.001144
 51
313.274078
  0
ARC
  5
322
100
AcDbEntity
  8
M1
  6
CONTINUOUS
370
25
 62
     7
100
AcDbCircle
 10
1239.372737
 20
652.901699
 40
72.000046
100
AcDbArc
 50
313.27359
 51
318.118876
  0
ARC
  5
323
100
AcDbEntity
  8
M1
  6
CONTINUOUS
370
25
 62
     7
100
AcDbCircle
 10
1290.000941
 20
607.505673
 40
4.00001
100
AcDbArc
 50
318.120178
 51
420.000061
  0
ARC
  5
324
100
AcDbEntity
  8
M1
  6
CONTINUOUS
370
25
 62
     7
100
AcDbCircle
 10
1280.22404
 20
613.150387
 40
4.000009
100
AcDbArc
 50
60.000069
 51
135.780807
  0
ARC
  5
325
100
AcDbEntity
  8
M1
  6
CONTINUOUS
370
25
 62
     7
100
AcDbCircle
 10
1239.372737
 20
652.901699
 40
72.000061
100
AcDbArc
 50
341.881073
 51
346.726455
  0
ARC
  5
326
100
AcDbEntity
  8
M1
  6
CONTINUOUS
370
25
 62
     7
100
AcDbCircle
 10
1304.000941
 20
631.754392
 40
4.000009
100
AcDbArc
 50
240.000076
 51
341.880058
  0
ARC
  5
327
100
AcDbEntity
  8
M1
  6
CONTINUOUS
370
25
 62
     7
100
AcDbCircle
 10
1305.55614
 20
637.288876
 40
3.999957
100
AcDbArc
 50
346.726379
 51
441.99971
  0
ARC
  5
328
100
AcDbEntity
  8
M1
  6
CONTINUOUS
370
25
 62
     7
100
AcDbCircle
 10
1294.607844
 20
638.827573
 40
3.999959
100
AcDbArc
 50
81.999779
 51
165.705482
  0
ARC
  5
329
100
AcDbEntity
  8
M1
  6
CONTINUOUS
370
25
 62
     7
100
AcDbCircle
 10
1294.22404
 20
637.399076
 40
3.999987
100
AcDbArc
 50
164.217804
 51
239.999847
  0
ARC
  5
32A
100
AcDbEntity
  8
M1
  6
CONTINUOUS
370
25
 62
     7
100
AcDbCircle
 10
1239.372737
 20
652.901699
 40
52.999986
100
AcDbArc
 50
344.21814
 51
375.78183
  0
ARC
  5
32B
100
AcDbEntity
  8
M1
  6
CONTINUOUS
370
25
 62
     7
100
AcDbCircle
 10
1296.347544
 20
651.205776
 40
4.00008
100
AcDbArc
 50
178.293655
 51
261.998207
  0
ARC
  5
32C
100
AcDbEntity
  8
M1
  6
CONTINUOUS
370
25
 62
     7
100
AcDbCircle
 10
1239.372737
 20
652.901699
 40
72.000009
100
AcDbArc
 50
357.273499
 51
362.726375
  0
ARC
  5
32D
100
AcDbEntity
  8
M1
  6
CONTINUOUS
370
25
 62
     7
100
AcDbCircle
 10
1307.295741
 20
649.667172
 40
4.000019
100
AcDbArc
 50
261.999908
 51
357.273476
  0
ARC
  5
32E
100
AcDbEntity
  8
M1
  6
CONTINUOUS
370
25
 62
     7
100
AcDbCircle
 10
1307.29584
 20
656.136289
 40
4.000029
100
AcDbArc
 50
2.726966
 51
98.000098
  0
ARC
  5
32F
100
AcDbEntity
  8
M1
  6
CONTINUOUS
370
25
 62
     7
100
AcDbCircle
 10
1296.347544
 20
654.597593
 40
4.000019
100
AcDbArc
 50
98.000099
 51
181.70504
  0
ARC
  5
330
100
AcDbEntity
  8
M1
  6
CONTINUOUS
370
25
 62
     7
100
AcDbCircle
 10
1294.607844
 20
666.976102
 40
3.999961
100
AcDbArc
 50
194.295792
 51
278.000046
  0
ARC
  5
331
100
AcDbEntity
  8
M1
  6
CONTINUOUS
370
25
 62
     7
100
AcDbCircle
 10
1305.55614
 20
668.514676
 40
4.000006
100
AcDbArc
 50
277.998688
 51
373.273605
  0
ARC
  5
332
100
AcDbEntity
  8
M1
  6
CONTINUOUS
370
25
 62
     7
100
AcDbCircle
 10
1239.372737
 20
652.901699
 40
72.000016
100
AcDbArc
 50
13.273662
 51
18.11881
  0
ARC
  5
333
100
AcDbEntity
  8
M1
  6
CONTINUOUS
370
25
 62
     7
100
AcDbCircle
 10
1304.000941
 20
674.048977
 40
3.999966
100
AcDbArc
 50
18.119946
 51
119.999928
  0
ARC
  5
334
100
AcDbEntity
  8
M1
  6
CONTINUOUS
370
25
 62
     7
100
AcDbCircle
 10
1294.22404
 20
668.404293
 40
3.999981
100
AcDbArc
 50
120.000153
 51
195.780518
  0
ARC
  5
335
100
AcDbEntity
  8
M1
  6
CONTINUOUS
370
25
 62
     7
100
AcDbCircle
 10
1239.372737
 20
652.901699
 40
102.499969
100
AcDbArc
 50
174.42363
 51
185.576288
  0
ARC
  5
336
100
AcDbEntity
  8
M1
  6
CONTINUOUS
370
25
 62
     7
100
AcDbCircle
 10
1239.372737
 20
652.901699
 40
87.499939
100
AcDbArc
 50
174.721725
 51
185.278227
  0
ARC
  5
337
100
AcDbEntity
  8
M1
  6
CONTINUOUS
370
25
 62
     7
100
AcDbCircle
 10
1139.348353
 20
662.667477
 40
1.999956
100
AcDbArc
 50
82.00145
 51
174.422066
  0
ARC
  5
338
100
AcDbEntity
  8
M1
  6
CONTINUOUS
370
25
 62
     7
100
AcDbCircle
 10
1150.252253
 20
661.135099
 40
2.000061
100
AcDbArc
 50
354.720886
 51
441.998863
  0
ARC
  5
339
100
AcDbEntity
  8
M1
  6
CONTINUOUS
370
25
 62
     7
100
AcDbCircle
 10
1139.348353
 20
643.135983
 40
1.999979
100
AcDbArc
 50
185.577927
 51
278.000778
  0
ARC
  5
33A
100
AcDbEntity
  8
M1
  6
CONTINUOUS
370
25
 62
     7
100
AcDbCircle
 10
1150.252253
 20
644.668302
 40
1.999999
100
AcDbArc
 50
278.001038
 51
365.280876
  0
ARC
  5
33B
100
AcDbEntity
  8
M1
  6
CONTINUOUS
370
25
 62
     7
100
AcDbCircle
 10
1239.372737
 20
652.901699
 40
102.499931
100
AcDbArc
 50
114.423584
 51
125.576294
  0
ARC
  5
33C
100
AcDbEntity
  8
M1
  6
CONTINUOUS
370
25
 62
     7
100
AcDbCircle
 10
1239.372737
 20
652.901699
 40
87.499947
100
AcDbArc
 50
114.721664
 51
125.27822
  0
ARC
  5
33D
100
AcDbEntity
  8
M1
  6
CONTINUOUS
370
25
 62
     7
100
AcDbCircle
 10
1197.817943
 20
744.408292
 40
2.000029
100
AcDbArc
 50
21.99947
 51
114.42268
  0
ARC
  5
33E
100
AcDbEntity
  8
M1
  6
CONTINUOUS
370
25
 62
     7
100
AcDbCircle
 10
1201.942836
 20
734.199002
 40
2.000006
100
AcDbArc
 50
294.721252
 51
381.999466
  0
ARC
  5
33F
100
AcDbEntity
  8
M1
  6
CONTINUOUS
370
25
 62
     7
100
AcDbCircle
 10
1180.903131
 20
734.642483
 40
2.000031
100
AcDbArc
 50
125.576248
 51
218.000587
  0
ARC
  5
340
100
AcDbEntity
  8
M1
  6
CONTINUOUS
370
25
 62
     7
100
AcDbCircle
 10
1187.682246
 20
725.965603
 40
2.000071
100
AcDbArc
 50
217.998428
 51
305.278511
  0
ARC
  5
341
100
AcDbEntity
  8
M1
  6
CONTINUOUS
370
25
 62
     7
100
AcDbCircle
 10
1239.372737
 20
652.901699
 40
102.499991
100
AcDbArc
 50
54.423576
 51
65.576307
  0
ARC
  5
342
100
AcDbEntity
  8
M1
  6
CONTINUOUS
370
25
 62
     7
100
AcDbCircle
 10
1239.372737
 20
652.901699
 40
87.500031
100
AcDbArc
 50
54.721703
 51
65.27822
  0
ARC
  5
343
100
AcDbEntity
  8
M1
  6
CONTINUOUS
370
25
 62
     7
100
AcDbCircle
 10
1297.842341
 20
734.642606
 40
2.000134
100
AcDbArc
 50
321.998535
 51
414.421356
  0
ARC
  5
344
100
AcDbEntity
  8
M1
  6
CONTINUOUS
370
25
 62
     7
100
AcDbCircle
 10
1291.063334
 20
725.965603
 40
1.999979
100
AcDbArc
 50
234.721481
 51
321.99968
  0
ARC
  5
345
100
AcDbEntity
  8
M1
  6
CONTINUOUS
370
25
 62
     7
100
AcDbCircle
 10
1280.927546
 20
744.408169
 40
2.000087
100
AcDbArc
 50
65.576378
 51
157.996307
  0
ARC
  5
346
100
AcDbEntity
  8
M1
  6
CONTINUOUS
370
25
 62
     7
100
AcDbCircle
 10
1276.802746
 20
734.199002
 40
2.000029
100
AcDbArc
 50
158.000534
 51
245.278748
  0
ARC
  5
347
100
AcDbEntity
  8
M1
  6
CONTINUOUS
370
25
 62
     7
100
AcDbCircle
 10
1239.372737
 20
652.901699
 40
102.500031
100
AcDbArc
 50
354.423615
 51
365.576316
  0
ARC
  5
348
100
AcDbEntity
  8
M1
  6
CONTINUOUS
370
25
 62
     7
100
AcDbCircle
 10
1239.372737
 20
652.901699
 40
87.500039
100
AcDbArc
 50
354.72171
 51
365.278199
  0
ARC
  5
349
100
AcDbEntity
  8
M1
  6
CONTINUOUS
370
25
 62
     7
100
AcDbCircle
 10
1339.397181
 20
643.135983
 40
2.000053
100
AcDbArc
 50
262.000519
 51
354.422134
  0
ARC
  5
34A
100
AcDbEntity
  8
M1
  6
CONTINUOUS
370
25
 62
     7
100
AcDbCircle
 10
1328.493251
 20
644.668393
 40
1.99999
100
AcDbArc
 50
174.721573
 51
261.999992
  0
ARC
  5
34B
100
AcDbEntity
  8
M1
  6
CONTINUOUS
370
25
 62
     7
100
AcDbCircle
 10
1339.397181
 20
662.667477
 40
2.0
100
AcDbArc
 50
5.575233
 51
98.00006
  0
ARC
  5
34C
100
AcDbEntity
  8
M1
  6
CONTINUOUS
370
25
 62
     7
100
AcDbCircle
 10
1328.493251
 20
661.135099
 40
1.999961
100
AcDbArc
 50
97.999626
 51
185.279297
  0
ARC
  5
34D
100
AcDbEntity
  8
M1
  6
CONTINUOUS
370
25
 62
     7
100
AcDbCircle
 10
1239.372737
 20
652.901699
 40
102.5
100
AcDbArc
 50
294.423645
 51
305.576346
  0
ARC
  5
34E
100
AcDbEntity
  8
M1
  6
CONTINUOUS
370
25
 62
     7
100
AcDbCircle
 10
1239.372737
 20
652.901699
 40
87.500023
100
AcDbArc
 50
294.72171
 51
305.278291
  0
ARC
  5
34F
100
AcDbEntity
  8
M1
  6
CONTINUOUS
370
25
 62
     7
100
AcDbCircle
 10
1280.927546
 20
561.395199
 40
1.999977
100
AcDbArc
 50
202.002884
 51
294.423622
  0
ARC
  5
350
100
AcDbEntity
  8
M1
  6
CONTINUOUS
370
25
 62
     7
100
AcDbCircle
 10
1276.802746
 20
571.604397
 40
2.000127
100
AcDbArc
 50
114.722542
 51
201.999474
  0
ARC
  5
351
100
AcDbEntity
  8
M1
  6
CONTINUOUS
370
25
 62
     7
100
AcDbCircle
 10
1297.842341
 20
571.160886
 40
1.99994
100
AcDbArc
 50
305.578644
 51
398.000771
  0
ARC
  5
352
100
AcDbEntity
  8
M1
  6
CONTINUOUS
370
25
 62
     7
100
AcDbCircle
 10
1291.063334
 20
579.837796
 40
1.999969
100
AcDbArc
 50
37.999626
 51
125.281013
  0
ARC
  5
353
100
AcDbEntity
  8
M1
  6
CONTINUOUS
370
25
 62
     7
100
AcDbCircle
 10
1239.372737
 20
652.901699
 40
102.499954
100
AcDbArc
 50
234.42363
 51
245.576364
  0
ARC
  5
354
100
AcDbEntity
  8
M1
  6
CONTINUOUS
370
25
 62
     7
100
AcDbCircle
 10
1239.372737
 20
652.901699
 40
87.499969
100
AcDbArc
 50
234.721756
 51
245.278288
  0
ARC
  5
355
100
AcDbEntity
  8
M1
  6
CONTINUOUS
370
25
 62
     7
100
AcDbCircle
 10
1180.903131
 20
571.160886
 40
1.999956
100
AcDbArc
 50
142.000107
 51
234.421722
  0
ARC
  5
356
100
AcDbEntity
  8
M1
  6
CONTINUOUS
370
25
 62
     7
100
AcDbCircle
 10
1187.682246
 20
579.837796
 40
1.999979
100
AcDbArc
 50
54.721485
 51
142.00037
  0
ARC
  5
357
100
AcDbEntity
  8
M1
  6
CONTINUOUS
370
25
 62
     7
100
AcDbCircle
 10
1197.817943
 20
561.395199
 40
2.000049
100
AcDbArc
 50
245.578766
 51
337.9981
  0
ARC
  5
358
100
AcDbEntity
  8
M1
  6
CONTINUOUS
370
25
 62
     7
100
AcDbCircle
 10
1201.942836
 20
571.604397
 40
2.000029
100
AcDbArc
 50
338.000519
 51
425.279831
  0
ARC
  5
359
100
AcDbEntity
  8
M1
  6
CONTINUOUS
370
25
 62
     7
100
AcDbCircle
 10
1307.805338
 20
771.429166
 40
6.000084
100
AcDbArc
 50
87.816536
 51
392.172493
  0
ARC
  5
35A
100
AcDbEntity
  8
M1
  6
CONTINUOUS
370
25
 62
     7
100
AcDbCircle
 10
1306.592936
 20
772.129177
 40
1.399884
100
AcDbArc
 50
149.996704
 51
329.998886
  0
ARC
  5
35B
100
AcDbEntity
  8
M1
  6
CONTINUOUS
370
25
 62
     7
100
AcDbCircle
 10
1309.018138
 20
770.72897
 40
1.400411
100
AcDbArc
 50
150.000519
 51
330.002548
  0
SPLINE
  5
35C
100
AcDbEntity
  8
M1
  6
CONTINUOUS
370
25
 62
     7
100
AcDbSpline
210
0.0
220
0.0
230
-1.0
 70
     8
 71
     3
 72
    11
 73
     7
 43
0.0000001
 40
0.0
 40
0.0
 40
0.0
 40
0.0
 40
1.0
 40
1.0
 40
1.0
 40
2.0
 40
2.0
 40
2.0
 40
2.0
 10
774.296351
 20
714.401699
 10
773.853358
 20
713.123074
 10
773.60348
 20
711.762386
 10
773.60348
 20
710.401699
 10
773.603418
 20
709.041013
 10
773.853297
 20
707.680326
 10
774.29629
 20
706.401699
  0
SPLINE
  5
35D
100
AcDbEntity
  8
M1
  6
CONTINUOUS
370
25
 62
     7
100
AcDbSpline
210
0.0
220
0.0
230
-1.0
 70
     8
 71
     3
 72
    11
 73
     7
 43
0.0000001
 40
0.0
 40
0.0
 40
0.0
 40
0.0
 40
1.0
 40
1.0
 40
1.0
 40
2.0
 40
2.0
 40
2.0
 40
2.0
 10
899.910608
 20
771.901699
 10
900.353601
 20
770.623074
 10
900.60348
 20
769.262356
 10
900.60348
 20
767.901699
 10
900.603418
 20
766.541043
 10
900.353541
 20
765.180326
 10
899.910548
 20
763.901699
  0
SPLINE
  5
35E
100
AcDbEntity
  8
M1
  6
CONTINUOUS
370
25
 62
     7
100
AcDbSpline
210
0.0
220
0.0
230
-1.0
 70
     8
 71
     3
 72
    11
 73
     7
 43
0.0000001
 40
0.0
 40
0.0
 40
0.0
 40
0.0
 40
1.0
 40
1.0
 40
1.0
 40
2.0
 40
2.0
 40
2.0
 40
2.0
 10
899.910608
 20
533.901699
 10
900.353601
 20
535.180326
 10
900.60348
 20
536.541013
 10
900.60348
 20
537.901699
 10
900.603418
 20
539.262386
 10
900.353541
 20
540.623074
 10
899.910548
 20
541.901699
  0
SPLINE
  5
35F
100
AcDbEntity
  8
M1
  6
CONTINUOUS
370
25
 62
     7
100
AcDbSpline
210
0.0
220
0.0
230
-1.0
 70
     8
 71
     3
 72
    11
 73
     7
 43
0.0000001
 40
0.0
 40
0.0
 40
0.0
 40
0.0
 40
1.0
 40
1.0
 40
1.0
 40
2.0
 40
2.0
 40
2.0
 40
2.0
 10
774.296351
 20
533.901699
 10
773.853358
 20
535.180326
 10
773.60348
 20
536.541013
 10
773.60348
 20
537.901699
 10
773.603418
 20
539.262386
 10
773.853297
 20
540.623074
 10
774.29629
 20
541.901699
  0
SPLINE
  5
360
100
AcDbEntity
  8
M1
  6
CONTINUOUS
370
25
 62
     7
100
AcDbSpline
210
0.0
220
0.0
230
-1.0
 70
     8
 71
     3
 72
    11
 73
     7
 43
0.0000001
 40
0.0
 40
0.0
 40
0.0
 40
0.0
 40
1.0
 40
1.0
 40
1.0
 40
2.0
 40
2.0
 40
2.0
 40
2.0
 10
774.296351
 20
771.901699
 10
773.853358
 20
770.623074
 10
773.60348
 20
769.262356
 10
773.60348
 20
767.901699
 10
773.603418
 20
766.541043
 10
773.853297
 20
765.180326
 10
774.29629
 20
763.901699
  0
SPLINE
  5
361
100
AcDbEntity
  8
M1
  6
CONTINUOUS
370
25
 62
     7
100
AcDbSpline
210
0.0
220
0.0
230
-1.0
 70
     8
 71
     3
 72
    11
 73
     7
 43
0.0000001
 40
0.0
 40
0.0
 40
0.0
 40
0.0
 40
1.0
 40
1.0
 40
1.0
 40
2.0
 40
2.0
 40
2.0
 40
2.0
 10
774.296351
 20
591.401699
 10
773.853358
 20
592.680326
 10
773.60348
 20
594.041013
 10
773.60348
 20
595.401699
 10
773.603418
 20
596.762386
 10
773.853297
 20
598.123074
 10
774.29629
 20
599.401699
  0
SPLINE
  5
362
100
AcDbEntity
  8
M1
  6
CONTINUOUS
370
25
 62
     7
100
AcDbSpline
210
0.0
220
0.0
230
-1.0
 70
     8
 71
     3
 72
    11
 73
     7
 43
0.0000001
 40
0.0
 40
0.0
 40
0.0
 40
0.0
 40
1.0
 40
1.0
 40
1.0
 40
2.0
 40
2.0
 40
2.0
 40
2.0
 10
899.910608
 20
714.401699
 10
900.353601
 20
713.123074
 10
900.60348
 20
711.762386
 10
900.60348
 20
710.401699
 10
900.603418
 20
709.041013
 10
900.353541
 20
707.680326
 10
899.910548
 20
706.401699
  0
SPLINE
  5
363
100
AcDbEntity
  8
M1
  6
CONTINUOUS
370
25
 62
     7
100
AcDbSpline
210
0.0
220
0.0
230
-1.0
 70
     8
 71
     3
 72
    11
 73
     7
 43
0.0000001
 40
0.0
 40
0.0
 40
0.0
 40
0.0
 40
1.0
 40
1.0
 40
1.0
 40
2.0
 40
2.0
 40
2.0
 40
2.0
 10
899.910608
 20
591.401699
 10
900.353601
 20
592.680326
 10
900.60348
 20
594.041013
 10
900.60348
 20
595.401699
 10
900.603418
 20
596.762386
 10
900.353541
 20
598.123074
 10
899.910548
 20
599.401699
  0
TEXT
  5
364
100
AcDbEntity
  8
M1
100
AcDbText
 10
1371.180624
 20
224.922785
 40
9.0
  1
ＰＯＣ－１０
 41
0.833333
  7
STANDARD
100
AcDbText
  0
TEXT
  5
365
100
AcDbEntity
  8
M1
100
AcDbText
 10
411.251821
 20
435.807428
 40
9.0
  1
Ｄ１
 41
0.833333
  7
STANDARD
100
AcDbText
  0
TEXT
  5
366
100
AcDbEntity
  8
M1
100
AcDbText
 10
837.937887
 20
438.477411
 40
9.0
  1
Ｄ２
 41
0.833333
  7
STANDARD
100
AcDbText
  0
TEXT
  5
367
100
AcDbEntity
  8
M1
100
AcDbText
 10
1244.64388
 20
437.142359
 40
9.0
  1
Ｄ３
 41
0.833333
  7
STANDARD
100
AcDbText
  0
TEXT
  5
368
100
AcDbEntity
  8
M1
100
AcDbText
 10
1351.469808
 20
208.496744
 40
9.0
  1
（ＳＤＫ６０２６）
 41
0.833333
  7
STANDARD
100
AcDbText
  0
ARC
  5
369
100
AcDbEntity
  8
M1
  6
CONTINUOUS
370
25
100
AcDbCircle
 10
830.854166
 20
816.501699
 40
16.299987
100
AcDbArc
 50
301.163318
 51
598.836084
  0
CIRCLE
  5
36A
100
AcDbEntity
  8
M1
  6
CONTINUOUS
370
25
100
AcDbCircle
 10
830.854166
 20
816.501699
 40
10.0
  0
LINE
  5
36B
100
AcDbEntity
  8
M1
  6
CONTINUOUS
370
25
100
AcDbLine
 10
822.854151
 20
799.501699
 11
826.854166
 21
799.501699
  0
LINE
  5
36C
100
AcDbEntity
  8
M1
  6
CONTINUOUS
370
25
100
AcDbLine
 10
824.001826
 20
804.501699
 11
837.706126
 21
804.501699
  0
LINE
  5
36D
100
AcDbEntity
  8
M1
  6
CONTINUOUS
370
25
100
AcDbLine
 10
838.854136
 20
799.501699
 11
838.081338
 21
803.882696
  0
LINE
  5
36E
100
AcDbEntity
  8
M1
  6
CONTINUOUS
370
25
100
AcDbLine
 10
822.854151
 20
799.501699
 11
823.626627
 21
803.882634
  0
LINE
  5
36F
100
AcDbEntity
  8
M1
  6
CONTINUOUS
370
25
100
AcDbLine
 10
824.340937
 20
804.671713
 11
830.854166
 21
806.501699
  0
LINE
  5
370
100
AcDbEntity
  8
M1
  6
CONTINUOUS
370
25
100
AcDbLine
 10
837.36703
 20
804.671713
 11
830.854166
 21
806.501699
  0
LINE
  5
371
100
AcDbEntity
  8
M1
  6
CONTINUOUS
370
25
100
AcDbLine
 10
834.854166
 20
799.501699
 11
838.854136
 21
799.501699
  0
ARC
  5
372
100
AcDbEntity
  8
M1
  6
CONTINUOUS
370
25
100
AcDbCircle
 10
824.61143
 20
803.70899
 40
1.0
100
AcDbArc
 50
105.693568
 51
170.000123
  0
ARC
  5
373
100
AcDbEntity
  8
M1
  6
CONTINUOUS
370
25
100
AcDbCircle
 10
837.096537
 20
803.70899
 40
1.0
100
AcDbArc
 50
10.003321
 51
74.306432
  0
ARC
  5
374
100
AcDbEntity
  8
M1
  6
CONTINUOUS
370
25
100
AcDbCircle
 10
821.642877
 20
801.270406
 40
1.5
100
AcDbArc
 50
349.999549
 51
418.835928
  0
ARC
  5
375
100
AcDbEntity
  8
M1
  6
CONTINUOUS
370
25
100
AcDbCircle
 10
840.065301
 20
801.27033
 40
1.5
100
AcDbArc
 50
121.16377
 51
190.003996
  0
LINE
  5
376
100
AcDbEntity
  8
M1
  6
CONTINUOUS
370
25
100
AcDbLine
 10
839.354156
 20
797.901846
 11
839.354156
 21
799.501699
  0
LINE
  5
377
100
AcDbEntity
  8
M1
  6
CONTINUOUS
370
25
100
AcDbLine
 10
839.354156
 20
799.501699
 11
822.354156
 21
799.501699
  0
LINE
  5
378
100
AcDbEntity
  8
M1
  6
CONTINUOUS
370
25
100
AcDbLine
 10
822.354156
 20
799.501699
 11
822.354156
 21
797.901846
  0
LINE
  5
379
100
AcDbEntity
  8
M1
  6
CONTINUOUS
370
25
100
AcDbLine
 10
1242.522746
 20
803.559927
 11
1242.522746
 21
829.651663
  0
LINE
  5
37A
100
AcDbEntity
  8
M1
  6
CONTINUOUS
370
25
100
AcDbLine
 10
1236.222743
 20
829.651663
 11
1236.222743
 21
803.559927
  0
ARC
  5
37B
100
AcDbEntity
  8
M1
  6
CONTINUOUS
370
25
100
AcDbCircle
 10
1239.372737
 20
829.651663
 40
3.15
100
AcDbArc
 50
0.0
 51
180.0
  0
ARC
  5
37C
100
AcDbEntity
  8
M1
  6
DASHED
370
13
100
AcDbCircle
 10
1239.372737
 20
829.651663
 40
3.15
100
AcDbArc
 50
180.0
 51
360.0
  0
ARC
  5
37D
100
AcDbEntity
  8
M1
  6
CONTINUOUS
370
25
100
AcDbCircle
 10
1234.962733
 20
803.559927
 40
1.259999
100
AcDbArc
 50
270.0
 51
360.0
  0
ARC
  5
37E
100
AcDbEntity
  8
M1
  6
CONTINUOUS
370
25
100
AcDbCircle
 10
1243.78274
 20
803.559927
 40
1.259999
100
AcDbArc
 50
180.0
 51
270.0
  0
LINE
  5
37F
100
AcDbEntity
  8
M1
  6
CONTINUOUS
370
25
100
AcDbLine
 10
1247.372721
 20
799.501699
 11
1246.600261
 21
803.88262
  0
LINE
  5
380
100
AcDbEntity
  8
M1
  6
CONTINUOUS
370
25
100
AcDbLine
 10
1231.372737
 20
799.501699
 11
1232.145228
 21
803.88265
  0
LINE
  5
381
100
AcDbEntity
  8
M1
  6
CONTINUOUS
370
25
100
AcDbLine
 10
1232.859538
 20
804.671713
 11
1236.222743
 21
805.616643
  0
LINE
  5
382
100
AcDbEntity
  8
M1
  6
CONTINUOUS
370
25
100
AcDbLine
 10
1245.885936
 20
804.671713
 11
1242.522746
 21
805.616643
  0
ARC
  5
383
100
AcDbEntity
  8
M1
  6
CONTINUOUS
370
25
100
AcDbCircle
 10
1233.13003
 20
803.709004
 40
1.0
100
AcDbArc
 50
105.693804
 51
170.000123
  0
ARC
  5
384
100
AcDbEntity
  8
M1
  6
CONTINUOUS
370
25
100
AcDbCircle
 10
1245.615443
 20
803.708974
 40
1.0
100
AcDbArc
 50
9.999725
 51
74.306669
  0
LINE
  5
385
100
AcDbEntity
  8
M1
  6
DASHED
370
13
100
AcDbLine
 10
1236.222743
 20
805.616643
 11
1239.372737
 21
806.501699
  0
LINE
  5
386
100
AcDbEntity
  8
M1
  6
DASHED
370
13
100
AcDbLine
 10
1242.522746
 20
805.616643
 11
1239.372737
 21
806.501699
  0
LINE
  5
387
100
AcDbEntity
  8
M1
  6
CONTINUOUS
370
25
100
AcDbLine
 10
1247.872737
 20
797.901846
 11
1247.872737
 21
799.501699
  0
LINE
  5
388
100
AcDbEntity
  8
M1
  6
CONTINUOUS
370
25
100
AcDbLine
 10
1247.872737
 20
799.501699
 11
1230.872737
 21
799.501699
  0
LINE
  5
389
100
AcDbEntity
  8
M1
  6
CONTINUOUS
370
25
100
AcDbLine
 10
1230.872737
 20
799.501699
 11
1230.872737
 21
797.901846
  0
LINE
  5
38A
100
AcDbEntity
  8
M1
  6
CONTINUOUS
370
25
100
AcDbLine
 10
1230.872737
 20
797.901846
 11
1247.872737
 21
797.901846
  0
LINE
  5
38B
100
AcDbEntity
  8
M1
  6
CONTINUOUS
370
25
100
AcDbLine
 10
440.333827
 20
797.902273
 11
440.333827
 21
799.502127
  0
LINE
  5
38C
100
AcDbEntity
  8
M1
  6
CONTINUOUS
370
25
100
AcDbLine
 10
440.333827
 20
799.502127
 11
423.333827
 21
799.502127
  0
LINE
  5
38D
100
AcDbEntity
  8
M1
  6
CONTINUOUS
370
25
100
AcDbLine
 10
423.333827
 20
799.502127
 11
423.333827
 21
797.902273
  0
LINE
  5
38E
100
AcDbEntity
  8
M1
  6
CONTINUOUS
370
25
100
AcDbLine
 10
423.333827
 20
797.902273
 11
440.333827
 21
797.902273
  0
LINE
  5
38F
100
AcDbEntity
  8
M1
  6
CONTINUOUS
370
25
100
AcDbLine
 10
434.983836
 20
803.560354
 11
434.983836
 21
829.65209
  0
LINE
  5
390
100
AcDbEntity
  8
M1
  6
CONTINUOUS
370
25
100
AcDbLine
 10
428.683833
 20
829.65209
 11
428.683833
 21
803.560354
  0
ARC
  5
391
100
AcDbEntity
  8
M1
  6
CONTINUOUS
370
25
100
AcDbCircle
 10
431.833827
 20
829.65209
 40
3.15
100
AcDbArc
 50
0.0
 51
180.0
  0
ARC
  5
392
100
AcDbEntity
  8
M1
  6
DASHED
370
13
100
AcDbCircle
 10
431.833827
 20
829.65209
 40
3.15
100
AcDbArc
 50
180.0
 51
360.0
  0
LINE
  5
393
100
AcDbEntity
  8
M1
  6
CONTINUOUS
370
25
100
AcDbLine
 10
423.833843
 20
799.502127
 11
439.833843
 21
799.502127
  0
ARC
  5
394
100
AcDbEntity
  8
M1
  6
CONTINUOUS
370
25
100
AcDbCircle
 10
427.423823
 20
803.560354
 40
1.259999
100
AcDbArc
 50
270.0
 51
360.0
  0
ARC
  5
395
100
AcDbEntity
  8
M1
  6
CONTINUOUS
370
25
100
AcDbCircle
 10
436.24383
 20
803.560354
 40
1.259999
100
AcDbArc
 50
180.0
 51
270.0
  0
LINE
  5
396
100
AcDbEntity
  8
M1
  6
CONTINUOUS
370
25
100
AcDbLine
 10
439.833811
 20
799.502127
 11
439.061351
 21
803.883047
  0
LINE
  5
397
100
AcDbEntity
  8
M1
  6
CONTINUOUS
370
25
100
AcDbLine
 10
423.833827
 20
799.502127
 11
424.606318
 21
803.883077
  0
LINE
  5
398
100
AcDbEntity
  8
M1
  6
CONTINUOUS
370
25
100
AcDbLine
 10
425.320628
 20
804.67214
 11
428.683833
 21
805.617072
  0
LINE
  5
399
100
AcDbEntity
  8
M1
  6
CONTINUOUS
370
25
100
AcDbLine
 10
438.347026
 20
804.67214
 11
434.983836
 21
805.617072
  0
ARC
  5
39A
100
AcDbEntity
  8
M1
  6
CONTINUOUS
370
25
100
AcDbCircle
 10
425.59112
 20
803.709433
 40
1.0
100
AcDbArc
 50
105.693804
 51
170.000123
  0
ARC
  5
39B
100
AcDbEntity
  8
M1
  6
CONTINUOUS
370
25
100
AcDbCircle
 10
438.076533
 20
803.709403
 40
1.0
100
AcDbArc
 50
9.999725
 51
74.306669
  0
LINE
  5
39C
100
AcDbEntity
  8
M1
  6
DASHED
370
13
100
AcDbLine
 10
428.683833
 20
805.617072
 11
431.833827
 21
806.502127
  0
LINE
  5
39D
100
AcDbEntity
  8
M1
  6
DASHED
370
13
100
AcDbLine
 10
434.983836
 20
805.617072
 11
431.833827
 21
806.502127
  0
ENDSEC
  0
SECTION
  2
OBJECTS
  0
DICTIONARY
  5
C
100
AcDbDictionary
  3
ACAD_GROUP
350
D
  3
ACAD_MLINESTYLE
350
E
  0
DICTIONARY
  5
D
102
{ACAD_REACTORS
330
C
102
}
100
AcDbDictionary
  0
DICTIONARY
  5
E
102
{ACAD_REACTORS
330
C
102
}
100
AcDbDictionary
  3
STANDARD
350
13
  0
MLINESTYLE
  5
13
102
{ACAD_REACTORS
330
E
102
}
100
AcDbMlineStyle
  2
STANDARD
 70
     0
  3

 62
     0
 51
90.0
 52
90.0
 71
     2
 49
0.5
 62
   256
  6
BYLAYER
 49
-0.5
 62
   256
  6
BYLAYER
  0
ENDSEC
  0
EOF
