  0
SECTION
  2
HEADER
  9
$ACADVER
  1
AC1015
  9
$INSBASE
 10
0.0
 20
0.0
  9
$VIEWCTR
 10
7.531722
 20
4.5
  9
$VIEWSIZE
 40
9.0
  9
$SNAPMODE
 70
     0
  9
$SNAPUNIT
 10
1.0
 20
1.0
  9
$SNAPBASE
 10
0.0
 20
0.0
  9
$SNAPANG
 50
0.0
  9
$SNAPSTYLE
 70
     0
  9
$SNAPISOPAIR
 70
     0
  9
$GRIDMODE
 70
     0
  9
$GRIDUNIT
 10
0.0
 20
0.0
  9
$ORTHOMODE
 70
     0
  9
$REGENMODE
 70
     1
  9
$FILLMODE
 70
     1
  9
$QTEXTMODE
 70
     0
  9
$DRAGMODE
 70
     2
  9
$LTSCALE
 40
1.0
  9
$OSMODE
 70
     0
  9
$ATTMODE
 70
     1
  9
$TEXTSIZE
 40
0.2
  9
$TRACEWID
 40
0.05
  9
$TEXTSTYLE
  7
STANDARD
  9
$CELTYPE
  6
BYLAYER
  9
$CECOLOR
 62
   256
  9
$DIMSCALE
 40
1.0
  9
$DIMASZ
 40
0.18
  9
$DIMEXO
 40
0.0625
  9
$DIMDLI
 40
0.38
  9
$DIMRND
 40
0.0
  9
$DIMDLE
 40
0.0
  9
$DIMEXE
 40
0.18
  9
$DIMTP
 40
0.0
  9
$DIMTM
 40
0.0
  9
$DIMTXT
 40
0.18
  9
$DIMCEN
 40
0.09
  9
$DIMTSZ
 40
0.0
  9
$DIMADEC
 70
     0
  9
$DIMALTRND
 40
0.000000
  9
$DIMAZIN
 70
     0
  9
$DIMDSEP
 70
    46
  9
$DIMATFIT
 70
     3
  9
$DIMFRAC
 70
     0
  9
$DIMLDRBLK
  1

  9
$DIMLUNIT
 70
     2
  9
$DIMLWD
 70
   13
  9
$DIMLWE
 70
   13
  9
$DIMTMOVE
 70
     0
  9
$CELWEIGHT
370
    25
  9
$LWDISPLAY
290
    1
  9
$EXTNAMES
290
    1
  9
$DIMTOL
 70
     0
  9
$DIMLIM
 70
     0
  9
$DIMTIH
 70
     1
  9
$DIMTOH
 70
     1
  9
$DIMSE1
 70
     0
  9
$DIMSE2
 70
     0
  9
$DIMTAD
 70
     0
  9
$DIMZIN
 70
     0
  9
$DIMBLK
  1

  9
$LUNITS
 70
     2
  9
$LUPREC
 70
     4
  9
$AXISMODE
 70
     0
  9
$AXISUNIT
 10
0.0
 20
0.0
  9
$SKETCHINC
 40
0.1
  9
$FILLETRAD
 40
0.0
  9
$AUNITS
 70
     0
  9
$AUPREC
 70
     0
  9
$MENU
  1
ACAD
  9
$ELEVATION
 40
0.0
  9
$THICKNESS
 40
0.0
  9
$VIEWDIR
 10
0.0
 20
0.0
 30
1.0
  9
$LIMCHECK
 70
     0
  9
$BLIPMODE
 70
     1
  9
$CHAMFERA
 40
0.0
  9
$CHAMFERB
 40
0.0
  9
$FASTZOOM
 70
     1
  9
$SKPOLY
 70
     0
  9
$TDCREATE
 40
0000000.0000000000
  9
$TDUPDATE
 40
0000000.0000000000
  9
$TDINDWG
 40
0.0000000000
  9
$TDUSRTIMER
 40
0.0000000000
  9
$USRTIMER
 70
     1
  9
$ANGBASE
 50
0.0
  9
$ANGDIR
 70
     0
  9
$PDMODE
 70
     0
  9
$PDSIZE
 40
0.0
  9
$PLINEWID
 40
0.0
  9
$COORDS
 70
     0
  9
$USERI1
 70
     0
  9
$USERI2
 70
     0
  9
$USERI3
 70
     0
  9
$USERI4
 70
     0
  9
$USERI5
 70
     0
  9
$USERR1
 40
0.0
  9
$USERR2
 40
0.0
  9
$USERR3
 40
0.0
  9
$USERR4
 40
0.0
  9
$USERR5
 40
0.0
  9
$CLAYER
  8
M1
  9
$EXTMIN
 10
132.138217
 20
259.632294
  9
$EXTMAX
 10
1566.048784
 20
820.853693
  9
$LIMMIN
 10
0.0
 20
0.0
  9
$LIMMAX
 10
841.0
 20
594.0
  9
$HANDSEED
  5
35E
  0
ENDSEC
  0
SECTION
  2
CLASSES
  0
ENDSEC
  0
SECTION
  2
TABLES
  0
TABLE
  2
VPORT
  5
8
100
AcDbSymbolTable
 70
     2
  0
VPORT
  5
14
100
AcDbSymbolTableRecord
100
AcDbViewportTableRecord
  2
*ACTIVE
 70
     0
 10
0.0
 20
0.0
 11
1.0
 21
1.0
 12
484.0
 22
297.0
 13
0.0
 23
0.0
 14
1.0
 24
1.0
 15
0.0
 25
0.0
 16
0.0
 26
0.0
 36
1.0
 17
0.0
 27
0.0
 37
0.0
 40
594.0
 41
2.0
 42
50.0
 43
0.0
 44
0.0
 50
0.0
 51
0.0
 71
     0
 72
   100
 73
     1
 74
     1
 75
     0
 76
     0
 77
     0
 78
     0
  0
ENDTAB
  0
TABLE
  2
LTYPE
  5
5
100
AcDbSymbolTable
 70
     5
  0
LTYPE
  5
15
100
AcDbSymbolTableRecord
100
AcDbLinetypeTableRecord
  2
BYBLOCK
 70
     0
  3

 72
    65
 73
     0
 40
0.0
  0
LTYPE
  5
16
100
AcDbSymbolTableRecord
100
AcDbLinetypeTableRecord
  2
BYLAYER
 70
     0
  3

 72
    65
 73
     0
 40
0.0
  0
LTYPE
  5
17
100
AcDbSymbolTableRecord
100
AcDbLinetypeTableRecord
  2
CONTINUOUS
 70
    64
  3
Solid line
 72
    65
 73
     0
 40
0.0
  0
LTYPE
  5
18
100
AcDbSymbolTableRecord
100
AcDbLinetypeTableRecord
  2
DASHED
 70
    64
  3
__ __ __ __ __ __ __ __ __ __ __ __ __ __ __ __
 72
    65
 73
     2
 40
0.75
 49
0.5
 74
     0
 49
-0.25
 74
     0
  0
LTYPE
  5
19
100
AcDbSymbolTableRecord
100
AcDbLinetypeTableRecord
  2
DASHDOT
 70
    64
  3
__ . __ . __ . __ . __ . __ . __ . __ . __ . __
 72
    65
 73
     4
 40
1.0
 49
0.5
 74
     0
 49
-0.25
 74
     0
 49
0.0
 74
     0
 49
-0.25
 74
     0
  0
LTYPE
  5
1A
100
AcDbSymbolTableRecord
100
AcDbLinetypeTableRecord
  2
DIVIDE
 70
    64
  3
____ . . ____ . . ____ . . ____ . . ____ . . __
 72
    65
 73
     6
 40
1.25
 49
0.5
 74
     0
 49
-0.25
 74
     0
 49
0.0
 74
     0
 49
-0.25
 74
     0
 49
0.0
 74
     0
 49
-0.25
 74
     0
  0
LTYPE
  5
1B
100
AcDbSymbolTableRecord
100
AcDbLinetypeTableRecord
  2
DOT
 70
    64
  3
. . . . . . . . . . . . . . . . . . . . . . . .
 72
    65
 73
     2
 40
0.25
 49
0.0
 74
     0
 49
-0.25
 74
     0
  0
ENDTAB
  0
TABLE
  2
LAYER
  5
2
100
AcDbSymbolTable
 70
   102
  0
LAYER
  5
F
100
AcDbSymbolTableRecord
100
AcDbLayerTableRecord
  2
0
 70
     0
 62
     7
  6
CONTINUOUS
370
     -3
390
F
  0
LAYER
  5
1C
100
AcDbSymbolTableRecord
100
AcDbLayerTableRecord
  2
M1
 70
     0
 62
     3
  6
CONTINUOUS
370
     -3
390
F
  0
ENDTAB
  0
TABLE
  2
STYLE
  5
3
100
AcDbSymbolTable
 70
     2
  0
STYLE
  5
10
100
AcDbSymbolTableRecord
100
AcDbTextStyleTableRecord
  2
STANDARD
 70
     0
 40
0.0
 41
1.0
 50
0.0
 71
     0
 42
0.2
  3
txt
  4
BIGFONT
  0
ENDTAB
  0
TABLE
  2
VIEW
  5
6
100
AcDbSymbolTable
 70
     0
  0
ENDTAB
  0
TABLE
  2
UCS
  5
7
100
AcDbSymbolTable
 70
     0
  0
ENDTAB
  0
TABLE
  2
APPID
  5
9
100
AcDbSymbolTable
 70
     1
  0
APPID
  5
11
100
AcDbSymbolTableRecord
100
AcDbRegAppTableRecord
  2
ACAD
 70
     0
  0
ENDTAB
  0
TABLE
  2
DIMSTYLE
  5
A
100
AcDbSymbolTable
 70
     2
100
AcDbDimStyleTable
 71
     1
  0
DIMSTYLE
105
23
100
AcDbSymbolTableRecord
100
AcDbDimStyleTableRecord
  2
STANDARD
 70
     0
  3

  4

  5

  6
_OPEN
  7
_OPEN
 40
1.0
 41
6.0
 42
0.5
 43
8.0
 44
1.5
 45
0.0
 46
0.0
 47
0.0
 48
0.0
140
6.3
141
0.09
142
0.0
143
0.03937
144
1.0
145
0.0
146
1.0
147
1.0
148
0.000000
 71
     0
 72
     0
 73
     0
 74
     0
 75
     0
 76
     0
 77
     3
 78
     8
170
     0
171
     2
172
     0
173
     1
174
     0
175
     0
176
     0
177
     0
178
     0
270
     2
271
     2
272
     4
273
     2
274
     2
340
10
275
     0
278
    46
280
     0
281
     0
282
     0
283
     1
284
     0
285
     0
286
     0
287
     3
288
     0
371
   13
372
   13
  0
DIMSTYLE
105
24
100
AcDbSymbolTableRecord
100
AcDbDimStyleTableRecord
  2
LEADSTYL
 70
     0
  3

  4

  5

  6
_OPEN
  7
_OPEN
 40
1.0
 41
6.0
 42
0.0625
 43
0.38
 44
0.18
 45
0.0
 46
0.0
 47
0.0
 48
0.0
140
6.3
141
0.09
142
0.0
143
25.4
144
1.0
145
0.0
146
1.0
147
1.0
 71
     0
 72
     0
 73
     1
 74
     1
 75
     0
 76
     0
 77
     0
 78
     0
170
     0
171
     2
172
     0
173
     1
174
     0
175
     0
176
     0
177
     0
178
     0
270
     2
271
     4
272
     4
273
     2
274
     2
340
10
275
     0
280
     0
281
     0
282
     0
283
     1
284
     0
285
     0
286
     0
287
     3
288
     0
  0
ENDTAB
  0
TABLE
  2
BLOCK_RECORD
  5
1
100
AcDbSymbolTable
 70
     6
  0
BLOCK_RECORD
  5
1D
100
AcDbSymbolTableRecord
100
AcDbBlockTableRecord
  2
*MODEL_SPACE
  0
BLOCK_RECORD
  5
20
100
AcDbSymbolTableRecord
100
AcDbBlockTableRecord
  2
*PAPER_SPACE
  0
BLOCK_RECORD
  5
25
100
AcDbSymbolTableRecord
100
AcDbBlockTableRecord
  2
_NONE
  0
BLOCK_RECORD
  5
29
100
AcDbSymbolTableRecord
100
AcDbBlockTableRecord
  2
_OPEN
  0
BLOCK_RECORD
  5
2F
100
AcDbSymbolTableRecord
100
AcDbBlockTableRecord
  2
_CLOSED
  0
BLOCK_RECORD
  5
36
100
AcDbSymbolTableRecord
100
AcDbBlockTableRecord
  2
_ORIGIN
  0
BLOCK_RECORD
  5
3B
100
AcDbSymbolTableRecord
100
AcDbBlockTableRecord
  2
_DOT
  0
BLOCK_RECORD
  5
43
100
AcDbSymbolTableRecord
100
AcDbBlockTableRecord
  2
_OBLIQUE
  0
ENDTAB
  0
ENDSEC
  0
SECTION
  2
BLOCKS
  0
BLOCK
  5
1E
100
AcDbEntity
  8
0
100
AcDbBlockBegin
  2
*MODEL_SPACE
 70
     0
 10
0.0
 20
0.0
 30
0.0
  3
*MODEL_SPACE
  1

  0
ENDBLK
  5
1F
100
AcDbEntity
  8
0
100
AcDbBlockEnd
  0
BLOCK
  5
21
100
AcDbEntity
 67
     1
  8
0
100
AcDbBlockBegin
  2
*PAPER_SPACE
 70
     0
 10
0.0
 20
0.0
 30
0.0
  3
*PAPER_SPACE
  1

  0
ENDBLK
  5
22
100
AcDbEntity
 67
     1
  8
0
100
AcDbBlockEnd
  0
BLOCK
  5
26
100
AcDbEntity
  8
0
100
AcDbBlockBegin
  2
_NONE
 70
     0
 10
0.0
 20
0.0
  0
CIRCLE
  5
27
100
AcDbEntity
  8
0
 62
     0
370
13
100
AcDbCircle
 10
0.0
 20
0.0
 40
0.25
  0
ENDBLK
  5
28
100
AcDbEntity
  8
0
100
AcDbBlockEnd
  0
BLOCK
  5
2A
100
AcDbEntity
  8
0
100
AcDbBlockBegin
  2
_OPEN
 70
     0
 10
0.0
 20
0.0
  0
LINE
  5
2B
100
AcDbEntity
  8
0
 62
     0
370
13
100
AcDbLine
 10
-0.965926
 20
0.25882
 11
0.0
 21
0.0
  0
LINE
  5
2C
100
AcDbEntity
  8
0
 62
     0
370
13
100
AcDbLine
 10
0.0
 20
0.0
 11
-0.965926
 21
-0.25882
  0
LINE
  5
2D
100
AcDbEntity
  8
0
 62
     0
370
13
100
AcDbLine
 10
0.0
 20
0.0
 11
-1.0
 21
0.0
  0
ENDBLK
  5
2E
100
AcDbEntity
  8
0
100
AcDbBlockEnd
  0
BLOCK
  5
30
100
AcDbEntity
  8
0
100
AcDbBlockBegin
  2
_CLOSED
 70
     0
 10
0.0
 20
0.0
  0
LINE
  5
31
100
AcDbEntity
  8
0
 62
     0
370
13
100
AcDbLine
 10
-0.965926
 20
0.25882
 11
0.0
 21
0.0
  0
LINE
  5
32
100
AcDbEntity
  8
0
 62
     0
370
13
100
AcDbLine
 10
0.0
 20
0.0
 11
-0.965926
 21
-0.25882
  0
LINE
  5
33
100
AcDbEntity
  8
0
 62
     0
370
13
100
AcDbLine
 10
-0.965926
 20
0.25882
 11
-0.965926
 21
-0.25882
  0
LINE
  5
34
100
AcDbEntity
  8
0
 62
     0
370
13
100
AcDbLine
 10
0.0
 20
0.0
 11
-1.0
 21
0.0
  0
ENDBLK
  5
35
100
AcDbEntity
  8
0
100
AcDbBlockEnd
  0
BLOCK
  5
37
100
AcDbEntity
  8
0
100
AcDbBlockBegin
  2
_ORIGIN
 70
     0
 10
0.0
 20
0.0
  0
CIRCLE
  5
38
100
AcDbEntity
  8
0
 62
     0
370
13
100
AcDbCircle
 10
0.0
 20
0.0
 40
0.5
  0
LINE
  5
39
100
AcDbEntity
  8
0
 62
     0
370
13
100
AcDbLine
 10
0.0
 20
0.0
 11
-1.0
 21
0.0
  0
ENDBLK
  5
3A
100
AcDbEntity
  8
0
100
AcDbBlockEnd
  0
BLOCK
  5
3C
100
AcDbEntity
  8
0
100
AcDbBlockBegin
  2
_DOT
 70
     0
 10
0.0
 20
0.0
  0
POLYLINE
  5
3D
100
AcDbEntity
  8
0
 62
     0
100
AcDb2dPolyline
 66
     1
 70
     1
 40
0.5
 41
0.5
  0
VERTEX
  5
3E
100
AcDbEntity
  8
0
 62
     0
100
AcDbVertex
100
AcDb2dVertex
 10
-0.25
 20
0.0
 42
1.0
  0
VERTEX
  5
3F
100
AcDbEntity
  8
0
 62
     0
100
AcDbVertex
100
AcDb2dVertex
 10
0.25
 20
0.0
 42
1.0
  0
SEQEND
  5
40
100
AcDbEntity
  8
0
 62
     0
  0
LINE
  5
41
100
AcDbEntity
  8
0
 62
     0
370
13
100
AcDbLine
 10
-0.5
 20
0.0
 11
-1.0
 21
0.0
  0
ENDBLK
  5
42
100
AcDbEntity
  8
0
100
AcDbBlockEnd
  0
BLOCK
  5
44
100
AcDbEntity
  8
0
100
AcDbBlockBegin
  2
_OBLIQUE
 70
     0
 10
0.0
 20
0.0
  0
LINE
  5
45
100
AcDbEntity
  8
0
 62
     0
370
13
100
AcDbLine
 10
-0.353553
 20
-0.353553
 11
0.353553
 21
0.353553
  0
ENDBLK
  5
46
100
AcDbEntity
  8
0
100
AcDbBlockEnd
  0
ENDSEC
  0
SECTION
  2
ENTITIES
  0
LINE
  5
47
100
AcDbEntity
  8
M1
  6
CONTINUOUS
370
13
 62
     7
100
AcDbLine
 10
291.244174
 20
633.60998
 11
308.032138
 21
633.60998
  0
LINE
  5
48
100
AcDbEntity
  8
M1
  6
CONTINUOUS
370
13
 62
     7
100
AcDbLine
 10
299.638217
 20
642.00387
 11
299.638217
 21
625.216181
  0
LINE
  5
49
100
AcDbEntity
  8
M1
  6
CONTINUOUS
370
25
 62
     7
100
AcDbLine
 10
287.638217
 20
782.126093
 11
287.638217
 21
693.509882
  0
LINE
  5
4A
100
AcDbEntity
  8
M1
  6
CONTINUOUS
370
25
 62
     7
100
AcDbLine
 10
177.019198
 20
718.260279
 11
253.763217
 21
673.952265
  0
LINE
  5
4B
100
AcDbEntity
  8
M1
  6
CONTINUOUS
370
25
 62
     7
100
AcDbLine
 10
247.592197
 20
695.353083
 11
259.347201
 21
680.307276
  0
LINE
  5
4C
100
AcDbEntity
  8
M1
  6
CONTINUOUS
370
25
 62
     7
100
AcDbLine
 10
272.190097
 20
709.55459
 11
279.342197
 21
691.851587
  0
LINE
  5
4D
100
AcDbEntity
  8
M1
  6
CONTINUOUS
370
25
 62
     7
100
AcDbLine
 10
252.320102
 20
699.046991
 11
264.075107
 21
684.001185
  0
LINE
  5
4E
100
AcDbEntity
  8
M1
  6
CONTINUOUS
370
25
 62
     7
100
AcDbLine
 10
266.626132
 20
707.306971
 11
273.779208
 21
689.603876
  0
LINE
  5
4F
100
AcDbEntity
  8
M1
  6
CONTINUOUS
370
25
 62
     7
100
AcDbLine
 10
219.309115
 20
641.869867
 11
238.217197
 21
639.212671
  0
LINE
  5
50
100
AcDbEntity
  8
M1
  6
CONTINUOUS
370
25
 62
     7
100
AcDbLine
 10
219.309115
 20
625.34997
 11
238.216098
 21
628.007288
  0
LINE
  5
51
100
AcDbEntity
  8
M1
  6
CONTINUOUS
370
25
 62
     7
100
AcDbLine
 10
220.144198
 20
647.81167
 11
239.052157
 21
645.154383
  0
LINE
  5
52
100
AcDbEntity
  8
M1
  6
CONTINUOUS
370
25
 62
     7
100
AcDbLine
 10
220.144198
 20
619.408381
 11
239.052157
 21
622.065668
  0
LINE
  5
53
100
AcDbEntity
  8
M1
  6
CONTINUOUS
370
25
 62
     7
100
AcDbLine
 10
165.019198
 20
569.744379
 11
241.763217
 21
614.052393
  0
LINE
  5
54
100
AcDbEntity
  8
M1
  6
CONTINUOUS
370
25
 62
     7
100
AcDbLine
 10
165.020175
 20
697.475763
 11
241.763217
 21
653.167689
  0
LINE
  5
55
100
AcDbEntity
  8
M1
  6
CONTINUOUS
370
25
 62
     7
100
AcDbLine
 10
252.3212
 20
568.172663
 11
264.076205
 21
583.218592
  0
LINE
  5
56
100
AcDbEntity
  8
M1
  6
CONTINUOUS
370
25
 62
     7
100
AcDbLine
 10
266.628207
 20
559.912684
 11
273.780185
 21
577.615778
  0
LINE
  5
57
100
AcDbEntity
  8
M1
  6
CONTINUOUS
370
25
 62
     7
100
AcDbLine
 10
247.592197
 20
571.86709
 11
259.347201
 21
586.912867
  0
LINE
  5
58
100
AcDbEntity
  8
M1
  6
CONTINUOUS
370
25
 62
     7
100
AcDbLine
 10
272.190097
 20
557.665369
 11
279.342197
 21
575.368464
  0
LINE
  5
59
100
AcDbEntity
  8
M1
  6
CONTINUOUS
370
25
 62
     7
100
AcDbLine
 10
287.638217
 20
485.093973
 11
287.638217
 21
573.710077
  0
LINE
  5
5A
100
AcDbEntity
  8
M1
  6
CONTINUOUS
370
25
 62
     7
100
AcDbLine
 10
177.019198
 20
548.959772
 11
253.763217
 21
593.267786
  0
LINE
  5
5B
100
AcDbEntity
  8
M1
  6
CONTINUOUS
370
25
 62
     7
100
AcDbLine
 10
332.65018
 20
559.912989
 11
325.497104
 21
577.615992
  0
LINE
  5
5C
100
AcDbEntity
  8
M1
  6
CONTINUOUS
370
25
 62
     7
100
AcDbLine
 10
346.95621
 20
568.172877
 11
335.201205
 21
583.218683
  0
LINE
  5
5D
100
AcDbEntity
  8
M1
  6
CONTINUOUS
370
25
 62
     7
100
AcDbLine
 10
327.086215
 20
557.665064
 11
319.933139
 21
575.368189
  0
LINE
  5
5E
100
AcDbEntity
  8
M1
  6
CONTINUOUS
370
25
 62
     7
100
AcDbLine
 10
351.684115
 20
571.866877
 11
339.929111
 21
586.912775
  0
LINE
  5
5F
100
AcDbEntity
  8
M1
  6
CONTINUOUS
370
25
 62
     7
100
AcDbLine
 10
422.257114
 20
548.959681
 11
345.513217
 21
593.267664
  0
LINE
  5
60
100
AcDbEntity
  8
M1
  6
CONTINUOUS
370
25
 62
     7
100
AcDbLine
 10
311.638217
 20
485.093973
 11
311.638217
 21
573.710077
  0
LINE
  5
61
100
AcDbEntity
  8
M1
  6
CONTINUOUS
370
25
 62
     7
100
AcDbLine
 10
379.967197
 20
625.349878
 11
361.060214
 21
628.007166
  0
LINE
  5
62
100
AcDbEntity
  8
M1
  6
CONTINUOUS
370
25
 62
     7
100
AcDbLine
 10
379.967197
 20
641.86999
 11
361.060214
 21
639.212763
  0
LINE
  5
63
100
AcDbEntity
  8
M1
  6
CONTINUOUS
370
25
 62
     7
100
AcDbLine
 10
379.132114
 20
619.408289
 11
360.225131
 21
622.065577
  0
LINE
  5
64
100
AcDbEntity
  8
M1
  6
CONTINUOUS
370
25
 62
     7
100
AcDbLine
 10
379.132114
 20
647.811487
 11
360.225131
 21
645.154291
  0
LINE
  5
65
100
AcDbEntity
  8
M1
  6
CONTINUOUS
370
25
 62
     7
100
AcDbLine
 10
434.257114
 20
697.475763
 11
357.513217
 21
653.167689
  0
LINE
  5
66
100
AcDbEntity
  8
M1
  6
CONTINUOUS
370
25
 62
     7
100
AcDbLine
 10
434.257114
 20
569.744288
 11
357.513217
 21
614.052393
  0
LINE
  5
67
100
AcDbEntity
  8
M1
  6
CONTINUOUS
370
25
 62
     7
100
AcDbLine
 10
346.95621
 20
699.047266
 11
335.201205
 21
684.001581
  0
LINE
  5
68
100
AcDbEntity
  8
M1
  6
CONTINUOUS
370
25
 62
     7
100
AcDbLine
 10
332.649203
 20
707.307093
 11
325.497104
 21
689.60409
  0
LINE
  5
69
100
AcDbEntity
  8
M1
  6
CONTINUOUS
370
25
 62
     7
100
AcDbLine
 10
351.685214
 20
695.352778
 11
339.930209
 21
680.306971
  0
LINE
  5
6A
100
AcDbEntity
  8
M1
  6
CONTINUOUS
370
25
 62
     7
100
AcDbLine
 10
370.473178
 20
729.147486
 11
363.694125
 21
720.470881
  0
LINE
  5
6B
100
AcDbEntity
  8
M1
  6
CONTINUOUS
370
25
 62
     7
100
AcDbLine
 10
346.95914
 20
742.723475
 11
342.83414
 21
732.51449
  0
LINE
  5
6C
100
AcDbEntity
  8
M1
  6
CONTINUOUS
370
25
 62
     7
100
AcDbLine
 10
327.086215
 20
709.554865
 11
319.933139
 21
691.851893
  0
LINE
  5
6D
100
AcDbEntity
  8
M1
  6
CONTINUOUS
370
25
 62
     7
100
AcDbLine
 10
311.638217
 20
782.126093
 11
311.638217
 21
693.509882
  0
LINE
  5
6E
100
AcDbEntity
  8
M1
  6
CONTINUOUS
370
25
 62
     7
100
AcDbLine
 10
422.257114
 20
718.260492
 11
345.513217
 21
673.952387
  0
LINE
  5
6F
100
AcDbEntity
  8
M1
  6
CONTINUOUS
370
25
 62
     7
100
AcDbLine
 10
626.426547
 20
651.10998
 11
626.426547
 21
616.10998
  0
LINE
  5
70
100
AcDbEntity
  8
M1
  6
CONTINUOUS
370
25
 62
     7
100
AcDbLine
 10
776.926547
 20
801.110102
 11
817.426547
 21
801.110102
  0
LINE
  5
71
100
AcDbEntity
  8
M1
  6
CONTINUOUS
370
25
 62
     7
100
AcDbLine
 10
776.926547
 20
466.10998
 11
817.426547
 21
466.10998
  0
LINE
  5
72
100
AcDbEntity
  8
M1
  6
CONTINUOUS
370
25
 62
     7
100
AcDbLine
 10
697.426547
 20
652.10998
 11
697.426547
 21
615.10998
  0
LINE
  5
73
100
AcDbEntity
  8
M1
  6
CONTINUOUS
370
25
 62
     7
100
AcDbLine
 10
686.426547
 20
638.60998
 11
686.426547
 21
628.60998
  0
LINE
  5
74
100
AcDbEntity
  8
M1
  6
CONTINUOUS
370
25
 62
     7
100
AcDbLine
 10
626.426547
 20
651.10998
 11
697.426547
 21
651.10998
  0
LINE
  5
75
100
AcDbEntity
  8
M1
  6
CONTINUOUS
370
25
 62
     7
100
AcDbLine
 10
626.426547
 20
616.10998
 11
697.426547
 21
616.10998
  0
LINE
  5
76
100
AcDbEntity
  8
M1
  6
CONTINUOUS
370
25
 62
     7
100
AcDbLine
 10
626.426547
 20
638.60998
 11
686.426547
 21
638.60998
  0
LINE
  5
77
100
AcDbEntity
  8
M1
  6
CONTINUOUS
370
25
 62
     7
100
AcDbLine
 10
626.426547
 20
628.60998
 11
686.426547
 21
628.60998
  0
LINE
  5
78
100
AcDbEntity
  8
M1
  6
CONTINUOUS
370
25
 62
     7
100
AcDbLine
 10
709.426547
 20
688.60998
 11
709.426547
 21
578.60998
  0
LINE
  5
79
100
AcDbEntity
  8
M1
  6
CONTINUOUS
370
25
 62
     7
100
AcDbLine
 10
734.426547
 20
717.60998
 11
734.426547
 21
549.60998
  0
LINE
  5
7A
100
AcDbEntity
  8
M1
  6
CONTINUOUS
370
25
 62
     7
100
AcDbLine
 10
709.426547
 20
688.60998
 11
734.426547
 21
688.60998
  0
LINE
  5
7B
100
AcDbEntity
  8
M1
  6
CONTINUOUS
370
25
 62
     7
100
AcDbLine
 10
709.426547
 20
578.60998
 11
734.426547
 21
578.60998
  0
LINE
  5
7C
100
AcDbEntity
  8
M1
  6
CONTINUOUS
370
25
 62
     7
100
AcDbLine
 10
751.426547
 20
780.610102
 11
751.426547
 21
486.60998
  0
LINE
  5
7D
100
AcDbEntity
  8
M1
  6
CONTINUOUS
370
25
 62
     7
100
AcDbLine
 10
734.426547
 20
717.60998
 11
743.426547
 21
717.60998
  0
LINE
  5
7E
100
AcDbEntity
  8
M1
  6
CONTINUOUS
370
25
 62
     7
100
AcDbLine
 10
753.426547
 20
782.610102
 11
774.926547
 21
782.610102
  0
LINE
  5
7F
100
AcDbEntity
  8
M1
  6
CONTINUOUS
370
25
 62
     7
100
AcDbLine
 10
753.426547
 20
484.60998
 11
774.926547
 21
484.60998
  0
LINE
  5
80
100
AcDbEntity
  8
M1
  6
CONTINUOUS
370
25
 62
     7
100
AcDbLine
 10
734.426547
 20
549.60998
 11
743.426547
 21
549.60998
  0
LINE
  5
81
100
AcDbEntity
  8
M1
  6
CONTINUOUS
370
25
 62
     7
100
AcDbLine
 10
704.339328
 20
676.577692
 11
704.339328
 21
590.642389
  0
LINE
  5
82
100
AcDbEntity
  8
M1
  6
CONTINUOUS
370
25
 62
     7
100
AcDbLine
 10
698.926547
 20
668.206476
 11
704.339328
 21
668.206476
  0
LINE
  5
83
100
AcDbEntity
  8
M1
  6
CONTINUOUS
370
25
 62
     7
100
AcDbLine
 10
704.339328
 20
676.577692
 11
706.846347
 21
676.577692
  0
LINE
  5
84
100
AcDbEntity
  8
M1
  6
CONTINUOUS
370
25
 62
     7
100
AcDbLine
 10
706.846469
 20
676.577692
 11
709.426669
 21
662.625666
  0
LINE
  5
85
100
AcDbEntity
  8
M1
  6
CONTINUOUS
370
25
 62
     7
100
AcDbLine
 10
698.926547
 20
599.013483
 11
704.339328
 21
599.013483
  0
LINE
  5
86
100
AcDbEntity
  8
M1
  6
CONTINUOUS
370
25
 62
     7
100
AcDbLine
 10
704.339328
 20
590.642389
 11
706.846347
 21
590.642389
  0
LINE
  5
87
100
AcDbEntity
  8
M1
  6
CONTINUOUS
370
25
 62
     7
100
AcDbLine
 10
706.84653
 20
590.642267
 11
709.42673
 21
604.594263
  0
LINE
  5
88
100
AcDbEntity
  8
M1
  6
CONTINUOUS
370
25
 62
     7
100
AcDbLine
 10
774.926547
 20
799.110102
 11
774.926547
 21
468.10998
  0
LINE
  5
89
100
AcDbEntity
  8
M1
  6
CONTINUOUS
370
25
 62
     7
100
AcDbLine
 10
774.926669
 20
799.109858
 11
776.926669
 21
801.109858
  0
LINE
  5
8A
100
AcDbEntity
  8
M1
  6
CONTINUOUS
370
25
 62
     7
100
AcDbLine
 10
774.926547
 20
468.10998
 11
776.926486
 21
466.10998
  0
LINE
  5
8B
100
AcDbEntity
  8
M1
  6
CONTINUOUS
370
25
 62
     7
100
AcDbLine
 10
748.926547
 20
777.84759
 11
748.926547
 21
759.37237
  0
LINE
  5
8C
100
AcDbEntity
  8
M1
  6
CONTINUOUS
370
25
 62
     7
100
AcDbLine
 10
748.926547
 20
777.809992
 11
751.426547
 21
777.809992
  0
LINE
  5
8D
100
AcDbEntity
  8
M1
  6
CONTINUOUS
370
25
 62
     7
100
AcDbLine
 10
748.926547
 20
759.409968
 11
751.426547
 21
759.409968
  0
LINE
  5
8E
100
AcDbEntity
  8
M1
  6
CONTINUOUS
370
25
 62
     7
100
AcDbLine
 10
748.926364
 20
768.610285
 11
751.426364
 21
770.925898
  0
LINE
  5
8F
100
AcDbEntity
  8
M1
  6
CONTINUOUS
370
25
 62
     7
100
AcDbLine
 10
751.426486
 20
768.610071
 11
748.926547
 21
766.033472
  0
LINE
  5
90
100
AcDbEntity
  8
M1
  6
CONTINUOUS
370
25
 62
     7
100
AcDbLine
 10
742.526584
 20
775.728754
 11
742.526584
 21
761.491175
  0
LINE
  5
91
100
AcDbEntity
  8
M1
  6
CONTINUOUS
370
25
 62
     7
100
AcDbLine
 10
742.526584
 20
708.228785
 11
742.526584
 21
693.991175
  0
LINE
  5
92
100
AcDbEntity
  8
M1
  6
CONTINUOUS
370
25
 62
     7
100
AcDbLine
 10
751.426486
 20
701.110071
 11
748.926547
 21
698.533472
  0
LINE
  5
93
100
AcDbEntity
  8
M1
  6
CONTINUOUS
370
25
 62
     7
100
AcDbLine
 10
748.926486
 20
701.110163
 11
751.426486
 21
703.425776
  0
LINE
  5
94
100
AcDbEntity
  8
M1
  6
CONTINUOUS
370
25
 62
     7
100
AcDbLine
 10
748.926547
 20
691.909968
 11
751.426547
 21
691.909968
  0
LINE
  5
95
100
AcDbEntity
  8
M1
  6
CONTINUOUS
370
25
 62
     7
100
AcDbLine
 10
748.926547
 20
710.309992
 11
751.426547
 21
710.309992
  0
LINE
  5
96
100
AcDbEntity
  8
M1
  6
CONTINUOUS
370
25
 62
     7
100
AcDbLine
 10
748.926547
 20
777.84759
 11
743.094272
 21
777.84759
  0
LINE
  5
97
100
AcDbEntity
  8
M1
  6
CONTINUOUS
370
25
 62
     7
100
AcDbLine
 10
743.094272
 20
759.37237
 11
748.926547
 21
759.37237
  0
LINE
  5
98
100
AcDbEntity
  8
M1
  6
CONTINUOUS
370
25
 62
     7
100
AcDbLine
 10
743.094272
 20
507.847574
 11
748.926547
 21
507.847574
  0
LINE
  5
99
100
AcDbEntity
  8
M1
  6
CONTINUOUS
370
25
 62
     7
100
AcDbLine
 10
748.926547
 20
489.372385
 11
743.094272
 21
489.372385
  0
LINE
  5
9A
100
AcDbEntity
  8
M1
  6
CONTINUOUS
370
25
 62
     7
100
AcDbLine
 10
748.926547
 20
556.909968
 11
751.426547
 21
556.909968
  0
LINE
  5
9B
100
AcDbEntity
  8
M1
  6
CONTINUOUS
370
25
 62
     7
100
AcDbLine
 10
748.926547
 20
575.309992
 11
751.426547
 21
575.309992
  0
LINE
  5
9C
100
AcDbEntity
  8
M1
  6
CONTINUOUS
370
25
 62
     7
100
AcDbLine
 10
748.926242
 20
566.110071
 11
751.426242
 21
568.425684
  0
LINE
  5
9D
100
AcDbEntity
  8
M1
  6
CONTINUOUS
370
25
 62
     7
100
AcDbLine
 10
751.426547
 20
566.10998
 11
748.926486
 21
563.533381
  0
LINE
  5
9E
100
AcDbEntity
  8
M1
  6
CONTINUOUS
370
25
 62
     7
100
AcDbLine
 10
742.526584
 20
558.991175
 11
742.526584
 21
573.228785
  0
LINE
  5
9F
100
AcDbEntity
  8
M1
  6
CONTINUOUS
370
25
 62
     7
100
AcDbLine
 10
742.526584
 20
491.491175
 11
742.526584
 21
505.728785
  0
LINE
  5
A0
100
AcDbEntity
  8
M1
  6
CONTINUOUS
370
25
 62
     7
100
AcDbLine
 10
751.426486
 20
498.610071
 11
748.926486
 21
496.033381
  0
LINE
  5
A1
100
AcDbEntity
  8
M1
  6
CONTINUOUS
370
25
 62
     7
100
AcDbLine
 10
748.926669
 20
498.60998
 11
751.426669
 21
500.925577
  0
LINE
  5
A2
100
AcDbEntity
  8
M1
  6
CONTINUOUS
370
25
 62
     7
100
AcDbLine
 10
748.926547
 20
507.809977
 11
751.426547
 21
507.809977
  0
LINE
  5
A3
100
AcDbEntity
  8
M1
  6
CONTINUOUS
370
25
 62
     7
100
AcDbLine
 10
748.926547
 20
489.409983
 11
751.426547
 21
489.409983
  0
LINE
  5
A4
100
AcDbEntity
  8
M1
  6
CONTINUOUS
370
25
 62
     7
100
AcDbLine
 10
748.926547
 20
489.372385
 11
748.926547
 21
507.847574
  0
LINE
  5
A5
100
AcDbEntity
  8
M1
  6
CONTINUOUS
370
13
 62
     7
100
AcDbLine
 10
607.565951
 20
633.60998
 11
631.522861
 21
633.60998
  0
LINE
  5
A6
100
AcDbEntity
  8
M1
  6
CONTINUOUS
370
25
 62
     7
100
AcDbLine
 10
885.926547
 20
489.372385
 11
885.926547
 21
507.847574
  0
LINE
  5
A7
100
AcDbEntity
  8
M1
  6
CONTINUOUS
370
25
 62
     7
100
AcDbLine
 10
885.926547
 20
489.409983
 11
883.426547
 21
489.409983
  0
LINE
  5
A8
100
AcDbEntity
  8
M1
  6
CONTINUOUS
370
25
 62
     7
100
AcDbLine
 10
885.926547
 20
507.809977
 11
883.426547
 21
507.809977
  0
LINE
  5
A9
100
AcDbEntity
  8
M1
  6
CONTINUOUS
370
25
 62
     7
100
AcDbLine
 10
885.926486
 20
498.60998
 11
883.426547
 21
496.294382
  0
LINE
  5
AA
100
AcDbEntity
  8
M1
  6
CONTINUOUS
370
25
 62
     7
100
AcDbLine
 10
883.426547
 20
498.60998
 11
885.926669
 21
501.186579
  0
LINE
  5
AB
100
AcDbEntity
  8
M1
  6
CONTINUOUS
370
25
 62
     7
100
AcDbLine
 10
892.326572
 20
491.491175
 11
892.326572
 21
505.728785
  0
LINE
  5
AC
100
AcDbEntity
  8
M1
  6
CONTINUOUS
370
25
 62
     7
100
AcDbLine
 10
892.326572
 20
558.991175
 11
892.326572
 21
573.228785
  0
LINE
  5
AD
100
AcDbEntity
  8
M1
  6
CONTINUOUS
370
25
 62
     7
100
AcDbLine
 10
883.426669
 20
566.110071
 11
885.926669
 21
568.68667
  0
LINE
  5
AE
100
AcDbEntity
  8
M1
  6
CONTINUOUS
370
25
 62
     7
100
AcDbLine
 10
885.926364
 20
566.10998
 11
883.426364
 21
563.794489
  0
LINE
  5
AF
100
AcDbEntity
  8
M1
  6
CONTINUOUS
370
25
 62
     7
100
AcDbLine
 10
885.926547
 20
575.309992
 11
883.426547
 21
575.309992
  0
LINE
  5
B0
100
AcDbEntity
  8
M1
  6
CONTINUOUS
370
25
 62
     7
100
AcDbLine
 10
885.926547
 20
556.909968
 11
883.426547
 21
556.909968
  0
LINE
  5
B1
100
AcDbEntity
  8
M1
  6
CONTINUOUS
370
25
 62
     7
100
AcDbLine
 10
885.926547
 20
489.372385
 11
891.758884
 21
489.372385
  0
LINE
  5
B2
100
AcDbEntity
  8
M1
  6
CONTINUOUS
370
25
 62
     7
100
AcDbLine
 10
891.758884
 20
507.847574
 11
885.926547
 21
507.847574
  0
LINE
  5
B3
100
AcDbEntity
  8
M1
  6
CONTINUOUS
370
25
 62
     7
100
AcDbLine
 10
891.758884
 20
759.37237
 11
885.926547
 21
759.37237
  0
LINE
  5
B4
100
AcDbEntity
  8
M1
  6
CONTINUOUS
370
25
 62
     7
100
AcDbLine
 10
885.926547
 20
777.84759
 11
891.758884
 21
777.84759
  0
LINE
  5
B5
100
AcDbEntity
  8
M1
  6
CONTINUOUS
370
25
 62
     7
100
AcDbLine
 10
885.926547
 20
710.309992
 11
883.426547
 21
710.309992
  0
LINE
  5
B6
100
AcDbEntity
  8
M1
  6
CONTINUOUS
370
25
 62
     7
100
AcDbLine
 10
885.926547
 20
691.909968
 11
883.426547
 21
691.909968
  0
LINE
  5
B7
100
AcDbEntity
  8
M1
  6
CONTINUOUS
370
25
 62
     7
100
AcDbLine
 10
885.926486
 20
701.110071
 11
883.426486
 21
698.794581
  0
LINE
  5
B8
100
AcDbEntity
  8
M1
  6
CONTINUOUS
370
25
 62
     7
100
AcDbLine
 10
883.426547
 20
701.110071
 11
885.926486
 21
703.68667
  0
LINE
  5
B9
100
AcDbEntity
  8
M1
  6
CONTINUOUS
370
25
 62
     7
100
AcDbLine
 10
892.326572
 20
708.228785
 11
892.326572
 21
693.991175
  0
LINE
  5
BA
100
AcDbEntity
  8
M1
  6
CONTINUOUS
370
25
 62
     7
100
AcDbLine
 10
892.326572
 20
775.728754
 11
892.326572
 21
761.491175
  0
LINE
  5
BB
100
AcDbEntity
  8
M1
  6
CONTINUOUS
370
25
 62
     7
100
AcDbLine
 10
883.426547
 20
768.60998
 11
885.926547
 21
771.186701
  0
LINE
  5
BC
100
AcDbEntity
  8
M1
  6
CONTINUOUS
370
25
 62
     7
100
AcDbLine
 10
885.926364
 20
768.610163
 11
883.426486
 21
766.294581
  0
LINE
  5
BD
100
AcDbEntity
  8
M1
  6
CONTINUOUS
370
25
 62
     7
100
AcDbLine
 10
885.926547
 20
759.409968
 11
883.426547
 21
759.409968
  0
LINE
  5
BE
100
AcDbEntity
  8
M1
  6
CONTINUOUS
370
25
 62
     7
100
AcDbLine
 10
885.926547
 20
777.809992
 11
883.426547
 21
777.809992
  0
LINE
  5
BF
100
AcDbEntity
  8
M1
  6
CONTINUOUS
370
25
 62
     7
100
AcDbLine
 10
885.926547
 20
777.84759
 11
885.926547
 21
759.37237
  0
LINE
  5
C0
100
AcDbEntity
  8
M1
  6
CONTINUOUS
370
25
 62
     7
100
AcDbLine
 10
859.926669
 20
468.10998
 11
857.926669
 21
466.10998
  0
LINE
  5
C1
100
AcDbEntity
  8
M1
  6
CONTINUOUS
370
25
 62
     7
100
AcDbLine
 10
859.926486
 20
799.110102
 11
857.926486
 21
801.110102
  0
LINE
  5
C2
100
AcDbEntity
  8
M1
  6
CONTINUOUS
370
25
 62
     7
100
AcDbLine
 10
859.926547
 20
799.110102
 11
859.926547
 21
468.10998
  0
LINE
  5
C3
100
AcDbEntity
  8
M1
  6
CONTINUOUS
370
25
 62
     7
100
AcDbLine
 10
928.006869
 20
590.642267
 11
925.426669
 21
604.594263
  0
LINE
  5
C4
100
AcDbEntity
  8
M1
  6
CONTINUOUS
370
25
 62
     7
100
AcDbLine
 10
930.513644
 20
590.642389
 11
928.006747
 21
590.642389
  0
LINE
  5
C5
100
AcDbEntity
  8
M1
  6
CONTINUOUS
370
25
 62
     7
100
AcDbLine
 10
935.926547
 20
599.013483
 11
930.513644
 21
599.013483
  0
LINE
  5
C6
100
AcDbEntity
  8
M1
  6
CONTINUOUS
370
25
 62
     7
100
AcDbLine
 10
928.006869
 20
676.577692
 11
925.426669
 21
662.625666
  0
LINE
  5
C7
100
AcDbEntity
  8
M1
  6
CONTINUOUS
370
25
 62
     7
100
AcDbLine
 10
930.513644
 20
676.577692
 11
928.006747
 21
676.577692
  0
LINE
  5
C8
100
AcDbEntity
  8
M1
  6
CONTINUOUS
370
25
 62
     7
100
AcDbLine
 10
935.926547
 20
668.206476
 11
930.513644
 21
668.206476
  0
LINE
  5
C9
100
AcDbEntity
  8
M1
  6
CONTINUOUS
370
25
 62
     7
100
AcDbLine
 10
930.513644
 20
676.577692
 11
930.513644
 21
590.642389
  0
LINE
  5
CA
100
AcDbEntity
  8
M1
  6
CONTINUOUS
370
25
 62
     7
100
AcDbLine
 10
900.426547
 20
549.60998
 11
891.426547
 21
549.60998
  0
LINE
  5
CB
100
AcDbEntity
  8
M1
  6
CONTINUOUS
370
25
 62
     7
100
AcDbLine
 10
881.426547
 20
484.60998
 11
859.926547
 21
484.60998
  0
LINE
  5
CC
100
AcDbEntity
  8
M1
  6
CONTINUOUS
370
25
 62
     7
100
AcDbLine
 10
881.426547
 20
782.610102
 11
859.926547
 21
782.610102
  0
LINE
  5
CD
100
AcDbEntity
  8
M1
  6
CONTINUOUS
370
25
 62
     7
100
AcDbLine
 10
900.426547
 20
717.60998
 11
891.426547
 21
717.60998
  0
LINE
  5
CE
100
AcDbEntity
  8
M1
  6
CONTINUOUS
370
25
 62
     7
100
AcDbLine
 10
883.426547
 20
780.610102
 11
883.426547
 21
486.60998
  0
LINE
  5
CF
100
AcDbEntity
  8
M1
  6
CONTINUOUS
370
25
 62
     7
100
AcDbLine
 10
925.426547
 20
578.60998
 11
900.426547
 21
578.60998
  0
LINE
  5
D0
100
AcDbEntity
  8
M1
  6
CONTINUOUS
370
25
 62
     7
100
AcDbLine
 10
925.426547
 20
688.60998
 11
900.426547
 21
688.60998
  0
LINE
  5
D1
100
AcDbEntity
  8
M1
  6
CONTINUOUS
370
25
 62
     7
100
AcDbLine
 10
900.426547
 20
717.60998
 11
900.426547
 21
549.60998
  0
LINE
  5
D2
100
AcDbEntity
  8
M1
  6
CONTINUOUS
370
25
 62
     7
100
AcDbLine
 10
925.426547
 20
688.60998
 11
925.426547
 21
578.60998
  0
LINE
  5
D3
100
AcDbEntity
  8
M1
  6
CONTINUOUS
370
25
 62
     7
100
AcDbLine
 10
1008.426547
 20
628.60998
 11
948.426547
 21
628.60998
  0
LINE
  5
D4
100
AcDbEntity
  8
M1
  6
CONTINUOUS
370
25
 62
     7
100
AcDbLine
 10
1008.426547
 20
638.60998
 11
948.426547
 21
638.60998
  0
LINE
  5
D5
100
AcDbEntity
  8
M1
  6
CONTINUOUS
370
25
 62
     7
100
AcDbLine
 10
1008.426547
 20
616.10998
 11
937.426547
 21
616.10998
  0
LINE
  5
D6
100
AcDbEntity
  8
M1
  6
CONTINUOUS
370
25
 62
     7
100
AcDbLine
 10
1008.426547
 20
651.10998
 11
937.426547
 21
651.10998
  0
LINE
  5
D7
100
AcDbEntity
  8
M1
  6
CONTINUOUS
370
25
 62
     7
100
AcDbLine
 10
948.426547
 20
638.60998
 11
948.426547
 21
628.60998
  0
LINE
  5
D8
100
AcDbEntity
  8
M1
  6
CONTINUOUS
370
25
 62
     7
100
AcDbLine
 10
937.426547
 20
652.10998
 11
937.426547
 21
615.10998
  0
LINE
  5
D9
100
AcDbEntity
  8
M1
  6
CONTINUOUS
370
25
 62
     7
100
AcDbLine
 10
857.926547
 20
466.10998
 11
817.426547
 21
466.10998
  0
LINE
  5
DA
100
AcDbEntity
  8
M1
  6
CONTINUOUS
370
25
 62
     7
100
AcDbLine
 10
857.926547
 20
801.110102
 11
817.426547
 21
801.110102
  0
LINE
  5
DB
100
AcDbEntity
  8
M1
  6
CONTINUOUS
370
25
 62
     7
100
AcDbLine
 10
1008.426547
 20
651.10998
 11
1008.426547
 21
616.10998
  0
LINE
  5
DC
100
AcDbEntity
  8
M1
  6
CONTINUOUS
370
25
 62
     7
100
AcDbLine
 10
1265.022067
 20
718.260279
 11
1341.765658
 21
673.952265
  0
LINE
  5
DD
100
AcDbEntity
  8
M1
  6
CONTINUOUS
370
25
 62
     7
100
AcDbLine
 10
1375.640552
 20
782.126093
 11
1375.640552
 21
693.509882
  0
LINE
  5
DE
100
AcDbEntity
  8
M1
  6
CONTINUOUS
370
25
 62
     7
100
AcDbLine
 10
1360.191958
 20
709.554468
 11
1367.344455
 21
691.851374
  0
LINE
  5
DF
100
AcDbEntity
  8
M1
  6
CONTINUOUS
370
25
 62
     7
100
AcDbLine
 10
1335.594256
 20
695.352991
 11
1347.349261
 21
680.307093
  0
LINE
  5
E0
100
AcDbEntity
  8
M1
  6
CONTINUOUS
370
25
 62
     7
100
AcDbLine
 10
1354.629458
 20
707.307093
 11
1361.781955
 21
689.60409
  0
LINE
  5
E1
100
AcDbEntity
  8
M1
  6
CONTINUOUS
370
25
 62
     7
100
AcDbLine
 10
1340.32236
 20
699.046869
 11
1352.07735
 21
684.001093
  0
LINE
  5
E2
100
AcDbEntity
  8
M1
  6
CONTINUOUS
370
25
 62
     7
100
AcDbLine
 10
1253.022067
 20
569.744288
 11
1329.76575
 21
614.052393
  0
LINE
  5
E3
100
AcDbEntity
  8
M1
  6
CONTINUOUS
370
25
 62
     7
100
AcDbLine
 10
1253.022067
 20
697.475763
 11
1329.76575
 21
653.167689
  0
LINE
  5
E4
100
AcDbEntity
  8
M1
  6
CONTINUOUS
370
25
 62
     7
100
AcDbLine
 10
1308.146457
 20
647.811793
 11
1327.054172
 21
645.154566
  0
LINE
  5
E5
100
AcDbEntity
  8
M1
  6
CONTINUOUS
370
25
 62
     7
100
AcDbLine
 10
1308.146365
 20
619.408381
 11
1327.05405
 21
622.065668
  0
LINE
  5
E6
100
AcDbEntity
  8
M1
  6
CONTINUOUS
370
25
 62
     7
100
AcDbLine
 10
1307.311252
 20
641.86999
 11
1326.218967
 21
639.212763
  0
LINE
  5
E7
100
AcDbEntity
  8
M1
  6
CONTINUOUS
370
25
 62
     7
100
AcDbLine
 10
1307.311343
 20
625.350092
 11
1326.219058
 21
628.00738
  0
LINE
  5
E8
100
AcDbEntity
  8
M1
  6
CONTINUOUS
370
25
 62
     7
100
AcDbLine
 10
1375.640552
 20
485.093973
 11
1375.640552
 21
573.710077
  0
LINE
  5
E9
100
AcDbEntity
  8
M1
  6
CONTINUOUS
370
25
 62
     7
100
AcDbLine
 10
1265.021945
 20
548.959681
 11
1341.765552
 21
593.267664
  0
LINE
  5
EA
100
AcDbEntity
  8
M1
  6
CONTINUOUS
370
25
 62
     7
100
AcDbLine
 10
1335.594653
 20
571.866877
 11
1347.349658
 21
586.912684
  0
LINE
  5
EB
100
AcDbEntity
  8
M1
  6
CONTINUOUS
370
25
 62
     7
100
AcDbLine
 10
1360.192462
 20
557.665278
 11
1367.344958
 21
575.368372
  0
LINE
  5
EC
100
AcDbEntity
  8
M1
  6
CONTINUOUS
370
25
 62
     7
100
AcDbLine
 10
1340.322558
 20
568.172968
 11
1352.077563
 21
583.218775
  0
LINE
  5
ED
100
AcDbEntity
  8
M1
  6
CONTINUOUS
370
25
 62
     7
100
AcDbLine
 10
1354.62926
 20
559.912867
 11
1361.78165
 21
577.615992
  0
LINE
  5
EE
100
AcDbEntity
  8
M1
  6
CONTINUOUS
370
25
 62
     7
100
AcDbLine
 10
1510.259173
 20
548.959681
 11
1433.515353
 21
593.267786
  0
LINE
  5
EF
100
AcDbEntity
  8
M1
  6
CONTINUOUS
370
25
 62
     7
100
AcDbLine
 10
1399.640552
 20
485.093973
 11
1399.640552
 21
573.710077
  0
LINE
  5
F0
100
AcDbEntity
  8
M1
  6
CONTINUOUS
370
25
 62
     7
100
AcDbLine
 10
1415.088153
 20
557.665064
 11
1407.935657
 21
575.368067
  0
LINE
  5
F1
100
AcDbEntity
  8
M1
  6
CONTINUOUS
370
25
 62
     7
100
AcDbLine
 10
1439.686664
 20
571.866785
 11
1427.931552
 21
586.912592
  0
LINE
  5
F2
100
AcDbEntity
  8
M1
  6
CONTINUOUS
370
25
 62
     7
100
AcDbLine
 10
1420.651858
 20
559.912775
 11
1413.499255
 21
577.61587
  0
LINE
  5
F3
100
AcDbEntity
  8
M1
  6
CONTINUOUS
370
25
 62
     7
100
AcDbLine
 10
1434.958758
 20
568.17309
 11
1423.203464
 21
583.218866
  0
LINE
  5
F4
100
AcDbEntity
  8
M1
  6
CONTINUOUS
370
25
 62
     7
100
AcDbLine
 10
1522.259166
 20
697.475763
 11
1445.515353
 21
653.16778
  0
LINE
  5
F5
100
AcDbEntity
  8
M1
  6
CONTINUOUS
370
25
 62
     7
100
AcDbLine
 10
1522.259128
 20
569.744166
 11
1445.515353
 21
614.052179
  0
LINE
  5
F6
100
AcDbEntity
  8
M1
  6
CONTINUOUS
370
25
 62
     7
100
AcDbLine
 10
1467.134555
 20
619.408289
 11
1448.226962
 21
622.065485
  0
LINE
  5
F7
100
AcDbEntity
  8
M1
  6
CONTINUOUS
370
25
 62
     7
100
AcDbLine
 10
1467.134555
 20
647.811579
 11
1448.227054
 21
645.154291
  0
LINE
  5
F8
100
AcDbEntity
  8
M1
  6
CONTINUOUS
370
25
 62
     7
100
AcDbLine
 10
1467.969653
 20
625.349878
 11
1449.062152
 21
628.007166
  0
LINE
  5
F9
100
AcDbEntity
  8
M1
  6
CONTINUOUS
370
25
 62
     7
100
AcDbLine
 10
1467.969653
 20
641.86999
 11
1449.062259
 21
639.212763
  0
LINE
  5
FA
100
AcDbEntity
  8
M1
  6
CONTINUOUS
370
25
 62
     7
100
AcDbLine
 10
1420.651752
 20
707.307093
 11
1413.499255
 21
689.60409
  0
LINE
  5
FB
100
AcDbEntity
  8
M1
  6
CONTINUOUS
370
25
 62
     7
100
AcDbLine
 10
1434.958652
 20
699.046991
 11
1423.203464
 21
684.001368
  0
LINE
  5
FC
100
AcDbEntity
  8
M1
  6
CONTINUOUS
370
25
 62
     7
100
AcDbLine
 10
1415.088656
 20
709.554773
 11
1407.93616
 21
691.851679
  0
LINE
  5
FD
100
AcDbEntity
  8
M1
  6
CONTINUOUS
370
25
 62
     7
100
AcDbLine
 10
1434.960757
 20
742.723688
 11
1430.836154
 21
732.514673
  0
LINE
  5
FE
100
AcDbEntity
  8
M1
  6
CONTINUOUS
370
25
 62
     7
100
AcDbLine
 10
1458.47536
 20
729.147486
 11
1451.696551
 21
720.470881
  0
LINE
  5
FF
100
AcDbEntity
  8
M1
  6
CONTINUOUS
370
25
 62
     7
100
AcDbLine
 10
1439.686557
 20
695.353083
 11
1427.931552
 21
680.307367
  0
LINE
  5
100
100
AcDbEntity
  8
M1
  6
CONTINUOUS
370
25
 62
     7
100
AcDbLine
 10
1510.259173
 20
718.26037
 11
1433.515353
 21
673.952387
  0
LINE
  5
101
100
AcDbEntity
  8
M1
  6
CONTINUOUS
370
25
 62
     7
100
AcDbLine
 10
1399.640552
 20
782.126093
 11
1399.640552
 21
693.509882
  0
LINE
  5
102
100
AcDbEntity
  8
M1
  6
CONTINUOUS
370
13
 62
     7
100
AcDbLine
 10
1387.640552
 20
642.426569
 11
1387.640552
 21
624.793482
  0
LINE
  5
103
100
AcDbEntity
  8
M1
  6
CONTINUOUS
370
13
 62
     7
100
AcDbLine
 10
1396.457049
 20
633.60998
 11
1378.823855
 21
633.60998
  0
LINE
  5
104
100
AcDbEntity
  8
M1
  6
CONTINUOUS
370
25
 62
     7
100
AcDbLine
 10
312.639213
 20
638.60998
 11
320.639213
 21
638.60998
  0
LINE
  5
105
100
AcDbEntity
  8
M1
  6
CONTINUOUS
370
25
 62
     7
100
AcDbLine
 10
312.639213
 20
628.60998
 11
320.639213
 21
628.60998
  0
LINE
  5
106
100
AcDbEntity
  8
M1
  6
CONTINUOUS
370
25
 62
     7
100
AcDbLine
 10
312.639213
 20
638.60998
 11
312.639213
 21
628.60998
  0
LINE
  5
107
100
AcDbEntity
  8
M1
  6
CONTINUOUS
370
25
 62
     7
100
AcDbLine
 10
320.639213
 20
638.60998
 11
320.639213
 21
628.60998
  0
LINE
  5
108
100
AcDbEntity
  8
M1
  6
CONTINUOUS
370
25
 62
     7
100
AcDbLine
 10
228.803134
 20
729.147486
 11
235.582187
 21
720.470881
  0
LINE
  5
109
100
AcDbEntity
  8
M1
  6
CONTINUOUS
370
25
 62
     7
100
AcDbLine
 10
252.318149
 20
742.72378
 11
256.443149
 21
732.514765
  0
LINE
  5
10A
100
AcDbEntity
  8
M1
  6
CONTINUOUS
370
25
 62
     7
100
AcDbLine
 10
181.483188
 20
620.033869
 11
192.386142
 21
621.566279
  0
LINE
  5
10B
100
AcDbEntity
  8
M1
  6
CONTINUOUS
370
25
 62
     7
100
AcDbLine
 10
181.483188
 20
647.186182
 11
192.386142
 21
645.653772
  0
LINE
  5
10C
100
AcDbEntity
  8
M1
  6
CONTINUOUS
370
25
 62
     7
100
AcDbLine
 10
252.318149
 20
524.49618
 11
256.443149
 21
534.705164
  0
LINE
  5
10D
100
AcDbEntity
  8
M1
  6
CONTINUOUS
370
25
 62
     7
100
AcDbLine
 10
228.804111
 20
538.072291
 11
235.583163
 21
546.748774
  0
LINE
  5
10E
100
AcDbEntity
  8
M1
  6
CONTINUOUS
370
25
 62
     7
100
AcDbLine
 10
370.473178
 20
538.072565
 11
363.694125
 21
546.749079
  0
LINE
  5
10F
100
AcDbEntity
  8
M1
  6
CONTINUOUS
370
25
 62
     7
100
AcDbLine
 10
346.95914
 20
524.496485
 11
342.83414
 21
534.705469
  0
LINE
  5
110
100
AcDbEntity
  8
M1
  6
CONTINUOUS
370
25
 62
     7
100
AcDbLine
 10
417.794101
 20
647.186091
 11
406.89017
 21
645.653681
  0
LINE
  5
111
100
AcDbEntity
  8
M1
  6
CONTINUOUS
370
25
 62
     7
100
AcDbLine
 10
417.793124
 20
620.033869
 11
406.89017
 21
621.566279
  0
LINE
  5
112
100
AcDbEntity
  8
M1
  6
CONTINUOUS
370
25
 62
     7
100
AcDbLine
 10
1340.319949
 20
742.723475
 11
1344.444858
 21
732.51449
  0
LINE
  5
113
100
AcDbEntity
  8
M1
  6
CONTINUOUS
370
25
 62
     7
100
AcDbLine
 10
1316.805667
 20
729.147364
 11
1323.584354
 21
720.470789
  0
LINE
  5
114
100
AcDbEntity
  8
M1
  6
CONTINUOUS
370
25
 62
     7
100
AcDbLine
 10
1269.485263
 20
647.186091
 11
1280.388858
 21
645.653681
  0
LINE
  5
115
100
AcDbEntity
  8
M1
  6
CONTINUOUS
370
25
 62
     7
100
AcDbLine
 10
1269.485171
 20
620.033869
 11
1280.388766
 21
621.566279
  0
LINE
  5
116
100
AcDbEntity
  8
M1
  6
CONTINUOUS
370
25
 62
     7
100
AcDbLine
 10
1316.805759
 20
538.072565
 11
1323.584445
 21
546.749079
  0
LINE
  5
117
100
AcDbEntity
  8
M1
  6
CONTINUOUS
370
25
 62
     7
100
AcDbLine
 10
1340.320056
 20
524.496393
 11
1344.444858
 21
534.705378
  0
LINE
  5
118
100
AcDbEntity
  8
M1
  6
CONTINUOUS
370
25
 62
     7
100
AcDbLine
 10
1434.960757
 20
524.496271
 11
1430.836154
 21
534.705164
  0
LINE
  5
119
100
AcDbEntity
  8
M1
  6
CONTINUOUS
370
25
 62
     7
100
AcDbLine
 10
1458.475558
 20
538.072687
 11
1451.696857
 21
546.74917
  0
LINE
  5
11A
100
AcDbEntity
  8
M1
  6
CONTINUOUS
370
25
 62
     7
100
AcDbLine
 10
1505.795848
 20
620.033869
 11
1494.892253
 21
621.566187
  0
LINE
  5
11B
100
AcDbEntity
  8
M1
  6
CONTINUOUS
370
25
 62
     7
100
AcDbLine
 10
1505.795756
 20
647.186091
 11
1494.892169
 21
645.653681
  0
LINE
  5
11C
100
AcDbEntity
  8
M1
  6
CONTINUOUS
370
13
 62
     7
100
AcDbLine
 10
1316.026767
 20
674.956293
 11
1329.530643
 21
667.159876
  0
LINE
  5
11D
100
AcDbEntity
  8
M1
  6
CONTINUOUS
370
13
 62
     7
100
AcDbLine
 10
1316.026645
 20
592.263666
 11
1329.530459
 21
600.060084
  0
LINE
  5
11E
100
AcDbEntity
  8
M1
  6
CONTINUOUS
370
13
 62
     7
100
AcDbLine
 10
1459.25455
 20
592.263483
 11
1445.750552
 21
600.059992
  0
LINE
  5
11F
100
AcDbEntity
  8
M1
  6
CONTINUOUS
370
13
 62
     7
100
AcDbLine
 10
1459.254657
 20
674.956293
 11
1445.750552
 21
667.159784
  0
LINE
  5
120
100
AcDbEntity
  8
M1
  6
CONTINUOUS
370
13
 62
     7
100
AcDbLine
 10
227.662143
 20
675.165491
 11
242.436191
 21
666.635676
  0
LINE
  5
121
100
AcDbEntity
  8
M1
  6
CONTINUOUS
370
13
 62
     7
100
AcDbLine
 10
227.662143
 20
592.05459
 11
242.436191
 21
600.584376
  0
LINE
  5
122
100
AcDbEntity
  8
M1
  6
CONTINUOUS
370
13
 62
     7
100
AcDbLine
 10
371.615146
 20
592.05459
 11
356.840121
 21
600.584284
  0
LINE
  5
123
100
AcDbEntity
  8
M1
  6
CONTINUOUS
370
13
 62
     7
100
AcDbLine
 10
371.614169
 20
675.165491
 11
356.840121
 21
666.635676
  0
LINE
  5
124
100
AcDbEntity
  8
M1
  6
CONTINUOUS
370
13
 62
     7
100
AcDbLine
 10
299.638217
 20
717.539087
 11
299.638217
 21
700.618982
  0
LINE
  5
125
100
AcDbEntity
  8
M1
  6
CONTINUOUS
370
13
 62
     7
100
AcDbLine
 10
299.638217
 20
550.452784
 11
299.638217
 21
567.795893
  0
LINE
  5
126
100
AcDbEntity
  8
M1
  6
CONTINUOUS
370
13
 62
     7
100
AcDbLine
 10
1003.313144
 20
633.60998
 11
1026.044284
 21
633.60998
  0
LINE
  5
127
100
AcDbEntity
  8
M1
  6
CONTINUOUS
370
13
 62
     7
100
AcDbLine
 10
1387.640552
 20
716.162592
 11
1387.640552
 21
699.808375
  0
LINE
  5
128
100
AcDbEntity
  8
M1
  6
CONTINUOUS
370
13
 62
     7
100
AcDbLine
 10
1387.640552
 20
550.984583
 11
1387.640552
 21
567.338892
  0
LINE
  5
129
100
AcDbEntity
  8
M1
  6
CONTINUOUS
370
25
 62
     7
100
AcDbLine
 10
859.926547
 20
789.010187
 11
863.525546
 21
789.010187
  0
LINE
  5
12A
100
AcDbEntity
  8
M1
  6
CONTINUOUS
370
25
 62
     7
100
AcDbLine
 10
869.326572
 20
792.010248
 11
869.326572
 21
796.487177
  0
LINE
  5
12B
100
AcDbEntity
  8
M1
  6
CONTINUOUS
370
25
 62
     7
100
AcDbLine
 10
869.326877
 20
796.487055
 11
866.526767
 21
794.615107
  0
LINE
  5
12C
100
AcDbEntity
  8
M1
  6
CONTINUOUS
370
25
 62
     7
100
AcDbLine
 10
866.526584
 20
792.010248
 11
866.526584
 21
794.61529
  0
LINE
  5
12D
100
AcDbEntity
  8
M1
  6
CONTINUOUS
370
25
 62
     7
100
AcDbLine
 10
869.326572
 20
800.160273
 11
866.526584
 21
798.117304
  0
LINE
  5
12E
100
AcDbEntity
  8
M1
  6
CONTINUOUS
370
25
 62
     7
100
AcDbLine
 10
866.526584
 20
798.117182
 11
866.526584
 21
803.403193
  0
LINE
  5
12F
100
AcDbEntity
  8
M1
  6
CONTINUOUS
370
25
 62
     7
100
AcDbLine
 10
869.326572
 20
800.160151
 11
869.326572
 21
803.403193
  0
LINE
  5
130
100
AcDbEntity
  8
M1
  6
CONTINUOUS
370
25
 62
     7
100
AcDbLine
 10
873.526584
 20
815.528376
 11
874.926669
 21
813.103388
  0
LINE
  5
131
100
AcDbEntity
  8
M1
  6
CONTINUOUS
370
25
 62
     7
100
AcDbLine
 10
862.326633
 20
815.528193
 11
860.926669
 21
813.103083
  0
LINE
  5
132
100
AcDbEntity
  8
M1
  6
CONTINUOUS
370
25
 62
     7
100
AcDbLine
 10
861.626742
 20
814.315485
 11
855.56467
 21
817.815485
  0
LINE
  5
133
100
AcDbEntity
  8
M1
  6
CONTINUOUS
370
25
 62
     7
100
AcDbLine
 10
874.226474
 20
814.315302
 11
880.288486
 21
817.815302
  0
LINE
  5
134
100
AcDbEntity
  8
M1
  6
CONTINUOUS
370
25
 62
     7
100
AcDbLine
 10
863.525546
 20
786.2102
 11
859.926547
 21
786.2102
  0
LINE
  5
135
100
AcDbEntity
  8
M1
  6
CONTINUOUS
370
25
 62
     7
100
AcDbLine
 10
218.327182
 20
780.05047
 11
210.833163
 21
793.031
  0
LINE
  5
136
100
AcDbEntity
  8
M1
  6
CONTINUOUS
370
25
 62
     7
100
AcDbLine
 10
190.591098
 20
808.4909
 11
190.590121
 21
805.691767
  0
LINE
  5
137
100
AcDbEntity
  8
M1
  6
CONTINUOUS
370
25
 62
     7
100
AcDbLine
 10
202.715121
 20
815.491999
 11
205.14017
 21
814.090998
  0
LINE
  5
138
100
AcDbEntity
  8
M1
  6
CONTINUOUS
370
25
 62
     7
100
AcDbLine
 10
190.590121
 20
807.090754
 11
183.591098
 21
807.090754
  0
LINE
  5
139
100
AcDbEntity
  8
M1
  6
CONTINUOUS
370
25
 62
     7
100
AcDbLine
 10
203.927157
 20
814.790705
 11
207.427157
 21
820.853693
  0
LINE
  5
13A
100
AcDbEntity
  8
M1
  6
CONTINUOUS
370
25
 62
     7
100
AcDbLine
 10
202.575107
 20
801.727289
 11
206.670199
 21
794.635492
  0
LINE
  5
13B
100
AcDbEntity
  8
M1
  6
CONTINUOUS
370
25
 62
     7
100
AcDbLine
 10
208.776156
 20
796.593805
 11
205.14017
 21
802.891779
  0
LINE
  5
13C
100
AcDbEntity
  8
M1
  6
CONTINUOUS
370
25
 62
     7
100
AcDbLine
 10
204.568149
 20
792.680903
 11
200.290195
 21
800.090754
  0
LINE
  5
13D
100
AcDbEntity
  8
M1
  6
CONTINUOUS
370
25
 62
     7
100
AcDbLine
 10
208.776156
 20
796.5935
 11
204.568149
 21
792.680597
  0
LINE
  5
13E
100
AcDbEntity
  8
M1
  6
CONTINUOUS
370
25
 62
     7
100
AcDbLine
 10
210.833163
 20
793.030756
 11
206.487216
 21
789.357783
  0
LINE
  5
13F
100
AcDbEntity
  8
M1
  6
CONTINUOUS
370
25
 62
     7
100
AcDbLine
 10
213.476108
 20
777.24975
 11
206.486117
 21
789.357599
  0
LINE
  5
140
100
AcDbEntity
  8
M1
  6
CONTINUOUS
370
25
 62
     7
100
AcDbLine
 10
208.657138
 20
791.19195
 11
215.888217
 21
778.669062
  0
LINE
  5
141
100
AcDbEntity
  8
M1
  6
CONTINUOUS
370
25
 62
     7
100
AcDbLine
 10
1463.231357
 20
770.142695
 11
1476.445453
 21
793.031
  0
LINE
  5
142
100
AcDbEntity
  8
M1
  6
CONTINUOUS
370
25
 62
     7
100
AcDbLine
 10
1496.6879
 20
808.4909
 11
1496.688876
 21
805.691767
  0
LINE
  5
143
100
AcDbEntity
  8
M1
  6
CONTINUOUS
370
25
 62
     7
100
AcDbLine
 10
1484.563754
 20
815.49206
 11
1482.13866
 21
814.091059
  0
LINE
  5
144
100
AcDbEntity
  8
M1
  6
CONTINUOUS
370
25
 62
     7
100
AcDbLine
 10
1496.688876
 20
807.090754
 11
1503.6879
 21
807.090754
  0
LINE
  5
145
100
AcDbEntity
  8
M1
  6
CONTINUOUS
370
25
 62
     7
100
AcDbLine
 10
1483.351459
 20
814.790583
 11
1479.851459
 21
820.853693
  0
LINE
  5
146
100
AcDbEntity
  8
M1
  6
CONTINUOUS
370
25
 62
     7
100
AcDbLine
 10
1484.704059
 20
801.72735
 11
1480.608958
 21
794.635492
  0
LINE
  5
147
100
AcDbEntity
  8
M1
  6
CONTINUOUS
370
25
 62
     7
100
AcDbLine
 10
1478.502956
 20
796.593805
 11
1482.138957
 21
802.891779
  0
LINE
  5
148
100
AcDbEntity
  8
M1
  6
CONTINUOUS
370
25
 62
     7
100
AcDbLine
 10
1468.081859
 20
767.342371
 11
1480.791957
 21
789.35766
  0
LINE
  5
149
100
AcDbEntity
  8
M1
  6
CONTINUOUS
370
25
 62
     7
100
AcDbLine
 10
1478.502956
 20
796.5935
 11
1482.710857
 21
792.680597
  0
LINE
  5
14A
100
AcDbEntity
  8
M1
  6
CONTINUOUS
370
25
 62
     7
100
AcDbLine
 10
1476.445857
 20
793.030756
 11
1480.791957
 21
789.357783
  0
LINE
  5
14B
100
AcDbEntity
  8
M1
  6
CONTINUOUS
370
25
 62
     7
100
AcDbLine
 10
1478.621356
 20
791.19195
 11
1465.658557
 21
768.741388
  0
LINE
  5
14C
100
AcDbEntity
  8
M1
  6
CONTINUOUS
370
25
 62
     7
100
AcDbLine
 10
1482.710559
 20
792.680903
 11
1486.98846
 21
800.090754
  0
LINE
  5
14D
100
AcDbEntity
  8
M1
  6
CONTINUOUS
370
25
 62
     7
100
AcDbLine
 10
697.426547
 20
615.10998
 11
698.926547
 21
615.10998
  0
LINE
  5
14E
100
AcDbEntity
  8
M1
  6
CONTINUOUS
370
25
 62
     7
100
AcDbLine
 10
697.426547
 20
652.10998
 11
698.926547
 21
652.10998
  0
LINE
  5
14F
100
AcDbEntity
  8
M1
  6
CONTINUOUS
370
25
 62
     7
100
AcDbLine
 10
935.926547
 20
652.10998
 11
937.426547
 21
652.10998
  0
LINE
  5
150
100
AcDbEntity
  8
M1
  6
CONTINUOUS
370
25
 62
     7
100
AcDbLine
 10
935.926547
 20
615.10998
 11
937.426547
 21
615.10998
  0
LINE
  5
151
100
AcDbEntity
  8
M1
  6
CONTINUOUS
370
25
 62
     7
100
AcDbLine
 10
698.926547
 20
668.206476
 11
698.926547
 21
599.013483
  0
LINE
  5
152
100
AcDbEntity
  8
M1
  6
CONTINUOUS
370
25
 62
     7
100
AcDbLine
 10
935.926547
 20
668.206476
 11
935.926547
 21
599.013483
  0
CIRCLE
  5
153
100
AcDbEntity
  8
M1
  6
CONTINUOUS
370
25
 62
     7
100
AcDbCircle
 10
299.638217
 20
633.60998
 40
167.5
  0
CIRCLE
  5
154
100
AcDbEntity
  8
M1
  6
CONTINUOUS
370
25
 62
     7
100
AcDbCircle
 10
299.638217
 20
633.60998
 40
149.0
  0
ARC
  5
155
100
AcDbEntity
  8
M1
  6
CONTINUOUS
370
25
 62
     7
100
AcDbCircle
 10
299.638217
 20
633.60998
 40
58.000065
100
AcDbArc
 50
104.955513
 51
135.044617
  0
CIRCLE
  5
156
100
AcDbEntity
  8
M1
  6
CONTINUOUS
370
25
 62
     7
100
AcDbCircle
 10
299.638217
 20
633.60998
 40
55.0
  0
CIRCLE
  5
157
100
AcDbEntity
  8
M1
  6
CONTINUOUS
370
25
 62
     7
100
AcDbCircle
 10
299.638217
 20
633.60998
 40
45.0
  0
ARC
  5
158
100
AcDbEntity
  8
M1
  6
CONTINUOUS
370
13
 62
     7
100
AcDbCircle
 10
299.638217
 20
633.60998
 40
75.000099
100
AcDbArc
 50
82.286186
 51
97.066846
  0
ARC
  5
159
100
AcDbEntity
  8
M1
  6
CONTINUOUS
370
25
 62
     7
100
AcDbCircle
 10
299.638217
 20
633.60998
 40
85.000023
100
AcDbArc
 50
88.471725
 51
91.52835
  0
ARC
  5
15A
100
AcDbEntity
  8
M1
  6
CONTINUOUS
370
25
 62
     7
100
AcDbCircle
 10
297.638217
 20
708.583368
 40
9.999967
100
AcDbArc
 50
91.530502
 51
180.0
  0
ARC
  5
15B
100
AcDbEntity
  8
M1
  6
CONTINUOUS
370
25
 62
     7
100
AcDbCircle
 10
299.638217
 20
633.60998
 40
85.000114
100
AcDbArc
 50
132.957748
 51
138.607563
  0
ARC
  5
15C
100
AcDbEntity
  8
M1
  6
CONTINUOUS
370
25
 62
     7
100
AcDbCircle
 10
299.638217
 20
633.60998
 40
84.999985
100
AcDbArc
 50
116.957565
 51
123.042361
  0
ARC
  5
15D
100
AcDbEntity
  8
M1
  6
CONTINUOUS
370
25
 62
     7
100
AcDbCircle
 10
244.440097
 20
692.890467
 40
4.000026
100
AcDbArc
 50
37.999165
 51
132.95924
  0
ARC
  5
15E
100
AcDbEntity
  8
M1
  6
CONTINUOUS
370
25
 62
     7
100
AcDbCircle
 10
255.472201
 20
701.509668
 40
4.000037
100
AcDbArc
 50
123.041916
 51
217.998817
  0
ARC
  5
15F
100
AcDbEntity
  8
M1
  6
CONTINUOUS
370
25
 62
     7
100
AcDbCircle
 10
262.918124
 20
705.80868
 40
4.000226
100
AcDbArc
 50
21.998487
 51
116.953115
  0
ARC
  5
160
100
AcDbEntity
  8
M1
  6
CONTINUOUS
370
25
 62
     7
100
AcDbCircle
 10
275.899203
 20
711.053187
 40
4.000159
100
AcDbArc
 50
107.053368
 51
201.997833
  0
ARC
  5
161
100
AcDbEntity
  8
M1
  6
CONTINUOUS
370
25
 62
     7
100
AcDbCircle
 10
283.638217
 20
713.014063
 40
4.0
100
AcDbArc
 50
0.0
 51
101.391632
  0
ARC
  5
162
100
AcDbEntity
  8
M1
  6
CONTINUOUS
370
25
 62
     7
100
AcDbCircle
 10
255.763217
 20
677.416376
 40
4.000009
100
AcDbArc
 50
240.000076
 51
315.047913
  0
ARC
  5
163
100
AcDbEntity
  8
M1
  6
CONTINUOUS
370
25
 62
     7
100
AcDbCircle
 10
256.195102
 20
677.84469
 40
4.000274
100
AcDbArc
 50
314.485382
 51
397.998825
  0
ARC
  5
164
100
AcDbEntity
  8
M1
  6
CONTINUOUS
370
25
 62
     7
100
AcDbCircle
 10
267.227206
 20
686.463892
 40
4.000026
100
AcDbArc
 50
217.999161
 51
301.516434
  0
ARC
  5
165
100
AcDbEntity
  8
M1
  6
CONTINUOUS
370
25
 62
     7
100
AcDbCircle
 10
270.0712
 20
688.105585
 40
3.999686
100
AcDbArc
 50
298.475494
 51
382.003311
  0
ARC
  5
166
100
AcDbEntity
  8
M1
  6
CONTINUOUS
370
25
 62
     7
100
AcDbCircle
 10
283.051181
 20
693.350092
 40
3.999321
100
AcDbArc
 50
202.003723
 51
285.514862
  0
ARC
  5
167
100
AcDbEntity
  8
M1
  6
CONTINUOUS
370
25
 62
     7
100
AcDbCircle
 10
283.638217
 20
693.509882
 40
3.99992
100
AcDbArc
 50
284.951477
 51
360.000008
  0
CIRCLE
  5
168
100
AcDbEntity
  8
M1
  6
CONTINUOUS
370
13
 62
     7
100
AcDbCircle
 10
299.638217
 20
708.60998
 40
5.0
  0
CIRCLE
  5
169
100
AcDbEntity
  8
M1
  6
CONTINUOUS
370
25
 62
     7
100
AcDbCircle
 10
299.638217
 20
708.60998
 40
4.5
  0
ARC
  5
16A
100
AcDbEntity
  8
M1
  6
CONTINUOUS
370
25
 62
     7
100
AcDbCircle
 10
235.70914
 20
672.828791
 40
9.999942
100
AcDbArc
 50
59.999805
 51
148.469585
  0
ARC
  5
16B
100
AcDbEntity
  8
M1
  6
CONTINUOUS
370
25
 62
     7
100
AcDbCircle
 10
238.872104
 20
687.16839
 40
4.000168
100
AcDbArc
 50
138.608795
 51
240.000061
  0
ARC
  5
16C
100
AcDbEntity
  8
M1
  6
CONTINUOUS
370
25
 62
     7
100
AcDbCircle
 10
299.638217
 20
633.60998
 40
85.000053
100
AcDbArc
 50
101.39254
 51
107.042635
  0
CIRCLE
  5
16D
100
AcDbEntity
  8
M1
  6
CONTINUOUS
370
25
 62
     7
100
AcDbCircle
 10
299.638217
 20
768.60998
 40
8.0
  0
CIRCLE
  5
16E
100
AcDbEntity
  8
M1
  6
CONTINUOUS
370
25
 62
     7
100
AcDbCircle
 10
182.725131
 20
701.10998
 40
8.0
  0
ARC
  5
16F
100
AcDbEntity
  8
M1
  6
CONTINUOUS
370
25
 62
     7
100
AcDbCircle
 10
299.638217
 20
633.60998
 40
85.000168
100
AcDbArc
 50
161.392685
 51
167.042441
  0
ARC
  5
170
100
AcDbEntity
  8
M1
  6
CONTINUOUS
370
25
 62
     7
100
AcDbCircle
 10
222.872104
 20
607.764368
 40
3.999969
100
AcDbArc
 50
198.606781
 51
300.000153
  0
ARC
  5
171
100
AcDbEntity
  8
M1
  6
CONTINUOUS
370
25
 62
     7
100
AcDbCircle
 10
233.70914
 20
597.855372
 40
10.000048
100
AcDbArc
 50
119.99984
 51
208.472702
  0
CIRCLE
  5
172
100
AcDbEntity
  8
M1
  6
CONTINUOUS
370
25
 62
     7
100
AcDbCircle
 10
234.686191
 20
671.10998
 40
4.5
  0
CIRCLE
  5
173
100
AcDbEntity
  8
M1
  6
CONTINUOUS
370
13
 62
     7
100
AcDbCircle
 10
234.686191
 20
671.10998
 40
5.0
  0
ARC
  5
174
100
AcDbEntity
  8
M1
  6
CONTINUOUS
370
25
 62
     7
100
AcDbCircle
 10
239.763217
 20
649.703577
 40
4.000022
100
AcDbArc
 50
344.955261
 51
420.000084
  0
ARC
  5
175
100
AcDbEntity
  8
M1
  6
CONTINUOUS
370
25
 62
     7
100
AcDbCircle
 10
239.608188
 20
649.115473
 40
3.999926
100
AcDbArc
 50
262.00943
 51
345.516777
  0
ARC
  5
176
100
AcDbEntity
  8
M1
  6
CONTINUOUS
370
25
 62
     7
100
AcDbCircle
 10
237.66019
 20
635.251673
 40
3.999327
100
AcDbArc
 50
358.482727
 51
442.011169
  0
ARC
  5
177
100
AcDbEntity
  8
M1
  6
CONTINUOUS
370
25
 62
     7
100
AcDbCircle
 10
237.66019
 20
631.968378
 40
3.999909
100
AcDbArc
 50
277.988831
 51
361.517273
  0
ARC
  5
178
100
AcDbEntity
  8
M1
  6
CONTINUOUS
370
25
 62
     7
100
AcDbCircle
 10
239.608188
 20
618.104578
 40
4.00002
100
AcDbArc
 50
14.481955
 51
97.990751
  0
ARC
  5
179
100
AcDbEntity
  8
M1
  6
CONTINUOUS
370
25
 62
     7
100
AcDbCircle
 10
239.763217
 20
617.516474
 40
3.999982
100
AcDbArc
 50
300.000153
 51
375.044754
  0
ARC
  5
17A
100
AcDbEntity
  8
M1
  6
CONTINUOUS
370
25
 62
     7
100
AcDbCircle
 10
222.872104
 20
659.455591
 40
3.999982
100
AcDbArc
 50
59.999851
 51
161.393223
  0
ARC
  5
17B
100
AcDbEntity
  8
M1
  6
CONTINUOUS
370
25
 62
     7
100
AcDbCircle
 10
220.701205
 20
651.772791
 40
4.000871
100
AcDbArc
 50
167.045837
 51
261.995636
  0
ARC
  5
17C
100
AcDbEntity
  8
M1
  6
CONTINUOUS
370
25
 62
     7
100
AcDbCircle
 10
218.752109
 20
637.908991
 40
3.999971
100
AcDbArc
 50
81.995392
 51
176.957527
  0
ARC
  5
17D
100
AcDbEntity
  8
M1
  6
CONTINUOUS
370
25
 62
     7
100
AcDbCircle
 10
218.752109
 20
629.311091
 40
3.999536
100
AcDbArc
 50
183.042908
 51
278.004356
  0
ARC
  5
17E
100
AcDbEntity
  8
M1
  6
CONTINUOUS
370
25
 62
     7
100
AcDbCircle
 10
220.701205
 20
615.447291
 40
4.000062
100
AcDbArc
 50
98.004425
 51
192.95459
  0
ARC
  5
17F
100
AcDbEntity
  8
M1
  6
CONTINUOUS
370
25
 62
     7
100
AcDbCircle
 10
299.638217
 20
633.60998
 40
84.999809
100
AcDbArc
 50
176.957642
 51
183.042287
  0
ARC
  5
180
100
AcDbEntity
  8
M1
  6
CONTINUOUS
370
25
 62
     7
100
AcDbCircle
 10
299.638217
 20
633.60998
 40
85.000458
100
AcDbArc
 50
192.957504
 51
198.607321
  0
ARC
  5
181
100
AcDbEntity
  8
M1
  6
CONTINUOUS
370
25
 62
     7
100
AcDbCircle
 10
233.70914
 20
669.364588
 40
9.999599
100
AcDbArc
 50
151.526672
 51
239.999886
  0
ARC
  5
182
100
AcDbEntity
  8
M1
  6
CONTINUOUS
370
25
 62
     7
100
AcDbCircle
 10
299.638217
 20
633.60998
 40
85.00032
100
AcDbArc
 50
148.472046
 51
151.528001
  0
ARC
  5
183
100
AcDbEntity
  8
M1
  6
CONTINUOUS
370
13
 62
     7
100
AcDbCircle
 10
299.638217
 20
633.60998
 40
75.000191
100
AcDbArc
 50
142.286438
 51
157.066765
  0
ARC
  5
184
100
AcDbEntity
  8
M1
  6
CONTINUOUS
370
25
 62
     7
100
AcDbCircle
 10
299.638217
 20
633.60998
 40
58.000134
100
AcDbArc
 50
164.955246
 51
195.044672
  0
CIRCLE
  5
185
100
AcDbEntity
  8
M1
  6
CONTINUOUS
370
25
 62
     7
100
AcDbCircle
 10
182.725131
 20
566.10998
 40
8.0
  0
ARC
  5
186
100
AcDbEntity
  8
M1
  6
CONTINUOUS
370
25
 62
     7
100
AcDbCircle
 10
299.638217
 20
633.60998
 40
85.000252
100
AcDbArc
 50
221.392395
 51
227.042213
  0
ARC
  5
187
100
AcDbEntity
  8
M1
  6
CONTINUOUS
370
25
 62
     7
100
AcDbCircle
 10
283.638217
 20
554.205988
 40
4.0
100
AcDbArc
 50
258.608612
 51
359.999985
  0
ARC
  5
188
100
AcDbEntity
  8
M1
  6
CONTINUOUS
370
25
 62
     7
100
AcDbCircle
 10
297.638217
 20
558.636683
 40
10.0
100
AcDbArc
 50
180.0
 51
268.469513
  0
CIRCLE
  5
189
100
AcDbEntity
  8
M1
  6
CONTINUOUS
370
25
 62
     7
100
AcDbCircle
 10
234.686191
 20
596.10998
 40
4.5
  0
CIRCLE
  5
18A
100
AcDbEntity
  8
M1
  6
CONTINUOUS
370
13
 62
     7
100
AcDbCircle
 10
234.686191
 20
596.10998
 40
5.0
  0
ARC
  5
18B
100
AcDbEntity
  8
M1
  6
CONTINUOUS
370
25
 62
     7
100
AcDbCircle
 10
255.763217
 20
589.803675
 40
4.0002
100
AcDbArc
 50
44.952091
 51
119.999928
  0
ARC
  5
18C
100
AcDbEntity
  8
M1
  6
CONTINUOUS
370
25
 62
     7
100
AcDbCircle
 10
256.195102
 20
589.375391
 40
4.000082
100
AcDbArc
 50
321.999817
 51
405.513412
  0
ARC
  5
18D
100
AcDbEntity
  8
M1
  6
CONTINUOUS
370
25
 62
     7
100
AcDbCircle
 10
267.227206
 20
580.756067
 40
3.999943
100
AcDbArc
 50
58.483566
 51
141.999802
  0
ARC
  5
18E
100
AcDbEntity
  8
M1
  6
CONTINUOUS
370
25
 62
     7
100
AcDbCircle
 10
270.0712
 20
579.114466
 40
3.999343
100
AcDbArc
 50
337.995453
 51
421.524483
  0
ARC
  5
18F
100
AcDbEntity
  8
M1
  6
CONTINUOUS
370
25
 62
     7
100
AcDbCircle
 10
283.051181
 20
573.86999
 40
3.999855
100
AcDbArc
 50
74.484665
 51
157.996681
  0
ARC
  5
190
100
AcDbEntity
  8
M1
  6
CONTINUOUS
370
25
 62
     7
100
AcDbCircle
 10
283.638217
 20
573.710077
 40
4.0
100
AcDbArc
 50
0.0
 51
75.048531
  0
ARC
  5
191
100
AcDbEntity
  8
M1
  6
CONTINUOUS
370
25
 62
     7
100
AcDbCircle
 10
238.872104
 20
580.051569
 40
4.000009
100
AcDbArc
 50
119.999931
 51
221.390213
  0
ARC
  5
192
100
AcDbEntity
  8
M1
  6
CONTINUOUS
370
25
 62
     7
100
AcDbCircle
 10
244.440097
 20
574.329584
 40
4.000149
100
AcDbArc
 50
227.041962
 51
321.999809
  0
ARC
  5
193
100
AcDbEntity
  8
M1
  6
CONTINUOUS
370
25
 62
     7
100
AcDbCircle
 10
255.472201
 20
565.710291
 40
4.000064
100
AcDbArc
 50
142.000153
 51
236.957375
  0
ARC
  5
194
100
AcDbEntity
  8
M1
  6
CONTINUOUS
370
25
 62
     7
100
AcDbCircle
 10
262.918124
 20
561.41128
 40
3.999793
100
AcDbArc
 50
243.046295
 51
338.001518
  0
ARC
  5
195
100
AcDbEntity
  8
M1
  6
CONTINUOUS
370
25
 62
     7
100
AcDbCircle
 10
275.899203
 20
556.166865
 40
4.000339
100
AcDbArc
 50
158.002167
 51
252.947021
  0
ARC
  5
196
100
AcDbEntity
  8
M1
  6
CONTINUOUS
370
25
 62
     7
100
AcDbCircle
 10
299.638217
 20
633.60998
 40
84.999992
100
AcDbArc
 50
236.957611
 51
243.042413
  0
ARC
  5
197
100
AcDbEntity
  8
M1
  6
CONTINUOUS
370
25
 62
     7
100
AcDbCircle
 10
299.638217
 20
633.60998
 40
85.000107
100
AcDbArc
 50
252.957367
 51
258.60745
  0
ARC
  5
198
100
AcDbEntity
  8
M1
  6
CONTINUOUS
370
25
 62
     7
100
AcDbCircle
 10
235.70914
 20
594.391291
 40
9.999221
100
AcDbArc
 50
211.530563
 51
300.000107
  0
ARC
  5
199
100
AcDbEntity
  8
M1
  6
CONTINUOUS
370
25
 62
     7
100
AcDbCircle
 10
299.638217
 20
633.60998
 40
84.999779
100
AcDbArc
 50
208.471939
 51
211.527914
  0
ARC
  5
19A
100
AcDbEntity
  8
M1
  6
CONTINUOUS
370
13
 62
     7
100
AcDbCircle
 10
299.638217
 20
633.60998
 40
74.999588
100
AcDbArc
 50
202.286407
 51
217.066681
  0
ARC
  5
19B
100
AcDbEntity
  8
M1
  6
CONTINUOUS
370
25
 62
     7
100
AcDbCircle
 10
299.638217
 20
633.60998
 40
57.999863
100
AcDbArc
 50
224.955322
 51
255.044491
  0
CIRCLE
  5
19C
100
AcDbEntity
  8
M1
  6
CONTINUOUS
370
25
 62
     7
100
AcDbCircle
 10
299.638217
 20
498.60998
 40
8.0
  0
ARC
  5
19D
100
AcDbEntity
  8
M1
  6
CONTINUOUS
370
25
 62
     7
100
AcDbCircle
 10
299.638217
 20
633.60998
 40
84.999939
100
AcDbArc
 50
281.392487
 51
287.042572
  0
ARC
  5
19E
100
AcDbEntity
  8
M1
  6
CONTINUOUS
370
25
 62
     7
100
AcDbCircle
 10
360.404208
 20
580.051569
 40
4.000168
100
AcDbArc
 50
318.608795
 51
420.000061
  0
ARC
  5
19F
100
AcDbEntity
  8
M1
  6
CONTINUOUS
370
25
 62
     7
100
AcDbCircle
 10
363.567172
 20
594.391291
 40
9.999969
100
AcDbArc
 50
239.999893
 51
328.472359
  0
CIRCLE
  5
1A0
100
AcDbEntity
  8
M1
  6
CONTINUOUS
370
25
 62
     7
100
AcDbCircle
 10
299.638217
 20
558.60998
 40
4.5
  0
CIRCLE
  5
1A1
100
AcDbEntity
  8
M1
  6
CONTINUOUS
370
13
 62
     7
100
AcDbCircle
 10
299.638217
 20
558.60998
 40
5.0
  0
ARC
  5
1A2
100
AcDbEntity
  8
M1
  6
CONTINUOUS
370
25
 62
     7
100
AcDbCircle
 10
315.638217
 20
573.710077
 40
3.999952
100
AcDbArc
 50
104.953156
 51
180.0
  0
ARC
  5
1A3
100
AcDbEntity
  8
M1
  6
CONTINUOUS
370
25
 62
     7
100
AcDbCircle
 10
316.225131
 20
573.86999
 40
4.000215
100
AcDbArc
 50
21.998083
 51
105.515333
  0
ARC
  5
1A4
100
AcDbEntity
  8
M1
  6
CONTINUOUS
370
25
 62
     7
100
AcDbCircle
 10
329.205112
 20
579.114466
 40
3.999686
100
AcDbArc
 50
118.47551
 51
202.004539
  0
ARC
  5
1A5
100
AcDbEntity
  8
M1
  6
CONTINUOUS
370
25
 62
     7
100
AcDbCircle
 10
332.049106
 20
580.756067
 40
4.000082
100
AcDbArc
 50
38.000195
 51
121.51643
  0
ARC
  5
1A6
100
AcDbEntity
  8
M1
  6
CONTINUOUS
370
25
 62
     7
100
AcDbCircle
 10
343.08121
 20
589.375391
 40
4.000186
100
AcDbArc
 50
134.486603
 51
218.000198
  0
ARC
  5
1A7
100
AcDbEntity
  8
M1
  6
CONTINUOUS
370
25
 62
     7
100
AcDbCircle
 10
343.513217
 20
589.803675
 40
4.000009
100
AcDbArc
 50
60.000069
 51
135.049141
  0
ARC
  5
1A8
100
AcDbEntity
  8
M1
  6
CONTINUOUS
370
25
 62
     7
100
AcDbCircle
 10
315.638217
 20
554.205988
 40
4.0
100
AcDbArc
 50
180.0
 51
281.389664
  0
ARC
  5
1A9
100
AcDbEntity
  8
M1
  6
CONTINUOUS
370
25
 62
     7
100
AcDbCircle
 10
323.377109
 20
556.166865
 40
4.000246
100
AcDbArc
 50
287.052979
 51
381.997833
  0
ARC
  5
1AA
100
AcDbEntity
  8
M1
  6
CONTINUOUS
370
25
 62
     7
100
AcDbCircle
 10
336.358188
 20
561.41128
 40
4.000226
100
AcDbArc
 50
201.998489
 51
296.953712
  0
ARC
  5
1AB
100
AcDbEntity
  8
M1
  6
CONTINUOUS
370
25
 62
     7
100
AcDbCircle
 10
343.804111
 20
565.710291
 40
3.999961
100
AcDbArc
 50
303.042633
 51
397.999855
  0
ARC
  5
1AC
100
AcDbEntity
  8
M1
  6
CONTINUOUS
370
25
 62
     7
100
AcDbCircle
 10
354.836215
 20
574.329584
 40
4.000082
100
AcDbArc
 50
218.000198
 51
312.958046
  0
ARC
  5
1AD
100
AcDbEntity
  8
M1
  6
CONTINUOUS
370
25
 62
     7
100
AcDbCircle
 10
299.638217
 20
633.60998
 40
84.999847
100
AcDbArc
 50
296.95752
 51
303.042292
  0
ARC
  5
1AE
100
AcDbEntity
  8
M1
  6
CONTINUOUS
370
25
 62
     7
100
AcDbCircle
 10
299.638217
 20
633.60998
 40
85.000053
100
AcDbArc
 50
312.957672
 51
318.607506
  0
ARC
  5
1AF
100
AcDbEntity
  8
M1
  6
CONTINUOUS
370
25
 62
     7
100
AcDbCircle
 10
301.638217
 20
558.636683
 40
10.000054
100
AcDbArc
 50
271.529785
 51
360.0
  0
ARC
  5
1B0
100
AcDbEntity
  8
M1
  6
CONTINUOUS
370
25
 62
     7
100
AcDbCircle
 10
299.638217
 20
633.60998
 40
84.999931
100
AcDbArc
 50
268.471649
 51
271.528275
  0
ARC
  5
1B1
100
AcDbEntity
  8
M1
  6
CONTINUOUS
370
13
 62
     7
100
AcDbCircle
 10
299.638217
 20
633.60998
 40
74.999992
100
AcDbArc
 50
262.286072
 51
277.066752
  0
ARC
  5
1B2
100
AcDbEntity
  8
M1
  6
CONTINUOUS
370
25
 62
     7
100
AcDbCircle
 10
299.638217
 20
633.60998
 40
58.000034
100
AcDbArc
 50
284.955383
 51
315.044519
  0
CIRCLE
  5
1B3
100
AcDbEntity
  8
M1
  6
CONTINUOUS
370
25
 62
     7
100
AcDbCircle
 10
416.552157
 20
566.10998
 40
8.0
  0
ARC
  5
1B4
100
AcDbEntity
  8
M1
  6
CONTINUOUS
370
25
 62
     7
100
AcDbCircle
 10
299.638217
 20
633.60998
 40
85.000053
100
AcDbArc
 50
341.392639
 51
347.042343
  0
ARC
  5
1B5
100
AcDbEntity
  8
M1
  6
CONTINUOUS
370
25
 62
     7
100
AcDbCircle
 10
376.404208
 20
659.455591
 40
3.999969
100
AcDbArc
 50
18.606775
 51
120.000147
  0
ARC
  5
1B6
100
AcDbEntity
  8
M1
  6
CONTINUOUS
370
25
 62
     7
100
AcDbCircle
 10
365.567172
 20
669.364588
 40
9.999969
100
AcDbArc
 50
300.000092
 51
388.473305
  0
CIRCLE
  5
1B7
100
AcDbEntity
  8
M1
  6
CONTINUOUS
370
25
 62
     7
100
AcDbCircle
 10
364.590121
 20
596.10998
 40
4.5
  0
CIRCLE
  5
1B8
100
AcDbEntity
  8
M1
  6
CONTINUOUS
370
13
 62
     7
100
AcDbCircle
 10
364.590121
 20
596.10998
 40
5.0
  0
ARC
  5
1B9
100
AcDbEntity
  8
M1
  6
CONTINUOUS
370
25
 62
     7
100
AcDbCircle
 10
359.513217
 20
617.516474
 40
4.00014
100
AcDbArc
 50
164.955704
 51
239.999855
  0
ARC
  5
1BA
100
AcDbEntity
  8
M1
  6
CONTINUOUS
370
25
 62
     7
100
AcDbCircle
 10
359.668124
 20
618.104578
 40
3.999971
100
AcDbArc
 50
81.995392
 51
165.518044
  0
ARC
  5
1BB
100
AcDbEntity
  8
M1
  6
CONTINUOUS
370
25
 62
     7
100
AcDbCircle
 10
361.616122
 20
631.968378
 40
3.999327
100
AcDbArc
 50
178.482712
 51
262.011154
  0
ARC
  5
1BC
100
AcDbEntity
  8
M1
  6
CONTINUOUS
370
25
 62
     7
100
AcDbCircle
 10
361.616122
 20
635.251673
 40
3.999909
100
AcDbArc
 50
97.988838
 51
181.517281
  0
ARC
  5
1BD
100
AcDbEntity
  8
M1
  6
CONTINUOUS
370
25
 62
     7
100
AcDbCircle
 10
359.668124
 20
649.115473
 40
4.000042
100
AcDbArc
 50
194.483231
 51
278.004433
  0
ARC
  5
1BE
100
AcDbEntity
  8
M1
  6
CONTINUOUS
370
25
 62
     7
100
AcDbCircle
 10
359.513217
 20
649.703577
 40
4.000009
100
AcDbArc
 50
119.999931
 51
195.044304
  0
ARC
  5
1BF
100
AcDbEntity
  8
M1
  6
CONTINUOUS
370
25
 62
     7
100
AcDbCircle
 10
376.404208
 20
607.764368
 40
3.999982
100
AcDbArc
 50
239.999847
 51
341.393219
  0
ARC
  5
1C0
100
AcDbEntity
  8
M1
  6
CONTINUOUS
370
25
 62
     7
100
AcDbCircle
 10
378.576205
 20
615.447291
 40
3.999807
100
AcDbArc
 50
347.04187
 51
442.011147
  0
ARC
  5
1C1
100
AcDbEntity
  8
M1
  6
CONTINUOUS
370
25
 62
     7
100
AcDbCircle
 10
380.524203
 20
629.311091
 40
4.000092
100
AcDbArc
 50
261.995636
 51
356.95578
  0
ARC
  5
1C2
100
AcDbEntity
  8
M1
  6
CONTINUOUS
370
25
 62
     7
100
AcDbCircle
 10
380.524203
 20
637.908991
 40
3.999534
100
AcDbArc
 50
3.042475
 51
98.00461
  0
ARC
  5
1C3
100
AcDbEntity
  8
M1
  6
CONTINUOUS
370
25
 62
     7
100
AcDbCircle
 10
378.576205
 20
651.772791
 40
3.999939
100
AcDbArc
 50
277.98877
 51
372.95768
  0
ARC
  5
1C4
100
AcDbEntity
  8
M1
  6
CONTINUOUS
370
25
 62
     7
100
AcDbCircle
 10
299.638217
 20
633.60998
 40
84.999687
100
AcDbArc
 50
356.957642
 51
363.042357
  0
ARC
  5
1C5
100
AcDbEntity
  8
M1
  6
CONTINUOUS
370
25
 62
     7
100
AcDbCircle
 10
299.638217
 20
633.60998
 40
85.000381
100
AcDbArc
 50
12.957644
 51
18.607347
  0
ARC
  5
1C6
100
AcDbEntity
  8
M1
  6
CONTINUOUS
370
25
 62
     7
100
AcDbCircle
 10
365.567172
 20
597.855372
 40
9.99954
100
AcDbArc
 50
331.527283
 51
420.000145
  0
ARC
  5
1C7
100
AcDbEntity
  8
M1
  6
CONTINUOUS
370
25
 62
     7
100
AcDbCircle
 10
299.638217
 20
633.60998
 40
85.000214
100
AcDbArc
 50
328.471985
 51
331.527944
  0
ARC
  5
1C8
100
AcDbEntity
  8
M1
  6
CONTINUOUS
370
13
 62
     7
100
AcDbCircle
 10
299.638217
 20
633.60998
 40
75.000038
100
AcDbArc
 50
322.286438
 51
337.06673
  0
ARC
  5
1C9
100
AcDbEntity
  8
M1
  6
CONTINUOUS
370
25
 62
     7
100
AcDbCircle
 10
299.638217
 20
633.60998
 40
57.999992
100
AcDbArc
 50
344.955292
 51
375.044781
  0
CIRCLE
  5
1CA
100
AcDbEntity
  8
M1
  6
CONTINUOUS
370
25
 62
     7
100
AcDbCircle
 10
416.552157
 20
701.10998
 40
8.0
  0
ARC
  5
1CB
100
AcDbEntity
  8
M1
  6
CONTINUOUS
370
25
 62
     7
100
AcDbCircle
 10
299.638217
 20
633.60998
 40
85.000221
100
AcDbArc
 50
41.392498
 51
47.042318
  0
ARC
  5
1CC
100
AcDbEntity
  8
M1
  6
CONTINUOUS
370
25
 62
     7
100
AcDbCircle
 10
315.638217
 20
713.014063
 40
3.999886
100
AcDbArc
 50
78.610077
 51
180.0
  0
ARC
  5
1CD
100
AcDbEntity
  8
M1
  6
CONTINUOUS
370
25
 62
     7
100
AcDbCircle
 10
301.638217
 20
708.583368
 40
10.0
100
AcDbArc
 50
0.0
 51
88.4702
  0
CIRCLE
  5
1CE
100
AcDbEntity
  8
M1
  6
CONTINUOUS
370
25
 62
     7
100
AcDbCircle
 10
364.590121
 20
671.10998
 40
4.5
  0
CIRCLE
  5
1CF
100
AcDbEntity
  8
M1
  6
CONTINUOUS
370
13
 62
     7
100
AcDbCircle
 10
364.590121
 20
671.10998
 40
5.0
  0
ARC
  5
1D0
100
AcDbEntity
  8
M1
  6
CONTINUOUS
370
25
 62
     7
100
AcDbCircle
 10
343.513217
 20
677.416376
 40
4.000286
100
AcDbArc
 50
224.950851
 51
299.999924
  0
ARC
  5
1D1
100
AcDbEntity
  8
M1
  6
CONTINUOUS
370
25
 62
     7
100
AcDbCircle
 10
343.08121
 20
677.84469
 40
4.000007
100
AcDbArc
 50
142.001175
 51
225.514618
  0
ARC
  5
1D2
100
AcDbEntity
  8
M1
  6
CONTINUOUS
370
25
 62
     7
100
AcDbCircle
 10
332.049106
 20
686.463892
 40
3.999943
100
AcDbArc
 50
238.483566
 51
322.000839
  0
ARC
  5
1D3
100
AcDbEntity
  8
M1
  6
CONTINUOUS
370
25
 62
     7
100
AcDbCircle
 10
329.205112
 20
688.105585
 40
3.999309
100
AcDbArc
 50
157.996674
 51
241.52449
  0
ARC
  5
1D4
100
AcDbEntity
  8
M1
  6
CONTINUOUS
370
25
 62
     7
100
AcDbCircle
 10
316.225131
 20
693.350092
 40
3.999972
100
AcDbArc
 50
254.485138
 51
338.001518
  0
ARC
  5
1D5
100
AcDbEntity
  8
M1
  6
CONTINUOUS
370
25
 62
     7
100
AcDbCircle
 10
315.638217
 20
693.509882
 40
4.0
100
AcDbArc
 50
180.0
 51
255.046844
  0
ARC
  5
1D6
100
AcDbEntity
  8
M1
  6
CONTINUOUS
370
25
 62
     7
100
AcDbCircle
 10
360.404208
 20
687.16839
 40
4.000009
100
AcDbArc
 50
299.999939
 51
401.391205
  0
ARC
  5
1D7
100
AcDbEntity
  8
M1
  6
CONTINUOUS
370
25
 62
     7
100
AcDbCircle
 10
354.836215
 20
692.890467
 40
4.00006
100
AcDbArc
 50
47.040764
 51
142.000839
  0
ARC
  5
1D8
100
AcDbEntity
  8
M1
  6
CONTINUOUS
370
25
 62
     7
100
AcDbCircle
 10
343.804111
 20
701.509668
 40
4.000007
100
AcDbArc
 50
322.00119
 51
416.958092
  0
ARC
  5
1D9
100
AcDbEntity
  8
M1
  6
CONTINUOUS
370
25
 62
     7
100
AcDbCircle
 10
336.358188
 20
705.80868
 40
3.999875
100
AcDbArc
 50
63.046883
 51
158.001511
  0
ARC
  5
1DA
100
AcDbEntity
  8
M1
  6
CONTINUOUS
370
25
 62
     7
100
AcDbCircle
 10
323.377109
 20
711.053187
 40
4.000339
100
AcDbArc
 50
338.002167
 51
432.946632
  0
ARC
  5
1DB
100
AcDbEntity
  8
M1
  6
CONTINUOUS
370
25
 62
     7
100
AcDbCircle
 10
299.638217
 20
633.60998
 40
85.0
100
AcDbArc
 50
56.95771
 51
63.042511
  0
ARC
  5
1DC
100
AcDbEntity
  8
M1
  6
CONTINUOUS
370
25
 62
     7
100
AcDbCircle
 10
299.638217
 20
633.60998
 40
85.000069
100
AcDbArc
 50
72.957443
 51
78.607541
  0
ARC
  5
1DD
100
AcDbEntity
  8
M1
  6
CONTINUOUS
370
25
 62
     7
100
AcDbCircle
 10
363.567172
 20
672.828791
 40
10.000037
100
AcDbArc
 50
31.527489
 51
120.000191
  0
ARC
  5
1DE
100
AcDbEntity
  8
M1
  6
CONTINUOUS
370
25
 62
     7
100
AcDbCircle
 10
299.638217
 20
633.60998
 40
84.999725
100
AcDbArc
 50
28.472044
 51
31.528003
  0
ARC
  5
1DF
100
AcDbEntity
  8
M1
  6
CONTINUOUS
370
13
 62
     7
100
AcDbCircle
 10
299.638217
 20
633.60998
 40
75.000412
100
AcDbArc
 50
22.286228
 51
37.066797
  0
ARC
  5
1E0
100
AcDbEntity
  8
M1
  6
CONTINUOUS
370
25
 62
     7
100
AcDbCircle
 10
299.638217
 20
633.60998
 40
57.999844
100
AcDbArc
 50
44.955467
 51
75.044603
  0
ARC
  5
1E1
100
AcDbEntity
  8
M1
  6
CONTINUOUS
370
25
 62
     7
100
AcDbCircle
 10
299.638217
 20
633.60998
 40
121.000046
100
AcDbArc
 50
54.408112
 51
65.59201
  0
ARC
  5
1E2
100
AcDbEntity
  8
M1
  6
CONTINUOUS
370
25
 62
     7
100
AcDbCircle
 10
686.426547
 20
633.60998
 40
5.0
100
AcDbArc
 50
270.0
 51
450.0
  0
ARC
  5
1E3
100
AcDbEntity
  8
M1
  6
CONTINUOUS
370
25
 62
     7
100
AcDbCircle
 10
746.764133
 20
775.728754
 40
4.237557
100
AcDbArc
 50
149.999115
 51
209.998741
  0
ARC
  5
1E4
100
AcDbEntity
  8
M1
  6
CONTINUOUS
370
25
 62
     7
100
AcDbCircle
 10
764.827975
 20
768.60998
 40
22.301373
100
AcDbArc
 50
167.044083
 51
192.955933
  0
ARC
  5
1E5
100
AcDbEntity
  8
M1
  6
CONTINUOUS
370
25
 62
     7
100
AcDbCircle
 10
746.764133
 20
761.491175
 40
4.237542
100
AcDbArc
 50
149.999466
 51
210.000519
  0
ARC
  5
1E6
100
AcDbEntity
  8
M1
  6
CONTINUOUS
370
25
 62
     7
100
AcDbCircle
 10
746.764133
 20
693.991175
 40
4.237542
100
AcDbArc
 50
149.999466
 51
210.000519
  0
ARC
  5
1E7
100
AcDbEntity
  8
M1
  6
CONTINUOUS
370
25
 62
     7
100
AcDbCircle
 10
764.827975
 20
701.10998
 40
22.301373
100
AcDbArc
 50
167.044083
 51
192.955933
  0
ARC
  5
1E8
100
AcDbEntity
  8
M1
  6
CONTINUOUS
370
25
 62
     7
100
AcDbCircle
 10
746.764133
 20
708.228785
 40
4.237542
100
AcDbArc
 50
149.999466
 51
210.000519
  0
ARC
  5
1E9
100
AcDbEntity
  8
M1
  6
CONTINUOUS
370
25
 62
     7
100
AcDbCircle
 10
746.764133
 20
558.991175
 40
4.237542
100
AcDbArc
 50
149.999466
 51
210.000519
  0
ARC
  5
1EA
100
AcDbEntity
  8
M1
  6
CONTINUOUS
370
25
 62
     7
100
AcDbCircle
 10
764.827975
 20
566.10998
 40
22.301373
100
AcDbArc
 50
167.044083
 51
192.955933
  0
ARC
  5
1EB
100
AcDbEntity
  8
M1
  6
CONTINUOUS
370
25
 62
     7
100
AcDbCircle
 10
746.764133
 20
573.228785
 40
4.237542
100
AcDbArc
 50
149.999466
 51
210.000519
  0
ARC
  5
1EC
100
AcDbEntity
  8
M1
  6
CONTINUOUS
370
25
 62
     7
100
AcDbCircle
 10
746.764133
 20
505.728785
 40
4.237535
100
AcDbArc
 50
149.999649
 51
210.000526
  0
ARC
  5
1ED
100
AcDbEntity
  8
M1
  6
CONTINUOUS
370
25
 62
     7
100
AcDbCircle
 10
764.827975
 20
498.60998
 40
22.301373
100
AcDbArc
 50
167.044083
 51
192.955933
  0
ARC
  5
1EE
100
AcDbEntity
  8
M1
  6
CONTINUOUS
370
25
 62
     7
100
AcDbCircle
 10
746.764133
 20
491.491175
 40
4.237542
100
AcDbArc
 50
149.999466
 51
210.000343
  0
ARC
  5
1EF
100
AcDbEntity
  8
M1
  6
CONTINUOUS
370
25
 62
     7
100
AcDbCircle
 10
888.088962
 20
491.491175
 40
4.23764
100
AcDbArc
 50
330.000488
 51
389.999714
  0
ARC
  5
1F0
100
AcDbEntity
  8
M1
  6
CONTINUOUS
370
25
 62
     7
100
AcDbCircle
 10
870.025241
 20
498.60998
 40
22.301373
100
AcDbArc
 50
347.044067
 51
372.955917
  0
ARC
  5
1F1
100
AcDbEntity
  8
M1
  6
CONTINUOUS
370
25
 62
     7
100
AcDbCircle
 10
888.088962
 20
505.728785
 40
4.237648
100
AcDbArc
 50
330.000305
 51
389.999531
  0
ARC
  5
1F2
100
AcDbEntity
  8
M1
  6
CONTINUOUS
370
25
 62
     7
100
AcDbCircle
 10
888.088962
 20
573.228785
 40
4.237648
100
AcDbArc
 50
330.000305
 51
389.99971
  0
ARC
  5
1F3
100
AcDbEntity
  8
M1
  6
CONTINUOUS
370
25
 62
     7
100
AcDbCircle
 10
870.025241
 20
566.10998
 40
22.301373
100
AcDbArc
 50
347.044067
 51
372.955917
  0
ARC
  5
1F4
100
AcDbEntity
  8
M1
  6
CONTINUOUS
370
25
 62
     7
100
AcDbCircle
 10
888.088962
 20
558.991175
 40
4.237648
100
AcDbArc
 50
330.000305
 51
389.99971
  0
ARC
  5
1F5
100
AcDbEntity
  8
M1
  6
CONTINUOUS
370
25
 62
     7
100
AcDbCircle
 10
888.088962
 20
708.228785
 40
4.237648
100
AcDbArc
 50
330.000305
 51
389.99971
  0
ARC
  5
1F6
100
AcDbEntity
  8
M1
  6
CONTINUOUS
370
25
 62
     7
100
AcDbCircle
 10
870.025241
 20
701.10998
 40
22.301373
100
AcDbArc
 50
347.044067
 51
372.955917
  0
ARC
  5
1F7
100
AcDbEntity
  8
M1
  6
CONTINUOUS
370
25
 62
     7
100
AcDbCircle
 10
888.088962
 20
693.991175
 40
4.237648
100
AcDbArc
 50
330.000305
 51
389.99971
  0
ARC
  5
1F8
100
AcDbEntity
  8
M1
  6
CONTINUOUS
370
25
 62
     7
100
AcDbCircle
 10
888.088962
 20
761.491175
 40
4.237648
100
AcDbArc
 50
330.000305
 51
389.99971
  0
ARC
  5
1F9
100
AcDbEntity
  8
M1
  6
CONTINUOUS
370
25
 62
     7
100
AcDbCircle
 10
870.025241
 20
768.60998
 40
22.301373
100
AcDbArc
 50
347.044067
 51
372.956223
  0
ARC
  5
1FA
100
AcDbEntity
  8
M1
  6
CONTINUOUS
370
25
 62
     7
100
AcDbCircle
 10
888.088962
 20
775.728754
 40
4.237572
100
AcDbArc
 50
330.002075
 51
390.00005
  0
ARC
  5
1FB
100
AcDbEntity
  8
M1
  6
CONTINUOUS
370
25
 62
     7
100
AcDbCircle
 10
948.426547
 20
633.60998
 40
5.0
100
AcDbArc
 50
90.0
 51
270.0
  0
ARC
  5
1FC
100
AcDbEntity
  8
M1
  6
CONTINUOUS
370
25
 62
     7
100
AcDbCircle
 10
1387.640552
 20
633.60998
 40
58.000008
100
AcDbArc
 50
104.955292
 51
135.044699
  0
ARC
  5
1FD
100
AcDbEntity
  8
M1
  6
CONTINUOUS
370
13
 62
     7
100
AcDbCircle
 10
1387.640552
 20
633.60998
 40
74.999969
100
AcDbArc
 50
142.933212
 51
157.713646
  0
ARC
  5
1FE
100
AcDbEntity
  8
M1
  6
CONTINUOUS
370
25
 62
     7
100
AcDbCircle
 10
1387.640552
 20
633.60998
 40
85.000046
100
AcDbArc
 50
148.471924
 51
151.528046
  0
ARC
  5
1FF
100
AcDbEntity
  8
M1
  6
CONTINUOUS
370
25
 62
     7
100
AcDbCircle
 10
1323.711642
 20
672.828791
 40
9.999942
100
AcDbArc
 50
59.999805
 51
148.47205
  0
ARC
  5
200
100
AcDbEntity
  8
M1
  6
CONTINUOUS
370
25
 62
     7
100
AcDbCircle
 10
1387.640552
 20
633.60998
 40
85.000084
100
AcDbArc
 50
101.392647
 51
107.042352
  0
ARC
  5
201
100
AcDbEntity
  8
M1
  6
CONTINUOUS
370
25
 62
     7
100
AcDbCircle
 10
1387.640552
 20
633.60998
 40
85.000076
100
AcDbArc
 50
116.957695
 51
123.042337
  0
ARC
  5
202
100
AcDbEntity
  8
M1
  6
CONTINUOUS
370
25
 62
     7
100
AcDbCircle
 10
1363.901156
 20
711.053187
 40
3.999953
100
AcDbArc
 50
107.043755
 51
202.000046
  0
ARC
  5
203
100
AcDbEntity
  8
M1
  6
CONTINUOUS
370
25
 62
     7
100
AcDbCircle
 10
1350.920657
 20
705.80868
 40
4.000056
100
AcDbArc
 50
21.99947
 51
116.957012
  0
ARC
  5
204
100
AcDbEntity
  8
M1
  6
CONTINUOUS
370
25
 62
     7
100
AcDbCircle
 10
1343.474551
 20
701.509668
 40
4.000071
100
AcDbArc
 50
123.042648
 51
217.998817
  0
ARC
  5
205
100
AcDbEntity
  8
M1
  6
CONTINUOUS
370
25
 62
     7
100
AcDbCircle
 10
1332.442447
 20
692.890467
 40
4.000038
100
AcDbArc
 50
37.999027
 51
132.958591
  0
ARC
  5
206
100
AcDbEntity
  8
M1
  6
CONTINUOUS
370
25
 62
     7
100
AcDbCircle
 10
1326.874667
 20
687.16839
 40
3.999962
100
AcDbArc
 50
138.606201
 51
239.999413
  0
ARC
  5
207
100
AcDbEntity
  8
M1
  6
CONTINUOUS
370
25
 62
     7
100
AcDbCircle
 10
1371.640552
 20
693.509882
 40
3.999979
100
AcDbArc
 50
284.95462
 51
359.999985
  0
ARC
  5
208
100
AcDbEntity
  8
M1
  6
CONTINUOUS
370
25
 62
     7
100
AcDbCircle
 10
1371.05376
 20
693.350092
 40
4.000056
100
AcDbArc
 50
201.999466
 51
285.516968
  0
ARC
  5
209
100
AcDbEntity
  8
M1
  6
CONTINUOUS
370
25
 62
     7
100
AcDbCircle
 10
1358.073062
 20
688.105585
 40
3.999977
100
AcDbArc
 50
298.483185
 51
381.999634
  0
ARC
  5
20A
100
AcDbEntity
  8
M1
  6
CONTINUOUS
370
25
 62
     7
100
AcDbCircle
 10
1355.229663
 20
686.463892
 40
4.000026
100
AcDbArc
 50
217.999161
 51
301.518295
  0
ARC
  5
20B
100
AcDbEntity
  8
M1
  6
CONTINUOUS
370
25
 62
     7
100
AcDbCircle
 10
1344.197558
 20
677.84469
 40
3.999995
100
AcDbArc
 50
314.481323
 51
397.999756
  0
ARC
  5
20C
100
AcDbEntity
  8
M1
  6
CONTINUOUS
370
25
 62
     7
100
AcDbCircle
 10
1343.76575
 20
677.416376
 40
4.000009
100
AcDbArc
 50
240.000076
 51
315.045601
  0
CIRCLE
  5
20D
100
AcDbEntity
  8
M1
  6
CONTINUOUS
370
13
 62
     7
100
AcDbCircle
 10
1322.688663
 20
671.10998
 40
5.0
  0
CIRCLE
  5
20E
100
AcDbEntity
  8
M1
  6
CONTINUOUS
370
25
 62
     7
100
AcDbCircle
 10
1322.688663
 20
671.10998
 40
4.5
  0
ARC
  5
20F
100
AcDbEntity
  8
M1
  6
CONTINUOUS
370
25
 62
     7
100
AcDbCircle
 10
1385.640552
 20
708.583368
 40
9.999956
100
AcDbArc
 50
91.528229
 51
180.0
  0
ARC
  5
210
100
AcDbEntity
  8
M1
  6
CONTINUOUS
370
25
 62
     7
100
AcDbCircle
 10
1371.640552
 20
713.014063
 40
4.0
100
AcDbArc
 50
0.0
 51
101.393776
  0
ARC
  5
211
100
AcDbEntity
  8
M1
  6
CONTINUOUS
370
25
 62
     7
100
AcDbCircle
 10
1387.640552
 20
633.60998
 40
85.000061
100
AcDbArc
 50
132.957703
 51
138.607385
  0
CIRCLE
  5
212
100
AcDbEntity
  8
M1
  6
CONTINUOUS
370
25
 62
     7
100
AcDbCircle
 10
1270.727145
 20
701.10998
 40
8.0
  0
ARC
  5
213
100
AcDbEntity
  8
M1
  6
CONTINUOUS
370
25
 62
     7
100
AcDbCircle
 10
1387.640552
 20
633.60998
 40
58.000061
100
AcDbArc
 50
164.955231
 51
195.044695
  0
ARC
  5
214
100
AcDbEntity
  8
M1
  6
CONTINUOUS
370
13
 62
     7
100
AcDbCircle
 10
1387.640552
 20
633.60998
 40
75.000015
100
AcDbArc
 50
202.933182
 51
217.713592
  0
ARC
  5
215
100
AcDbEntity
  8
M1
  6
CONTINUOUS
370
25
 62
     7
100
AcDbCircle
 10
1387.640552
 20
633.60998
 40
85.000031
100
AcDbArc
 50
208.471832
 51
211.528014
  0
ARC
  5
216
100
AcDbEntity
  8
M1
  6
CONTINUOUS
370
25
 62
     7
100
AcDbCircle
 10
1321.711642
 20
597.855372
 40
10.000048
100
AcDbArc
 50
119.99984
 51
208.471451
  0
ARC
  5
217
100
AcDbEntity
  8
M1
  6
CONTINUOUS
370
25
 62
     7
100
AcDbCircle
 10
1387.640552
 20
633.60998
 40
84.999977
100
AcDbArc
 50
161.392639
 51
167.042367
  0
ARC
  5
218
100
AcDbEntity
  8
M1
  6
CONTINUOUS
370
25
 62
     7
100
AcDbCircle
 10
1387.640552
 20
633.60998
 40
85.000092
100
AcDbArc
 50
176.957657
 51
183.042282
  0
ARC
  5
219
100
AcDbEntity
  8
M1
  6
CONTINUOUS
370
25
 62
     7
100
AcDbCircle
 10
1308.703158
 20
651.772791
 40
4.000039
100
AcDbArc
 50
167.043091
 51
262.001442
  0
ARC
  5
21A
100
AcDbEntity
  8
M1
  6
CONTINUOUS
370
25
 62
     7
100
AcDbCircle
 10
1306.754642
 20
637.908991
 40
3.999928
100
AcDbArc
 50
81.999725
 51
176.957832
  0
ARC
  5
21B
100
AcDbEntity
  8
M1
  6
CONTINUOUS
370
25
 62
     7
100
AcDbCircle
 10
1306.754642
 20
629.311091
 40
4.000023
100
AcDbArc
 50
183.042542
 51
278.000038
  0
ARC
  5
21C
100
AcDbEntity
  8
M1
  6
CONTINUOUS
370
25
 62
     7
100
AcDbCircle
 10
1308.703158
 20
615.447291
 40
4.000006
100
AcDbArc
 50
97.998795
 51
192.957626
  0
ARC
  5
21D
100
AcDbEntity
  8
M1
  6
CONTINUOUS
370
25
 62
     7
100
AcDbCircle
 10
1310.874667
 20
607.764368
 40
3.999998
100
AcDbArc
 50
198.606628
 51
300.000145
  0
ARC
  5
21E
100
AcDbEntity
  8
M1
  6
CONTINUOUS
370
25
 62
     7
100
AcDbCircle
 10
1327.76575
 20
649.703577
 40
4.000022
100
AcDbArc
 50
344.955261
 51
420.000084
  0
ARC
  5
21F
100
AcDbEntity
  8
M1
  6
CONTINUOUS
370
25
 62
     7
100
AcDbCircle
 10
1327.61066
 20
649.115473
 40
4.000019
100
AcDbArc
 50
261.999908
 51
345.516342
  0
ARC
  5
220
100
AcDbEntity
  8
M1
  6
CONTINUOUS
370
25
 62
     7
100
AcDbCircle
 10
1325.662265
 20
635.251673
 40
4.00009
100
AcDbArc
 50
358.483002
 51
442.001869
  0
ARC
  5
221
100
AcDbEntity
  8
M1
  6
CONTINUOUS
370
25
 62
     7
100
AcDbCircle
 10
1325.662265
 20
631.968378
 40
4.000002
100
AcDbArc
 50
277.998352
 51
361.517014
  0
ARC
  5
222
100
AcDbEntity
  8
M1
  6
CONTINUOUS
370
25
 62
     7
100
AcDbCircle
 10
1327.61066
 20
618.104578
 40
3.99999
100
AcDbArc
 50
14.482063
 51
98.000099
  0
ARC
  5
223
100
AcDbEntity
  8
M1
  6
CONTINUOUS
370
25
 62
     7
100
AcDbCircle
 10
1327.76575
 20
617.516474
 40
3.999982
100
AcDbArc
 50
300.000153
 51
375.044754
  0
CIRCLE
  5
224
100
AcDbEntity
  8
M1
  6
CONTINUOUS
370
13
 62
     7
100
AcDbCircle
 10
1322.688663
 20
596.10998
 40
5.0
  0
CIRCLE
  5
225
100
AcDbEntity
  8
M1
  6
CONTINUOUS
370
25
 62
     7
100
AcDbCircle
 10
1322.688663
 20
596.10998
 40
4.5
  0
ARC
  5
226
100
AcDbEntity
  8
M1
  6
CONTINUOUS
370
25
 62
     7
100
AcDbCircle
 10
1321.711642
 20
669.364588
 40
10.000001
100
AcDbArc
 50
151.527924
 51
239.999886
  0
ARC
  5
227
100
AcDbEntity
  8
M1
  6
CONTINUOUS
370
25
 62
     7
100
AcDbCircle
 10
1310.874667
 20
659.455591
 40
3.999982
100
AcDbArc
 50
59.999851
 51
161.393368
  0
ARC
  5
228
100
AcDbEntity
  8
M1
  6
CONTINUOUS
370
25
 62
     7
100
AcDbCircle
 10
1387.640552
 20
633.60998
 40
84.999992
100
AcDbArc
 50
192.957581
 51
198.607309
  0
CIRCLE
  5
229
100
AcDbEntity
  8
M1
  6
CONTINUOUS
370
25
 62
     7
100
AcDbCircle
 10
1270.727145
 20
566.10998
 40
8.0
  0
ARC
  5
22A
100
AcDbEntity
  8
M1
  6
CONTINUOUS
370
25
 62
     7
100
AcDbCircle
 10
1387.640552
 20
633.60998
 40
57.99995
100
AcDbArc
 50
224.955231
 51
255.04468
  0
ARC
  5
22B
100
AcDbEntity
  8
M1
  6
CONTINUOUS
370
13
 62
     7
100
AcDbCircle
 10
1387.640552
 20
633.60998
 40
74.999954
100
AcDbArc
 50
262.933197
 51
277.713531
  0
ARC
  5
22C
100
AcDbEntity
  8
M1
  6
CONTINUOUS
370
25
 62
     7
100
AcDbCircle
 10
1387.640552
 20
633.60998
 40
84.999924
100
AcDbArc
 50
268.471832
 51
271.528017
  0
ARC
  5
22D
100
AcDbEntity
  8
M1
  6
CONTINUOUS
370
25
 62
     7
100
AcDbCircle
 10
1385.640552
 20
558.636683
 40
10.0
100
AcDbArc
 50
180.0
 51
268.471786
  0
ARC
  5
22E
100
AcDbEntity
  8
M1
  6
CONTINUOUS
370
25
 62
     7
100
AcDbCircle
 10
1387.640552
 20
633.60998
 40
85.000038
100
AcDbArc
 50
221.392532
 51
227.042259
  0
ARC
  5
22F
100
AcDbEntity
  8
M1
  6
CONTINUOUS
370
25
 62
     7
100
AcDbCircle
 10
1387.640552
 20
633.60998
 40
85.000015
100
AcDbArc
 50
236.957581
 51
243.04228
  0
ARC
  5
230
100
AcDbEntity
  8
M1
  6
CONTINUOUS
370
25
 62
     7
100
AcDbCircle
 10
1332.442447
 20
574.329584
 40
4.000107
100
AcDbArc
 50
227.042603
 51
322.000038
  0
ARC
  5
231
100
AcDbEntity
  8
M1
  6
CONTINUOUS
370
25
 62
     7
100
AcDbCircle
 10
1343.474551
 20
565.710291
 40
4.000064
100
AcDbArc
 50
142.000153
 51
236.957352
  0
ARC
  5
232
100
AcDbEntity
  8
M1
  6
CONTINUOUS
370
25
 62
     7
100
AcDbCircle
 10
1350.920657
 20
561.41128
 40
3.999931
100
AcDbArc
 50
243.042389
 51
338.000526
  0
ARC
  5
233
100
AcDbEntity
  8
M1
  6
CONTINUOUS
370
25
 62
     7
100
AcDbCircle
 10
1363.901156
 20
556.166865
 40
3.999957
100
AcDbArc
 50
157.999954
 51
252.956627
  0
ARC
  5
234
100
AcDbEntity
  8
M1
  6
CONTINUOUS
370
25
 62
     7
100
AcDbCircle
 10
1371.640552
 20
554.205988
 40
4.00003
100
AcDbArc
 50
258.606476
 51
359.999992
  0
ARC
  5
235
100
AcDbEntity
  8
M1
  6
CONTINUOUS
370
25
 62
     7
100
AcDbCircle
 10
1343.76575
 20
589.803675
 40
4.000038
100
AcDbArc
 50
44.954407
 51
119.999931
  0
ARC
  5
236
100
AcDbEntity
  8
M1
  6
CONTINUOUS
370
25
 62
     7
100
AcDbCircle
 10
1344.197558
 20
589.375391
 40
4.000082
100
AcDbArc
 50
321.999817
 51
405.517448
  0
ARC
  5
237
100
AcDbEntity
  8
M1
  6
CONTINUOUS
370
25
 62
     7
100
AcDbCircle
 10
1355.229663
 20
580.756067
 40
4.000022
100
AcDbArc
 50
58.481705
 51
142.000839
  0
ARC
  5
238
100
AcDbEntity
  8
M1
  6
CONTINUOUS
370
25
 62
     7
100
AcDbCircle
 10
1358.073062
 20
579.114466
 40
3.99998
100
AcDbArc
 50
337.999146
 51
421.516808
  0
ARC
  5
239
100
AcDbEntity
  8
M1
  6
CONTINUOUS
370
25
 62
     7
100
AcDbCircle
 10
1371.05376
 20
573.86999
 40
3.999984
100
AcDbArc
 50
74.48291
 51
158.000443
  0
ARC
  5
23A
100
AcDbEntity
  8
M1
  6
CONTINUOUS
370
25
 62
     7
100
AcDbCircle
 10
1371.640552
 20
573.710077
 40
4.0
100
AcDbArc
 50
0.0
 51
75.045364
  0
CIRCLE
  5
23B
100
AcDbEntity
  8
M1
  6
CONTINUOUS
370
13
 62
     7
100
AcDbCircle
 10
1387.640552
 20
558.60998
 40
5.0
  0
CIRCLE
  5
23C
100
AcDbEntity
  8
M1
  6
CONTINUOUS
370
25
 62
     7
100
AcDbCircle
 10
1387.640552
 20
558.60998
 40
4.5
  0
ARC
  5
23D
100
AcDbEntity
  8
M1
  6
CONTINUOUS
370
25
 62
     7
100
AcDbCircle
 10
1323.711642
 20
594.391291
 40
9.999924
100
AcDbArc
 50
211.528091
 51
300.000099
  0
ARC
  5
23E
100
AcDbEntity
  8
M1
  6
CONTINUOUS
370
25
 62
     7
100
AcDbCircle
 10
1326.874667
 20
580.051569
 40
4.000009
100
AcDbArc
 50
119.999931
 51
221.392647
  0
ARC
  5
23F
100
AcDbEntity
  8
M1
  6
CONTINUOUS
370
25
 62
     7
100
AcDbCircle
 10
1387.640552
 20
633.60998
 40
85.000008
100
AcDbArc
 50
252.957565
 51
258.607341
  0
CIRCLE
  5
240
100
AcDbEntity
  8
M1
  6
CONTINUOUS
370
25
 62
     7
100
AcDbCircle
 10
1387.640552
 20
498.60998
 40
8.0
  0
ARC
  5
241
100
AcDbEntity
  8
M1
  6
CONTINUOUS
370
25
 62
     7
100
AcDbCircle
 10
1387.640552
 20
633.60998
 40
58.000011
100
AcDbArc
 50
284.955322
 51
315.044725
  0
ARC
  5
242
100
AcDbEntity
  8
M1
  6
CONTINUOUS
370
13
 62
     7
100
AcDbCircle
 10
1387.640552
 20
633.60998
 40
74.999985
100
AcDbArc
 50
322.933228
 51
337.713623
  0
ARC
  5
243
100
AcDbEntity
  8
M1
  6
CONTINUOUS
370
25
 62
     7
100
AcDbCircle
 10
1387.640552
 20
633.60998
 40
84.999977
100
AcDbArc
 50
328.471893
 51
331.528048
  0
ARC
  5
244
100
AcDbEntity
  8
M1
  6
CONTINUOUS
370
25
 62
     7
100
AcDbCircle
 10
1451.569354
 20
594.391291
 40
9.999969
100
AcDbArc
 50
239.999893
 51
328.47155
  0
ARC
  5
245
100
AcDbEntity
  8
M1
  6
CONTINUOUS
370
25
 62
     7
100
AcDbCircle
 10
1387.640552
 20
633.60998
 40
84.999954
100
AcDbArc
 50
281.392548
 51
287.042326
  0
ARC
  5
246
100
AcDbEntity
  8
M1
  6
CONTINUOUS
370
25
 62
     7
100
AcDbCircle
 10
1387.640552
 20
633.60998
 40
84.999954
100
AcDbArc
 50
296.957672
 51
303.042289
  0
ARC
  5
247
100
AcDbEntity
  8
M1
  6
CONTINUOUS
370
25
 62
     7
100
AcDbCircle
 10
1411.379764
 20
556.166865
 40
4.000041
100
AcDbArc
 50
287.043365
 51
381.99955
  0
ARC
  5
248
100
AcDbEntity
  8
M1
  6
CONTINUOUS
370
25
 62
     7
100
AcDbCircle
 10
1424.360553
 20
561.41128
 40
4.000056
100
AcDbArc
 50
201.999466
 51
296.957802
  0
ARC
  5
249
100
AcDbEntity
  8
M1
  6
CONTINUOUS
370
25
 62
     7
100
AcDbCircle
 10
1431.80646
 20
565.710291
 40
3.999944
100
AcDbArc
 50
303.042267
 51
398.000793
  0
ARC
  5
24A
100
AcDbEntity
  8
M1
  6
CONTINUOUS
370
25
 62
     7
100
AcDbCircle
 10
1442.838656
 20
574.329584
 40
4.000082
100
AcDbArc
 50
218.000198
 51
312.957565
  0
ARC
  5
24B
100
AcDbEntity
  8
M1
  6
CONTINUOUS
370
25
 62
     7
100
AcDbCircle
 10
1448.40636
 20
580.051569
 40
4.000031
100
AcDbArc
 50
318.607056
 51
420.000053
  0
ARC
  5
24C
100
AcDbEntity
  8
M1
  6
CONTINUOUS
370
25
 62
     7
100
AcDbCircle
 10
1403.640552
 20
573.710077
 40
3.999975
100
AcDbArc
 50
104.954422
 51
180.0
  0
ARC
  5
24D
100
AcDbEntity
  8
M1
  6
CONTINUOUS
370
25
 62
     7
100
AcDbCircle
 10
1404.227359
 20
573.86999
 40
3.999946
100
AcDbArc
 50
21.999638
 51
105.517094
  0
ARC
  5
24E
100
AcDbEntity
  8
M1
  6
CONTINUOUS
370
25
 62
     7
100
AcDbCircle
 10
1417.20795
 20
579.114466
 40
3.999977
100
AcDbArc
 50
118.483192
 51
202.000366
  0
ARC
  5
24F
100
AcDbEntity
  8
M1
  6
CONTINUOUS
370
25
 62
     7
100
AcDbCircle
 10
1420.051456
 20
580.756067
 40
4.000082
100
AcDbArc
 50
38.000195
 51
121.517612
  0
ARC
  5
250
100
AcDbEntity
  8
M1
  6
CONTINUOUS
370
25
 62
     7
100
AcDbCircle
 10
1431.08356
 20
589.375391
 40
3.999983
100
AcDbArc
 50
134.483643
 51
217.999168
  0
ARC
  5
251
100
AcDbEntity
  8
M1
  6
CONTINUOUS
370
25
 62
     7
100
AcDbCircle
 10
1431.51546
 20
589.803675
 40
4.000009
100
AcDbArc
 50
60.000069
 51
135.046516
  0
CIRCLE
  5
252
100
AcDbEntity
  8
M1
  6
CONTINUOUS
370
13
 62
     7
100
AcDbCircle
 10
1452.592456
 20
596.10998
 40
5.0
  0
CIRCLE
  5
253
100
AcDbEntity
  8
M1
  6
CONTINUOUS
370
25
 62
     7
100
AcDbCircle
 10
1452.592456
 20
596.10998
 40
4.5
  0
ARC
  5
254
100
AcDbEntity
  8
M1
  6
CONTINUOUS
370
25
 62
     7
100
AcDbCircle
 10
1389.640552
 20
558.636683
 40
10.000048
100
AcDbArc
 50
271.52829
 51
359.999992
  0
ARC
  5
255
100
AcDbEntity
  8
M1
  6
CONTINUOUS
370
25
 62
     7
100
AcDbCircle
 10
1403.640552
 20
554.205988
 40
4.0
100
AcDbArc
 50
180.0
 51
281.392235
  0
ARC
  5
256
100
AcDbEntity
  8
M1
  6
CONTINUOUS
370
25
 62
     7
100
AcDbCircle
 10
1387.640552
 20
633.60998
 40
84.999947
100
AcDbArc
 50
312.957581
 51
318.607327
  0
CIRCLE
  5
257
100
AcDbEntity
  8
M1
  6
CONTINUOUS
370
25
 62
     7
100
AcDbCircle
 10
1504.553989
 20
566.10998
 40
8.0
  0
ARC
  5
258
100
AcDbEntity
  8
M1
  6
CONTINUOUS
370
25
 62
     7
100
AcDbCircle
 10
1387.640552
 20
633.60998
 40
57.999935
100
AcDbArc
 50
344.955292
 51
375.044811
  0
ARC
  5
259
100
AcDbEntity
  8
M1
  6
CONTINUOUS
370
13
 62
     7
100
AcDbCircle
 10
1387.640552
 20
633.60998
 40
74.999954
100
AcDbArc
 50
22.933275
 51
37.713625
  0
ARC
  5
25A
100
AcDbEntity
  8
M1
  6
CONTINUOUS
370
25
 62
     7
100
AcDbCircle
 10
1387.640552
 20
633.60998
 40
84.999992
100
AcDbArc
 50
28.471947
 51
31.528069
  0
ARC
  5
25B
100
AcDbEntity
  8
M1
  6
CONTINUOUS
370
25
 62
     7
100
AcDbCircle
 10
1453.569263
 20
669.364588
 40
9.999969
100
AcDbArc
 50
300.000092
 51
388.472054
  0
ARC
  5
25C
100
AcDbEntity
  8
M1
  6
CONTINUOUS
370
25
 62
     7
100
AcDbCircle
 10
1387.640552
 20
633.60998
 40
84.999878
100
AcDbArc
 50
341.392609
 51
347.042286
  0
ARC
  5
25D
100
AcDbEntity
  8
M1
  6
CONTINUOUS
370
25
 62
     7
100
AcDbCircle
 10
1387.640552
 20
633.60998
 40
85.000008
100
AcDbArc
 50
356.957642
 51
363.042335
  0
ARC
  5
25E
100
AcDbEntity
  8
M1
  6
CONTINUOUS
370
25
 62
     7
100
AcDbCircle
 10
1466.57796
 20
615.447291
 40
4.000045
100
AcDbArc
 50
347.042664
 51
442.001411
  0
ARC
  5
25F
100
AcDbEntity
  8
M1
  6
CONTINUOUS
370
25
 62
     7
100
AcDbCircle
 10
1468.526355
 20
629.311091
 40
4.000034
100
AcDbArc
 50
262.001495
 51
356.956177
  0
ARC
  5
260
100
AcDbEntity
  8
M1
  6
CONTINUOUS
370
25
 62
     7
100
AcDbCircle
 10
1468.526355
 20
637.908991
 40
4.000037
100
AcDbArc
 50
3.042092
 51
97.998582
  0
ARC
  5
261
100
AcDbEntity
  8
M1
  6
CONTINUOUS
370
25
 62
     7
100
AcDbCircle
 10
1466.57796
 20
651.772791
 40
4.000034
100
AcDbArc
 50
277.998505
 51
372.957207
  0
ARC
  5
262
100
AcDbEntity
  8
M1
  6
CONTINUOUS
370
25
 62
     7
100
AcDbCircle
 10
1464.40636
 20
659.455591
 40
3.999969
100
AcDbArc
 50
18.606775
 51
119.998919
  0
ARC
  5
263
100
AcDbEntity
  8
M1
  6
CONTINUOUS
370
25
 62
     7
100
AcDbCircle
 10
1447.51546
 20
617.516474
 40
4.000111
100
AcDbArc
 50
164.955582
 51
239.99852
  0
ARC
  5
264
100
AcDbEntity
  8
M1
  6
CONTINUOUS
370
25
 62
     7
100
AcDbCircle
 10
1447.670459
 20
618.104578
 40
3.999913
100
AcDbArc
 50
82.001236
 51
165.51799
  0
ARC
  5
265
100
AcDbEntity
  8
M1
  6
CONTINUOUS
370
25
 62
     7
100
AcDbCircle
 10
1449.618854
 20
631.968378
 40
4.000105
100
AcDbArc
 50
178.483017
 51
262.000153
  0
ARC
  5
266
100
AcDbEntity
  8
M1
  6
CONTINUOUS
370
25
 62
     7
100
AcDbCircle
 10
1449.618854
 20
635.251673
 40
4.000019
100
AcDbArc
 50
98.000099
 51
181.517029
  0
ARC
  5
267
100
AcDbEntity
  8
M1
  6
CONTINUOUS
370
25
 62
     7
100
AcDbCircle
 10
1447.670459
 20
649.115473
 40
4.000028
100
AcDbArc
 50
194.483276
 51
277.998398
  0
ARC
  5
268
100
AcDbEntity
  8
M1
  6
CONTINUOUS
370
25
 62
     7
100
AcDbCircle
 10
1447.51546
 20
649.703577
 40
4.000009
100
AcDbArc
 50
119.999931
 51
195.044807
  0
CIRCLE
  5
269
100
AcDbEntity
  8
M1
  6
CONTINUOUS
370
13
 62
     7
100
AcDbCircle
 10
1452.592456
 20
671.10998
 40
5.0
  0
CIRCLE
  5
26A
100
AcDbEntity
  8
M1
  6
CONTINUOUS
370
25
 62
     7
100
AcDbCircle
 10
1452.592456
 20
671.10998
 40
4.5
  0
ARC
  5
26B
100
AcDbEntity
  8
M1
  6
CONTINUOUS
370
25
 62
     7
100
AcDbCircle
 10
1453.569263
 20
597.855372
 40
9.999943
100
AcDbArc
 50
331.528534
 51
420.000145
  0
ARC
  5
26C
100
AcDbEntity
  8
M1
  6
CONTINUOUS
370
25
 62
     7
100
AcDbCircle
 10
1464.40636
 20
607.764368
 40
3.999982
100
AcDbArc
 50
239.999847
 51
341.393707
  0
ARC
  5
26D
100
AcDbEntity
  8
M1
  6
CONTINUOUS
370
25
 62
     7
100
AcDbCircle
 10
1387.640552
 20
633.60998
 40
85.000053
100
AcDbArc
 50
12.957694
 51
18.607441
  0
CIRCLE
  5
26E
100
AcDbEntity
  8
M1
  6
CONTINUOUS
370
25
 62
     7
100
AcDbCircle
 10
1504.553989
 20
701.10998
 40
8.0
  0
CIRCLE
  5
26F
100
AcDbEntity
  8
M1
  6
CONTINUOUS
370
25
 62
     7
100
AcDbCircle
 10
1387.640552
 20
768.60998
 40
8.0
  0
ARC
  5
270
100
AcDbEntity
  8
M1
  6
CONTINUOUS
370
25
 62
     7
100
AcDbCircle
 10
1387.640552
 20
633.60998
 40
84.999954
100
AcDbArc
 50
72.957687
 51
78.607406
  0
ARC
  5
271
100
AcDbEntity
  8
M1
  6
CONTINUOUS
370
25
 62
     7
100
AcDbCircle
 10
1448.40636
 20
687.16839
 40
4.000009
100
AcDbArc
 50
299.999939
 51
401.392937
  0
ARC
  5
272
100
AcDbEntity
  8
M1
  6
CONTINUOUS
370
25
 62
     7
100
AcDbCircle
 10
1451.569354
 20
672.828791
 40
9.999933
100
AcDbArc
 50
31.527855
 51
120.000191
  0
CIRCLE
  5
273
100
AcDbEntity
  8
M1
  6
CONTINUOUS
370
25
 62
     7
100
AcDbCircle
 10
1387.640552
 20
708.60998
 40
4.5
  0
CIRCLE
  5
274
100
AcDbEntity
  8
M1
  6
CONTINUOUS
370
13
 62
     7
100
AcDbCircle
 10
1387.640552
 20
708.60998
 40
5.0
  0
ARC
  5
275
100
AcDbEntity
  8
M1
  6
CONTINUOUS
370
25
 62
     7
100
AcDbCircle
 10
1403.640552
 20
693.509882
 40
4.0
100
AcDbArc
 50
180.0
 51
255.045578
  0
ARC
  5
276
100
AcDbEntity
  8
M1
  6
CONTINUOUS
370
25
 62
     7
100
AcDbCircle
 10
1404.227359
 20
693.350092
 40
4.000013
100
AcDbArc
 50
254.483032
 51
337.999962
  0
ARC
  5
277
100
AcDbEntity
  8
M1
  6
CONTINUOUS
370
25
 62
     7
100
AcDbCircle
 10
1417.20795
 20
688.105585
 40
4.000031
100
AcDbArc
 50
158.000854
 51
241.516808
  0
ARC
  5
278
100
AcDbEntity
  8
M1
  6
CONTINUOUS
370
25
 62
     7
100
AcDbCircle
 10
1420.051456
 20
686.463892
 40
4.000022
100
AcDbArc
 50
238.481705
 51
322.000839
  0
ARC
  5
279
100
AcDbEntity
  8
M1
  6
CONTINUOUS
370
25
 62
     7
100
AcDbCircle
 10
1431.08356
 20
677.84469
 40
4.000007
100
AcDbArc
 50
142.001175
 51
225.517578
  0
ARC
  5
27A
100
AcDbEntity
  8
M1
  6
CONTINUOUS
370
25
 62
     7
100
AcDbCircle
 10
1431.51546
 20
677.416376
 40
4.000038
100
AcDbArc
 50
224.954407
 51
299.999931
  0
ARC
  5
27B
100
AcDbEntity
  8
M1
  6
CONTINUOUS
370
25
 62
     7
100
AcDbCircle
 10
1403.640552
 20
713.014063
 40
3.999922
100
AcDbArc
 50
78.607506
 51
180.0
  0
ARC
  5
27C
100
AcDbEntity
  8
M1
  6
CONTINUOUS
370
25
 62
     7
100
AcDbCircle
 10
1411.379764
 20
711.053187
 40
4.000042
100
AcDbArc
 50
338.000458
 51
432.956253
  0
ARC
  5
27D
100
AcDbEntity
  8
M1
  6
CONTINUOUS
370
25
 62
     7
100
AcDbCircle
 10
1424.360553
 20
705.80868
 40
4.00002
100
AcDbArc
 50
63.042793
 51
158.000534
  0
ARC
  5
27E
100
AcDbEntity
  8
M1
  6
CONTINUOUS
370
25
 62
     7
100
AcDbCircle
 10
1431.80646
 20
701.509668
 40
4.000007
100
AcDbArc
 50
322.00119
 51
416.958458
  0
ARC
  5
27F
100
AcDbEntity
  8
M1
  6
CONTINUOUS
370
25
 62
     7
100
AcDbCircle
 10
1442.838656
 20
692.890467
 40
3.999956
100
AcDbArc
 50
47.042362
 51
142.000835
  0
ARC
  5
280
100
AcDbEntity
  8
M1
  6
CONTINUOUS
370
25
 62
     7
100
AcDbCircle
 10
1387.640552
 20
633.60998
 40
84.999992
100
AcDbArc
 50
56.957718
 51
63.042363
  0
ARC
  5
281
100
AcDbEntity
  8
M1
  6
CONTINUOUS
370
25
 62
     7
100
AcDbCircle
 10
1387.640552
 20
633.60998
 40
85.000031
100
AcDbArc
 50
41.392612
 51
47.042339
  0
ARC
  5
282
100
AcDbEntity
  8
M1
  6
CONTINUOUS
370
25
 62
     7
100
AcDbCircle
 10
1389.640552
 20
708.583368
 40
10.0
100
AcDbArc
 50
0.0
 51
88.471687
  0
ARC
  5
283
100
AcDbEntity
  8
M1
  6
CONTINUOUS
370
25
 62
     7
100
AcDbCircle
 10
1387.640552
 20
633.60998
 40
85.000015
100
AcDbArc
 50
88.471901
 51
91.528084
  0
ARC
  5
284
100
AcDbEntity
  8
M1
  6
CONTINUOUS
370
13
 62
     7
100
AcDbCircle
 10
1387.640552
 20
633.60998
 40
75.000031
100
AcDbArc
 50
82.933266
 51
97.713659
  0
CIRCLE
  5
285
100
AcDbEntity
  8
M1
  6
CONTINUOUS
370
25
 62
     7
100
AcDbCircle
 10
1387.640552
 20
633.60998
 40
45.0
  0
ARC
  5
286
100
AcDbEntity
  8
M1
  6
CONTINUOUS
370
25
 62
     7
100
AcDbCircle
 10
1387.640552
 20
633.60998
 40
17.499983
100
AcDbArc
 50
196.601563
 51
523.398438
  0
CIRCLE
  5
287
100
AcDbEntity
  8
M1
  6
CONTINUOUS
370
25
 62
     7
100
AcDbCircle
 10
1387.640552
 20
633.60998
 40
55.0
  0
ARC
  5
288
100
AcDbEntity
  8
M1
  6
CONTINUOUS
370
25
 62
     7
100
AcDbCircle
 10
1387.640552
 20
633.60998
 40
58.000027
100
AcDbArc
 50
44.955288
 51
75.044779
  0
ARC
  5
289
100
AcDbEntity
  8
M1
  6
CONTINUOUS
370
25
 62
     7
100
AcDbCircle
 10
1387.640552
 20
633.60998
 40
121.000061
100
AcDbArc
 50
54.4081
 51
65.59191
  0
CIRCLE
  5
28A
100
AcDbEntity
  8
M1
  6
CONTINUOUS
370
25
 62
     7
100
AcDbCircle
 10
1387.640552
 20
633.60998
 40
148.999985
  0
ARC
  5
28B
100
AcDbEntity
  8
M1
  6
CONTINUOUS
370
25
 62
     7
100
AcDbCircle
 10
1387.640552
 20
633.60998
 40
167.499985
100
AcDbArc
 50
60.958809
 51
419.042885
  0
ARC
  5
28C
100
AcDbEntity
  8
M1
  6
CONTINUOUS
370
25
 62
     7
100
AcDbCircle
 10
299.638217
 20
633.60998
 40
17.500465
100
AcDbArc
 50
16.601095
 51
343.398916
  0
ARC
  5
28D
100
AcDbEntity
  8
M1
  6
CONTINUOUS
370
25
 62
     7
100
AcDbCircle
 10
1466.166255
 20
769.6206
 40
6.86405
100
AcDbArc
 50
84.100632
 51
395.943985
  0
ARC
  5
28E
100
AcDbEntity
  8
M1
  6
CONTINUOUS
370
25
 62
     7
100
AcDbCircle
 10
299.638217
 20
633.60998
 40
105.999992
100
AcDbArc
 50
54.653564
 51
65.346404
  0
ARC
  5
28F
100
AcDbEntity
  8
M1
  6
CONTINUOUS
370
25
 62
     7
100
AcDbCircle
 10
348.813144
 20
741.97439
 40
1.999863
100
AcDbArc
 50
65.603226
 51
158.007561
  0
ARC
  5
290
100
AcDbEntity
  8
M1
  6
CONTINUOUS
370
25
 62
     7
100
AcDbCircle
 10
344.688144
 20
731.765467
 40
1.99966
100
AcDbArc
 50
157.996277
 51
245.353592
  0
ARC
  5
291
100
AcDbEntity
  8
M1
  6
CONTINUOUS
370
25
 62
     7
100
AcDbCircle
 10
362.118198
 20
721.702265
 40
2.000001
100
AcDbArc
 50
234.655518
 51
321.996956
  0
ARC
  5
292
100
AcDbEntity
  8
M1
  6
CONTINUOUS
370
25
 62
     7
100
AcDbCircle
 10
368.897128
 20
730.378779
 40
2.000004
100
AcDbArc
 50
322.00119
 51
414.407654
  0
ARC
  5
293
100
AcDbEntity
  8
M1
  6
CONTINUOUS
370
25
 62
     7
100
AcDbCircle
 10
250.463168
 20
741.97439
 40
2.000554
100
AcDbArc
 50
21.992439
 51
114.396774
  0
ARC
  5
294
100
AcDbEntity
  8
M1
  6
CONTINUOUS
370
25
 62
     7
100
AcDbCircle
 10
254.588168
 20
731.765467
 40
1.99988
100
AcDbArc
 50
294.646423
 51
382.003738
  0
ARC
  5
295
100
AcDbEntity
  8
M1
  6
CONTINUOUS
370
25
 62
     7
100
AcDbCircle
 10
237.158114
 20
721.702265
 40
1.999964
100
AcDbArc
 50
218.003036
 51
305.344475
  0
ARC
  5
296
100
AcDbEntity
  8
M1
  6
CONTINUOUS
370
25
 62
     7
100
AcDbCircle
 10
230.379184
 20
730.378779
 40
2.000058
100
AcDbArc
 50
125.592354
 51
217.998817
  0
ARC
  5
297
100
AcDbEntity
  8
M1
  6
CONTINUOUS
370
25
 62
     7
100
AcDbCircle
 10
299.638217
 20
633.60998
 40
106.000153
100
AcDbArc
 50
114.653656
 51
125.34649
  0
ARC
  5
298
100
AcDbEntity
  8
M1
  6
CONTINUOUS
370
25
 62
     7
100
AcDbCircle
 10
299.638217
 20
633.60998
 40
120.999992
100
AcDbArc
 50
114.408043
 51
125.591935
  0
ARC
  5
299
100
AcDbEntity
  8
M1
  6
CONTINUOUS
370
25
 62
     7
100
AcDbCircle
 10
181.204135
 20
645.205683
 40
2.000062
100
AcDbArc
 50
81.979813
 51
174.406708
  0
ARC
  5
29A
100
AcDbEntity
  8
M1
  6
CONTINUOUS
370
25
 62
     7
100
AcDbCircle
 10
192.108188
 20
643.673273
 40
1.999673
100
AcDbArc
 50
354.651367
 51
442.010986
  0
ARC
  5
29B
100
AcDbEntity
  8
M1
  6
CONTINUOUS
370
25
 62
     7
100
AcDbCircle
 10
192.108188
 20
623.546778
 40
1.999909
100
AcDbArc
 50
277.989014
 51
365.348633
  0
ARC
  5
29C
100
AcDbEntity
  8
M1
  6
CONTINUOUS
370
25
 62
     7
100
AcDbCircle
 10
181.204135
 20
622.014368
 40
1.99951
100
AcDbArc
 50
185.593292
 51
278.020187
  0
ARC
  5
29D
100
AcDbEntity
  8
M1
  6
CONTINUOUS
370
25
 62
     7
100
AcDbCircle
 10
299.638217
 20
633.60998
 40
106.000221
100
AcDbArc
 50
174.653534
 51
185.346363
  0
ARC
  5
29E
100
AcDbEntity
  8
M1
  6
CONTINUOUS
370
25
 62
     7
100
AcDbCircle
 10
299.638217
 20
633.60998
 40
120.999901
100
AcDbArc
 50
174.408051
 51
185.591808
  0
ARC
  5
29F
100
AcDbEntity
  8
M1
  6
CONTINUOUS
370
25
 62
     7
100
AcDbCircle
 10
230.379184
 20
536.841272
 40
2.000004
100
AcDbArc
 50
142.001175
 51
234.407639
  0
ARC
  5
2A0
100
AcDbEntity
  8
M1
  6
CONTINUOUS
370
25
 62
     7
100
AcDbCircle
 10
237.158114
 20
545.517786
 40
1.999926
100
AcDbArc
 50
54.654007
 51
141.999031
  0
ARC
  5
2A1
100
AcDbEntity
  8
M1
  6
CONTINUOUS
370
25
 62
     7
100
AcDbCircle
 10
254.588168
 20
535.454584
 40
1.99966
100
AcDbArc
 50
337.996277
 51
425.353592
  0
ARC
  5
2A2
100
AcDbEntity
  8
M1
  6
CONTINUOUS
370
25
 62
     7
100
AcDbCircle
 10
250.463168
 20
525.245569
 40
1.99978
100
AcDbArc
 50
245.602142
 51
338.007561
  0
ARC
  5
2A3
100
AcDbEntity
  8
M1
  6
CONTINUOUS
370
25
 62
     7
100
AcDbCircle
 10
299.638217
 20
633.60998
 40
105.999992
100
AcDbArc
 50
234.653488
 51
245.34633
  0
ARC
  5
2A4
100
AcDbEntity
  8
M1
  6
CONTINUOUS
370
25
 62
     7
100
AcDbCircle
 10
299.638217
 20
633.60998
 40
121.000046
100
AcDbArc
 50
234.408035
 51
245.591934
  0
ARC
  5
2A5
100
AcDbEntity
  8
M1
  6
CONTINUOUS
370
25
 62
     7
100
AcDbCircle
 10
348.813144
 20
525.245569
 40
2.000554
100
AcDbArc
 50
201.992432
 51
294.39785
  0
ARC
  5
2A6
100
AcDbEntity
  8
M1
  6
CONTINUOUS
370
25
 62
     7
100
AcDbCircle
 10
344.688144
 20
535.454584
 40
1.99988
100
AcDbArc
 50
114.646416
 51
202.003731
  0
ARC
  5
2A7
100
AcDbEntity
  8
M1
  6
CONTINUOUS
370
25
 62
     7
100
AcDbCircle
 10
362.118198
 20
545.517786
 40
1.999907
100
AcDbArc
 50
38.000973
 51
125.345997
  0
ARC
  5
2A8
100
AcDbEntity
  8
M1
  6
CONTINUOUS
370
25
 62
     7
100
AcDbCircle
 10
368.897128
 20
536.841272
 40
2.000058
100
AcDbArc
 50
305.592346
 51
397.99881
  0
ARC
  5
2A9
100
AcDbEntity
  8
M1
  6
CONTINUOUS
370
25
 62
     7
100
AcDbCircle
 10
299.638217
 20
633.60998
 40
106.000015
100
AcDbArc
 50
294.653625
 51
305.346445
  0
ARC
  5
2AA
100
AcDbEntity
  8
M1
  6
CONTINUOUS
370
25
 62
     7
100
AcDbCircle
 10
299.638217
 20
633.60998
 40
120.999939
100
AcDbArc
 50
294.40799
 51
305.591887
  0
ARC
  5
2AB
100
AcDbEntity
  8
M1
  6
CONTINUOUS
370
25
 62
     7
100
AcDbCircle
 10
418.072177
 20
622.014368
 40
2.000062
100
AcDbArc
 50
261.979797
 51
354.406693
  0
ARC
  5
2AC
100
AcDbEntity
  8
M1
  6
CONTINUOUS
370
25
 62
     7
100
AcDbCircle
 10
407.168124
 20
623.546778
 40
1.999673
100
AcDbArc
 50
174.651352
 51
262.010971
  0
ARC
  5
2AD
100
AcDbEntity
  8
M1
  6
CONTINUOUS
370
25
 62
     7
100
AcDbCircle
 10
407.168124
 20
643.673273
 40
1.999909
100
AcDbArc
 50
97.989021
 51
185.34864
  0
ARC
  5
2AE
100
AcDbEntity
  8
M1
  6
CONTINUOUS
370
25
 62
     7
100
AcDbCircle
 10
418.072177
 20
645.205683
 40
1.99951
100
AcDbArc
 50
5.593298
 51
98.020194
  0
ARC
  5
2AF
100
AcDbEntity
  8
M1
  6
CONTINUOUS
370
25
 62
     7
100
AcDbCircle
 10
299.638217
 20
633.60998
 40
106.000099
100
AcDbArc
 50
354.653534
 51
365.346474
  0
ARC
  5
2B0
100
AcDbEntity
  8
M1
  6
CONTINUOUS
370
25
 62
     7
100
AcDbCircle
 10
299.638217
 20
633.60998
 40
120.999779
100
AcDbArc
 50
354.408051
 51
365.591949
  0
ARC
  5
2B1
100
AcDbEntity
  8
M1
  6
CONTINUOUS
370
25
 62
     7
100
AcDbCircle
 10
1387.640552
 20
633.60998
 40
106.000053
100
AcDbArc
 50
54.653515
 51
65.346469
  0
ARC
  5
2B2
100
AcDbEntity
  8
M1
  6
CONTINUOUS
370
25
 62
     7
100
AcDbCircle
 10
1436.81525
 20
741.97439
 40
2.000008
100
AcDbArc
 50
65.59407
 51
158.001343
  0
ARC
  5
2B3
100
AcDbEntity
  8
M1
  6
CONTINUOUS
370
25
 62
     7
100
AcDbCircle
 10
1432.690555
 20
731.765467
 40
1.999929
100
AcDbArc
 50
157.99939
 51
245.34803
  0
ARC
  5
2B4
100
AcDbEntity
  8
M1
  6
CONTINUOUS
370
25
 62
     7
100
AcDbCircle
 10
1450.120761
 20
721.702265
 40
2.00001
100
AcDbArc
 50
234.655167
 51
322.000107
  0
ARC
  5
2B5
100
AcDbEntity
  8
M1
  6
CONTINUOUS
370
25
 62
     7
100
AcDbCircle
 10
1456.899463
 20
730.378779
 40
1.999956
100
AcDbArc
 50
322.000092
 51
414.406921
  0
ARC
  5
2B6
100
AcDbEntity
  8
M1
  6
CONTINUOUS
370
25
 62
     7
100
AcDbCircle
 10
1338.465854
 20
741.97439
 40
2.000017
100
AcDbArc
 50
21.998659
 51
114.405931
  0
ARC
  5
2B7
100
AcDbEntity
  8
M1
  6
CONTINUOUS
370
25
 62
     7
100
AcDbCircle
 10
1342.590457
 20
731.765467
 40
2.000014
100
AcDbArc
 50
294.654755
 51
381.999466
  0
ARC
  5
2B8
100
AcDbEntity
  8
M1
  6
CONTINUOUS
370
25
 62
     7
100
AcDbCircle
 10
1325.160464
 20
721.702265
 40
2.000108
100
AcDbArc
 50
217.999802
 51
305.344467
  0
ARC
  5
2B9
100
AcDbEntity
  8
M1
  6
CONTINUOUS
370
25
 62
     7
100
AcDbCircle
 10
1318.381656
 20
730.378779
 40
2.000076
100
AcDbArc
 50
125.593063
 51
217.997742
  0
ARC
  5
2BA
100
AcDbEntity
  8
M1
  6
CONTINUOUS
370
25
 62
     7
100
AcDbCircle
 10
1387.640552
 20
633.60998
 40
106.0
100
AcDbArc
 50
114.653473
 51
125.346426
  0
ARC
  5
2BB
100
AcDbEntity
  8
M1
  6
CONTINUOUS
370
25
 62
     7
100
AcDbCircle
 10
1387.640552
 20
633.60998
 40
121.000076
100
AcDbArc
 50
114.408127
 51
125.591892
  0
ARC
  5
2BC
100
AcDbEntity
  8
M1
  6
CONTINUOUS
370
25
 62
     7
100
AcDbCircle
 10
1269.206851
 20
645.205683
 40
1.99996
100
AcDbArc
 50
82.000587
 51
174.40815
  0
ARC
  5
2BD
100
AcDbEntity
  8
M1
  6
CONTINUOUS
370
25
 62
     7
100
AcDbCircle
 10
1280.110354
 20
643.673273
 40
2.000099
100
AcDbArc
 50
354.652496
 51
442.00145
  0
ARC
  5
2BE
100
AcDbEntity
  8
M1
  6
CONTINUOUS
370
25
 62
     7
100
AcDbCircle
 10
1280.110354
 20
623.546778
 40
1.999956
100
AcDbArc
 50
277.998535
 51
365.347733
  0
ARC
  5
2BF
100
AcDbEntity
  8
M1
  6
CONTINUOUS
370
25
 62
     7
100
AcDbCircle
 10
1269.206851
 20
622.014368
 40
2.000027
100
AcDbArc
 50
185.591843
 51
277.999405
  0
ARC
  5
2C0
100
AcDbEntity
  8
M1
  6
CONTINUOUS
370
25
 62
     7
100
AcDbCircle
 10
1387.640552
 20
633.60998
 40
105.999962
100
AcDbArc
 50
174.653519
 51
185.346369
  0
ARC
  5
2C1
100
AcDbEntity
  8
M1
  6
CONTINUOUS
370
25
 62
     7
100
AcDbCircle
 10
1387.640552
 20
633.60998
 40
121.000031
100
AcDbArc
 50
174.408066
 51
185.591811
  0
ARC
  5
2C2
100
AcDbEntity
  8
M1
  6
CONTINUOUS
370
25
 62
     7
100
AcDbCircle
 10
1318.381656
 20
536.841272
 40
2.000052
100
AcDbArc
 50
142.002258
 51
234.406937
  0
ARC
  5
2C3
100
AcDbEntity
  8
M1
  6
CONTINUOUS
370
25
 62
     7
100
AcDbCircle
 10
1325.160464
 20
545.517786
 40
1.999926
100
AcDbArc
 50
54.654007
 51
142.000641
  0
ARC
  5
2C4
100
AcDbEntity
  8
M1
  6
CONTINUOUS
370
25
 62
     7
100
AcDbCircle
 10
1342.590457
 20
535.454584
 40
2.000028
100
AcDbArc
 50
338.000519
 51
425.34523
  0
ARC
  5
2C5
100
AcDbEntity
  8
M1
  6
CONTINUOUS
370
25
 62
     7
100
AcDbCircle
 10
1338.465854
 20
525.245569
 40
1.999925
100
AcDbArc
 50
245.592987
 51
338.000359
  0
ARC
  5
2C6
100
AcDbEntity
  8
M1
  6
CONTINUOUS
370
25
 62
     7
100
AcDbCircle
 10
1387.640552
 20
633.60998
 40
106.000031
100
AcDbArc
 50
234.653442
 51
245.3464
  0
ARC
  5
2C7
100
AcDbEntity
  8
M1
  6
CONTINUOUS
370
25
 62
     7
100
AcDbCircle
 10
1387.640552
 20
633.60998
 40
120.999878
100
AcDbArc
 50
234.408051
 51
245.591857
  0
ARC
  5
2C8
100
AcDbEntity
  8
M1
  6
CONTINUOUS
370
25
 62
     7
100
AcDbCircle
 10
1436.81525
 20
525.245569
 40
2.000017
100
AcDbArc
 50
201.998657
 51
294.407013
  0
ARC
  5
2C9
100
AcDbEntity
  8
M1
  6
CONTINUOUS
370
25
 62
     7
100
AcDbCircle
 10
1432.690555
 20
535.454584
 40
1.999969
100
AcDbArc
 50
114.651978
 51
202.000618
  0
ARC
  5
2CA
100
AcDbEntity
  8
M1
  6
CONTINUOUS
370
25
 62
     7
100
AcDbCircle
 10
1450.120761
 20
545.517786
 40
2.00004
100
AcDbArc
 50
37.998013
 51
125.344837
  0
ARC
  5
2CB
100
AcDbEntity
  8
M1
  6
CONTINUOUS
370
25
 62
     7
100
AcDbCircle
 10
1456.899463
 20
536.841272
 40
2.000076
100
AcDbArc
 50
305.593079
 51
397.998024
  0
ARC
  5
2CC
100
AcDbEntity
  8
M1
  6
CONTINUOUS
370
25
 62
     7
100
AcDbCircle
 10
1387.640552
 20
633.60998
 40
105.999962
100
AcDbArc
 50
294.653564
 51
305.346451
  0
ARC
  5
2CD
100
AcDbEntity
  8
M1
  6
CONTINUOUS
370
25
 62
     7
100
AcDbCircle
 10
1387.640552
 20
633.60998
 40
120.999992
100
AcDbArc
 50
294.408051
 51
305.591891
  0
ARC
  5
2CE
100
AcDbEntity
  8
M1
  6
CONTINUOUS
370
25
 62
     7
100
AcDbCircle
 10
1506.07426
 20
622.014368
 40
1.99996
100
AcDbArc
 50
262.00058
 51
354.408012
  0
ARC
  5
2CF
100
AcDbEntity
  8
M1
  6
CONTINUOUS
370
25
 62
     7
100
AcDbCircle
 10
1495.170688
 20
623.546778
 40
2.000038
100
AcDbArc
 50
174.652328
 51
262.000732
  0
ARC
  5
2D0
100
AcDbEntity
  8
M1
  6
CONTINUOUS
370
25
 62
     7
100
AcDbCircle
 10
1495.170688
 20
643.673273
 40
1.99996
100
AcDbArc
 50
97.999413
 51
185.347763
  0
ARC
  5
2D1
100
AcDbEntity
  8
M1
  6
CONTINUOUS
370
25
 62
     7
100
AcDbCircle
 10
1506.07426
 20
645.205683
 40
1.999981
100
AcDbArc
 50
5.591978
 51
97.99941
  0
ARC
  5
2D2
100
AcDbEntity
  8
M1
  6
CONTINUOUS
370
25
 62
     7
100
AcDbCircle
 10
1387.640552
 20
633.60998
 40
105.999962
100
AcDbArc
 50
354.653534
 51
365.346487
  0
ARC
  5
2D3
100
AcDbEntity
  8
M1
  6
CONTINUOUS
370
25
 62
     7
100
AcDbCircle
 10
1387.640552
 20
633.60998
 40
120.999992
100
AcDbArc
 50
354.408051
 51
365.591928
  0
ARC
  5
2D4
100
AcDbEntity
  8
M1
  6
CONTINUOUS
370
25
 62
     7
100
AcDbCircle
 10
753.426547
 20
780.610102
 40
2.0
100
AcDbArc
 50
90.0
 51
180.0
  0
ARC
  5
2D5
100
AcDbEntity
  8
M1
  6
CONTINUOUS
370
25
 62
     7
100
AcDbCircle
 10
881.426547
 20
780.610102
 40
2.0
100
AcDbArc
 50
0.0
 51
90.0
  0
ARC
  5
2D6
100
AcDbEntity
  8
M1
  6
CONTINUOUS
370
25
 62
     7
100
AcDbCircle
 10
753.426547
 20
486.60998
 40
2.0
100
AcDbArc
 50
180.0
 51
270.0
  0
ARC
  5
2D7
100
AcDbEntity
  8
M1
  6
CONTINUOUS
370
25
 62
     7
100
AcDbCircle
 10
881.426547
 20
486.60998
 40
2.0
100
AcDbArc
 50
270.0
 51
360.0
  0
ARC
  5
2D8
100
AcDbEntity
  8
M1
  6
CONTINUOUS
370
25
 62
     7
100
AcDbCircle
 10
855.326572
 20
803.403193
 40
11.2005
100
AcDbArc
 50
0.0
 51
60.000916
  0
ARC
  5
2D9
100
AcDbEntity
  8
M1
  6
CONTINUOUS
370
25
 62
     7
100
AcDbCircle
 10
880.526584
 20
803.403193
 40
14.000263
100
AcDbArc
 50
119.999092
 51
180.000004
  0
ARC
  5
2DA
100
AcDbEntity
  8
M1
  6
CONTINUOUS
370
25
 62
     7
100
AcDbCircle
 10
855.326572
 20
803.403193
 40
14.00055
100
AcDbArc
 50
25.845093
 51
60.001316
  0
ARC
  5
2DB
100
AcDbEntity
  8
M1
  6
CONTINUOUS
370
25
 62
     7
100
AcDbCircle
 10
863.525546
 20
792.010248
 40
3.0
100
AcDbArc
 50
270.0
 51
360.0
  0
ARC
  5
2DC
100
AcDbEntity
  8
M1
  6
CONTINUOUS
370
25
 62
     7
100
AcDbCircle
 10
863.525546
 20
792.010248
 40
5.799988
100
AcDbArc
 50
270.0
 51
360.0
  0
ARC
  5
2DD
100
AcDbEntity
  8
M1
  6
CONTINUOUS
370
25
 62
     7
100
AcDbCircle
 10
880.526584
 20
803.403193
 40
11.200014
100
AcDbArc
 50
119.999092
 51
179.999996
  0
ARC
  5
2DE
100
AcDbEntity
  8
M1
  6
CONTINUOUS
370
25
 62
     7
100
AcDbCircle
 10
190.591098
 20
794.491694
 40
11.200253
100
AcDbArc
 50
29.996223
 51
90.0
  0
ARC
  5
2DF
100
AcDbEntity
  8
M1
  6
CONTINUOUS
370
25
 62
     7
100
AcDbCircle
 10
214.839145
 20
808.491755
 40
14.00068
100
AcDbArc
 50
150.000458
 51
210.004578
  0
ARC
  5
2E0
100
AcDbEntity
  8
M1
  6
CONTINUOUS
370
25
 62
     7
100
AcDbCircle
 10
190.591098
 20
794.491694
 40
13.999163
100
AcDbArc
 50
29.996786
 51
90.0
  0
ARC
  5
2E1
100
AcDbEntity
  8
M1
  6
CONTINUOUS
370
25
 62
     7
100
AcDbCircle
 10
214.839145
 20
808.491755
 40
11.200026
100
AcDbArc
 50
150.004547
 51
210.001198
  0
ARC
  5
2E2
100
AcDbEntity
  8
M1
  6
CONTINUOUS
370
25
 62
     7
100
AcDbCircle
 10
1496.6879
 20
794.491694
 40
11.200012
100
AcDbArc
 50
89.99485
 51
150.002941
  0
ARC
  5
2E3
100
AcDbEntity
  8
M1
  6
CONTINUOUS
370
25
 62
     7
100
AcDbCircle
 10
1472.439853
 20
808.491755
 40
14.000242
100
AcDbArc
 50
329.995392
 51
390.000778
  0
ARC
  5
2E4
100
AcDbEntity
  8
M1
  6
CONTINUOUS
370
25
 62
     7
100
AcDbCircle
 10
1496.6879
 20
794.491694
 40
13.998962
100
AcDbArc
 50
90.0
 51
150.002838
  0
ARC
  5
2E5
100
AcDbEntity
  8
M1
  6
CONTINUOUS
370
25
 62
     7
100
AcDbCircle
 10
1472.439853
 20
808.491755
 40
11.199573
100
AcDbArc
 50
329.998871
 51
389.996849
  0
ARC
  5
2E6
100
AcDbEntity
  8
M1
  6
CONTINUOUS
370
25
 62
     7
100
AcDbCircle
 10
1464.444957
 20
769.442072
 40
1.40132
100
AcDbArc
 50
150.00177
 51
329.999603
  0
ARC
  5
2E7
100
AcDbEntity
  8
M1
  6
CONTINUOUS
370
25
 62
     7
100
AcDbCircle
 10
1466.870158
 20
768.041865
 40
1.399085
100
AcDbArc
 50
149.996552
 51
330.002914
  0
ARC
  5
2E8
100
AcDbEntity
  8
M1
  6
CONTINUOUS
370
25
 62
     7
100
AcDbCircle
 10
743.426547
 20
725.60998
 40
8.0
100
AcDbArc
 50
270.0
 51
360.0
  0
ARC
  5
2E9
100
AcDbEntity
  8
M1
  6
CONTINUOUS
370
25
 62
     7
100
AcDbCircle
 10
743.426547
 20
541.60998
 40
8.0
100
AcDbArc
 50
0.0
 51
90.0
  0
ARC
  5
2EA
100
AcDbEntity
  8
M1
  6
CONTINUOUS
370
25
 62
     7
100
AcDbCircle
 10
891.426547
 20
725.60998
 40
8.0
100
AcDbArc
 50
180.0
 51
270.0
  0
ARC
  5
2EB
100
AcDbEntity
  8
M1
  6
CONTINUOUS
370
25
 62
     7
100
AcDbCircle
 10
891.426547
 20
541.60998
 40
8.0
100
AcDbArc
 50
90.0
 51
180.0
  0
LINE
  5
2EC
100
AcDbEntity
  8
M1
  6
CONTINUOUS
370
25
 62
     7
100
AcDbLine
 10
291.638217
 20
763.991175
 11
299.638217
 21
759.37237
  0
LINE
  5
2ED
100
AcDbEntity
  8
M1
  6
CONTINUOUS
370
25
 62
     7
100
AcDbLine
 10
299.638217
 20
759.37237
 11
307.638217
 21
763.991175
  0
LINE
  5
2EE
100
AcDbEntity
  8
M1
  6
CONTINUOUS
370
25
 62
     7
100
AcDbLine
 10
307.638217
 20
763.991175
 11
307.638217
 21
773.228754
  0
LINE
  5
2EF
100
AcDbEntity
  8
M1
  6
CONTINUOUS
370
25
 62
     7
100
AcDbLine
 10
307.638217
 20
773.228754
 11
299.638217
 21
777.84759
  0
LINE
  5
2F0
100
AcDbEntity
  8
M1
  6
CONTINUOUS
370
25
 62
     7
100
AcDbLine
 10
299.638217
 20
777.84759
 11
291.638217
 21
773.228754
  0
LINE
  5
2F1
100
AcDbEntity
  8
M1
  6
CONTINUOUS
370
25
 62
     7
100
AcDbLine
 10
291.638217
 20
773.228754
 11
291.638217
 21
763.991175
  0
LINE
  5
2F2
100
AcDbEntity
  8
M1
  6
CONTINUOUS
370
25
 62
     7
100
AcDbLine
 10
182.725131
 20
691.87237
 11
190.725131
 21
696.491175
  0
LINE
  5
2F3
100
AcDbEntity
  8
M1
  6
CONTINUOUS
370
25
 62
     7
100
AcDbLine
 10
190.725131
 20
696.491175
 11
190.725131
 21
705.728785
  0
LINE
  5
2F4
100
AcDbEntity
  8
M1
  6
CONTINUOUS
370
25
 62
     7
100
AcDbLine
 10
190.725131
 20
705.728785
 11
182.725131
 21
710.34759
  0
LINE
  5
2F5
100
AcDbEntity
  8
M1
  6
CONTINUOUS
370
25
 62
     7
100
AcDbLine
 10
182.725131
 20
710.34759
 11
174.725131
 21
705.728785
  0
LINE
  5
2F6
100
AcDbEntity
  8
M1
  6
CONTINUOUS
370
25
 62
     7
100
AcDbLine
 10
174.725131
 20
705.728785
 11
174.725131
 21
696.491175
  0
LINE
  5
2F7
100
AcDbEntity
  8
M1
  6
CONTINUOUS
370
25
 62
     7
100
AcDbLine
 10
174.725131
 20
696.491175
 11
182.725131
 21
691.87237
  0
LINE
  5
2F8
100
AcDbEntity
  8
M1
  6
CONTINUOUS
370
25
 62
     7
100
AcDbLine
 10
190.725131
 20
561.491175
 11
190.725131
 21
570.728785
  0
LINE
  5
2F9
100
AcDbEntity
  8
M1
  6
CONTINUOUS
370
25
 62
     7
100
AcDbLine
 10
190.725131
 20
570.728785
 11
182.725131
 21
575.34759
  0
LINE
  5
2FA
100
AcDbEntity
  8
M1
  6
CONTINUOUS
370
25
 62
     7
100
AcDbLine
 10
182.725131
 20
575.34759
 11
174.725131
 21
570.728785
  0
LINE
  5
2FB
100
AcDbEntity
  8
M1
  6
CONTINUOUS
370
25
 62
     7
100
AcDbLine
 10
174.725131
 20
570.728785
 11
174.725131
 21
561.491175
  0
LINE
  5
2FC
100
AcDbEntity
  8
M1
  6
CONTINUOUS
370
25
 62
     7
100
AcDbLine
 10
174.725131
 20
561.491175
 11
182.725131
 21
556.87237
  0
LINE
  5
2FD
100
AcDbEntity
  8
M1
  6
CONTINUOUS
370
25
 62
     7
100
AcDbLine
 10
182.725131
 20
556.87237
 11
190.725131
 21
561.491175
  0
LINE
  5
2FE
100
AcDbEntity
  8
M1
  6
CONTINUOUS
370
25
 62
     7
100
AcDbLine
 10
307.638217
 20
503.228785
 11
299.638217
 21
507.847574
  0
LINE
  5
2FF
100
AcDbEntity
  8
M1
  6
CONTINUOUS
370
25
 62
     7
100
AcDbLine
 10
299.638217
 20
507.847574
 11
291.638217
 21
503.228785
  0
LINE
  5
300
100
AcDbEntity
  8
M1
  6
CONTINUOUS
370
25
 62
     7
100
AcDbLine
 10
291.638217
 20
503.228785
 11
291.638217
 21
493.991175
  0
LINE
  5
301
100
AcDbEntity
  8
M1
  6
CONTINUOUS
370
25
 62
     7
100
AcDbLine
 10
291.638217
 20
493.991175
 11
299.638217
 21
489.372385
  0
LINE
  5
302
100
AcDbEntity
  8
M1
  6
CONTINUOUS
370
25
 62
     7
100
AcDbLine
 10
299.638217
 20
489.372385
 11
307.638217
 21
493.991175
  0
LINE
  5
303
100
AcDbEntity
  8
M1
  6
CONTINUOUS
370
25
 62
     7
100
AcDbLine
 10
307.638217
 20
493.991175
 11
307.638217
 21
503.228785
  0
LINE
  5
304
100
AcDbEntity
  8
M1
  6
CONTINUOUS
370
25
 62
     7
100
AcDbLine
 10
416.552157
 20
575.34759
 11
408.552157
 21
570.728785
  0
LINE
  5
305
100
AcDbEntity
  8
M1
  6
CONTINUOUS
370
25
 62
     7
100
AcDbLine
 10
408.552157
 20
570.728785
 11
408.552157
 21
561.491175
  0
LINE
  5
306
100
AcDbEntity
  8
M1
  6
CONTINUOUS
370
25
 62
     7
100
AcDbLine
 10
408.552157
 20
561.491175
 11
416.552157
 21
556.87237
  0
LINE
  5
307
100
AcDbEntity
  8
M1
  6
CONTINUOUS
370
25
 62
     7
100
AcDbLine
 10
416.552157
 20
556.87237
 11
424.552157
 21
561.491175
  0
LINE
  5
308
100
AcDbEntity
  8
M1
  6
CONTINUOUS
370
25
 62
     7
100
AcDbLine
 10
424.552157
 20
561.491175
 11
424.552157
 21
570.728785
  0
LINE
  5
309
100
AcDbEntity
  8
M1
  6
CONTINUOUS
370
25
 62
     7
100
AcDbLine
 10
424.552157
 20
570.728785
 11
416.552157
 21
575.34759
  0
LINE
  5
30A
100
AcDbEntity
  8
M1
  6
CONTINUOUS
370
25
 62
     7
100
AcDbLine
 10
408.552157
 20
705.728785
 11
408.552157
 21
696.491175
  0
LINE
  5
30B
100
AcDbEntity
  8
M1
  6
CONTINUOUS
370
25
 62
     7
100
AcDbLine
 10
408.552157
 20
696.491175
 11
416.552157
 21
691.87237
  0
LINE
  5
30C
100
AcDbEntity
  8
M1
  6
CONTINUOUS
370
25
 62
     7
100
AcDbLine
 10
416.552157
 20
691.87237
 11
424.552157
 21
696.491175
  0
LINE
  5
30D
100
AcDbEntity
  8
M1
  6
CONTINUOUS
370
25
 62
     7
100
AcDbLine
 10
424.552157
 20
696.491175
 11
424.552157
 21
705.728785
  0
LINE
  5
30E
100
AcDbEntity
  8
M1
  6
CONTINUOUS
370
25
 62
     7
100
AcDbLine
 10
424.552157
 20
705.728785
 11
416.552157
 21
710.34759
  0
LINE
  5
30F
100
AcDbEntity
  8
M1
  6
CONTINUOUS
370
25
 62
     7
100
AcDbLine
 10
416.552157
 20
710.34759
 11
408.552157
 21
705.728785
  0
LINE
  5
310
100
AcDbEntity
  8
M1
  6
CONTINUOUS
370
25
 62
     7
100
AcDbLine
 10
743.094272
 20
773.610102
 11
748.926547
 21
773.610102
  0
LINE
  5
311
100
AcDbEntity
  8
M1
  6
CONTINUOUS
370
25
 62
     7
100
AcDbLine
 10
748.926547
 20
763.60998
 11
743.094272
 21
763.60998
  0
LINE
  5
312
100
AcDbEntity
  8
M1
  6
CONTINUOUS
370
25
 62
     7
100
AcDbLine
 10
748.926547
 20
696.10998
 11
743.094272
 21
696.10998
  0
LINE
  5
313
100
AcDbEntity
  8
M1
  6
CONTINUOUS
370
25
 62
     7
100
AcDbLine
 10
743.094272
 20
706.10998
 11
748.926547
 21
706.10998
  0
LINE
  5
314
100
AcDbEntity
  8
M1
  6
CONTINUOUS
370
25
 62
     7
100
AcDbLine
 10
743.094272
 20
691.87237
 11
748.926547
 21
691.87237
  0
LINE
  5
315
100
AcDbEntity
  8
M1
  6
CONTINUOUS
370
25
 62
     7
100
AcDbLine
 10
748.926547
 20
691.87237
 11
748.926547
 21
701.10998
  0
LINE
  5
316
100
AcDbEntity
  8
M1
  6
CONTINUOUS
370
25
 62
     7
100
AcDbLine
 10
748.926547
 20
701.10998
 11
748.926547
 21
710.34759
  0
LINE
  5
317
100
AcDbEntity
  8
M1
  6
CONTINUOUS
370
25
 62
     7
100
AcDbLine
 10
748.926547
 20
710.34759
 11
743.094272
 21
710.34759
  0
LINE
  5
318
100
AcDbEntity
  8
M1
  6
CONTINUOUS
370
25
 62
     7
100
AcDbLine
 10
748.926547
 20
566.10998
 11
748.926547
 21
556.87237
  0
LINE
  5
319
100
AcDbEntity
  8
M1
  6
CONTINUOUS
370
25
 62
     7
100
AcDbLine
 10
748.926547
 20
556.87237
 11
743.094272
 21
556.87237
  0
LINE
  5
31A
100
AcDbEntity
  8
M1
  6
CONTINUOUS
370
25
 62
     7
100
AcDbLine
 10
743.094272
 20
575.34759
 11
748.926547
 21
575.34759
  0
LINE
  5
31B
100
AcDbEntity
  8
M1
  6
CONTINUOUS
370
25
 62
     7
100
AcDbLine
 10
748.926547
 20
575.34759
 11
748.926547
 21
566.10998
  0
LINE
  5
31C
100
AcDbEntity
  8
M1
  6
CONTINUOUS
370
25
 62
     7
100
AcDbLine
 10
743.094272
 20
561.10998
 11
748.926547
 21
561.10998
  0
LINE
  5
31D
100
AcDbEntity
  8
M1
  6
CONTINUOUS
370
25
 62
     7
100
AcDbLine
 10
748.926547
 20
571.10998
 11
743.094272
 21
571.10998
  0
LINE
  5
31E
100
AcDbEntity
  8
M1
  6
CONTINUOUS
370
25
 62
     7
100
AcDbLine
 10
748.926547
 20
503.60998
 11
743.094272
 21
503.60998
  0
LINE
  5
31F
100
AcDbEntity
  8
M1
  6
CONTINUOUS
370
25
 62
     7
100
AcDbLine
 10
743.094272
 20
493.60998
 11
748.926547
 21
493.60998
  0
LINE
  5
320
100
AcDbEntity
  8
M1
  6
CONTINUOUS
370
25
 62
     7
100
AcDbLine
 10
891.758884
 20
493.60998
 11
885.926547
 21
493.60998
  0
LINE
  5
321
100
AcDbEntity
  8
M1
  6
CONTINUOUS
370
25
 62
     7
100
AcDbLine
 10
885.926547
 20
503.60998
 11
891.758884
 21
503.60998
  0
LINE
  5
322
100
AcDbEntity
  8
M1
  6
CONTINUOUS
370
25
 62
     7
100
AcDbLine
 10
885.926547
 20
571.10998
 11
891.758884
 21
571.10998
  0
LINE
  5
323
100
AcDbEntity
  8
M1
  6
CONTINUOUS
370
25
 62
     7
100
AcDbLine
 10
891.758884
 20
561.10998
 11
885.926547
 21
561.10998
  0
LINE
  5
324
100
AcDbEntity
  8
M1
  6
CONTINUOUS
370
25
 62
     7
100
AcDbLine
 10
891.758884
 20
575.34759
 11
885.926547
 21
575.34759
  0
LINE
  5
325
100
AcDbEntity
  8
M1
  6
CONTINUOUS
370
25
 62
     7
100
AcDbLine
 10
885.926547
 20
575.34759
 11
885.926547
 21
566.10998
  0
LINE
  5
326
100
AcDbEntity
  8
M1
  6
CONTINUOUS
370
25
 62
     7
100
AcDbLine
 10
885.926547
 20
566.10998
 11
885.926547
 21
556.87237
  0
LINE
  5
327
100
AcDbEntity
  8
M1
  6
CONTINUOUS
370
25
 62
     7
100
AcDbLine
 10
885.926547
 20
556.87237
 11
891.758884
 21
556.87237
  0
LINE
  5
328
100
AcDbEntity
  8
M1
  6
CONTINUOUS
370
25
 62
     7
100
AcDbLine
 10
885.926547
 20
701.10998
 11
885.926547
 21
710.34759
  0
LINE
  5
329
100
AcDbEntity
  8
M1
  6
CONTINUOUS
370
25
 62
     7
100
AcDbLine
 10
885.926547
 20
710.34759
 11
891.758884
 21
710.34759
  0
LINE
  5
32A
100
AcDbEntity
  8
M1
  6
CONTINUOUS
370
25
 62
     7
100
AcDbLine
 10
891.758884
 20
691.87237
 11
885.926547
 21
691.87237
  0
LINE
  5
32B
100
AcDbEntity
  8
M1
  6
CONTINUOUS
370
25
 62
     7
100
AcDbLine
 10
885.926547
 20
691.87237
 11
885.926547
 21
701.10998
  0
LINE
  5
32C
100
AcDbEntity
  8
M1
  6
CONTINUOUS
370
25
 62
     7
100
AcDbLine
 10
891.758884
 20
706.10998
 11
885.926547
 21
706.10998
  0
LINE
  5
32D
100
AcDbEntity
  8
M1
  6
CONTINUOUS
370
25
 62
     7
100
AcDbLine
 10
885.926547
 20
696.10998
 11
891.758884
 21
696.10998
  0
LINE
  5
32E
100
AcDbEntity
  8
M1
  6
CONTINUOUS
370
25
 62
     7
100
AcDbLine
 10
885.926547
 20
763.60998
 11
891.758884
 21
763.60998
  0
LINE
  5
32F
100
AcDbEntity
  8
M1
  6
CONTINUOUS
370
25
 62
     7
100
AcDbLine
 10
891.758884
 20
773.610102
 11
885.926547
 21
773.610102
  0
LINE
  5
330
100
AcDbEntity
  8
M1
  6
CONTINUOUS
370
25
 62
     7
100
AcDbLine
 10
1278.727145
 20
705.728785
 11
1278.727145
 21
696.491175
  0
LINE
  5
331
100
AcDbEntity
  8
M1
  6
CONTINUOUS
370
25
 62
     7
100
AcDbLine
 10
1278.727145
 20
696.491175
 11
1270.727145
 21
691.87237
  0
LINE
  5
332
100
AcDbEntity
  8
M1
  6
CONTINUOUS
370
25
 62
     7
100
AcDbLine
 10
1270.727145
 20
691.87237
 11
1262.727145
 21
696.491175
  0
LINE
  5
333
100
AcDbEntity
  8
M1
  6
CONTINUOUS
370
25
 62
     7
100
AcDbLine
 10
1262.727145
 20
696.491175
 11
1262.727145
 21
705.728785
  0
LINE
  5
334
100
AcDbEntity
  8
M1
  6
CONTINUOUS
370
25
 62
     7
100
AcDbLine
 10
1262.727145
 20
705.728785
 11
1270.727145
 21
710.34759
  0
LINE
  5
335
100
AcDbEntity
  8
M1
  6
CONTINUOUS
370
25
 62
     7
100
AcDbLine
 10
1270.727145
 20
710.34759
 11
1278.727145
 21
705.728785
  0
LINE
  5
336
100
AcDbEntity
  8
M1
  6
CONTINUOUS
370
25
 62
     7
100
AcDbLine
 10
1270.727145
 20
575.34759
 11
1278.727145
 21
570.728785
  0
LINE
  5
337
100
AcDbEntity
  8
M1
  6
CONTINUOUS
370
25
 62
     7
100
AcDbLine
 10
1278.727145
 20
570.728785
 11
1278.727145
 21
561.491175
  0
LINE
  5
338
100
AcDbEntity
  8
M1
  6
CONTINUOUS
370
25
 62
     7
100
AcDbLine
 10
1278.727145
 20
561.491175
 11
1270.727145
 21
556.87237
  0
LINE
  5
339
100
AcDbEntity
  8
M1
  6
CONTINUOUS
370
25
 62
     7
100
AcDbLine
 10
1270.727145
 20
556.87237
 11
1262.727145
 21
561.491175
  0
LINE
  5
33A
100
AcDbEntity
  8
M1
  6
CONTINUOUS
370
25
 62
     7
100
AcDbLine
 10
1262.727145
 20
561.491175
 11
1262.727145
 21
570.728785
  0
LINE
  5
33B
100
AcDbEntity
  8
M1
  6
CONTINUOUS
370
25
 62
     7
100
AcDbLine
 10
1262.727145
 20
570.728785
 11
1270.727145
 21
575.34759
  0
LINE
  5
33C
100
AcDbEntity
  8
M1
  6
CONTINUOUS
370
25
 62
     7
100
AcDbLine
 10
1379.640552
 20
503.228785
 11
1387.640552
 21
507.847574
  0
LINE
  5
33D
100
AcDbEntity
  8
M1
  6
CONTINUOUS
370
25
 62
     7
100
AcDbLine
 10
1387.640552
 20
507.847574
 11
1395.640552
 21
503.228785
  0
LINE
  5
33E
100
AcDbEntity
  8
M1
  6
CONTINUOUS
370
25
 62
     7
100
AcDbLine
 10
1395.640552
 20
503.228785
 11
1395.640552
 21
493.991175
  0
LINE
  5
33F
100
AcDbEntity
  8
M1
  6
CONTINUOUS
370
25
 62
     7
100
AcDbLine
 10
1395.640552
 20
493.991175
 11
1387.640552
 21
489.372385
  0
LINE
  5
340
100
AcDbEntity
  8
M1
  6
CONTINUOUS
370
25
 62
     7
100
AcDbLine
 10
1387.640552
 20
489.372385
 11
1379.640552
 21
493.991175
  0
LINE
  5
341
100
AcDbEntity
  8
M1
  6
CONTINUOUS
370
25
 62
     7
100
AcDbLine
 10
1379.640552
 20
493.991175
 11
1379.640552
 21
503.228785
  0
LINE
  5
342
100
AcDbEntity
  8
M1
  6
CONTINUOUS
370
25
 62
     7
100
AcDbLine
 10
1496.553989
 20
561.491175
 11
1496.553989
 21
570.728785
  0
LINE
  5
343
100
AcDbEntity
  8
M1
  6
CONTINUOUS
370
25
 62
     7
100
AcDbLine
 10
1496.553989
 20
570.728785
 11
1504.553989
 21
575.34759
  0
LINE
  5
344
100
AcDbEntity
  8
M1
  6
CONTINUOUS
370
25
 62
     7
100
AcDbLine
 10
1504.553989
 20
575.34759
 11
1512.553989
 21
570.728785
  0
LINE
  5
345
100
AcDbEntity
  8
M1
  6
CONTINUOUS
370
25
 62
     7
100
AcDbLine
 10
1512.553989
 20
570.728785
 11
1512.553989
 21
561.491175
  0
LINE
  5
346
100
AcDbEntity
  8
M1
  6
CONTINUOUS
370
25
 62
     7
100
AcDbLine
 10
1512.553989
 20
561.491175
 11
1504.553989
 21
556.87237
  0
LINE
  5
347
100
AcDbEntity
  8
M1
  6
CONTINUOUS
370
25
 62
     7
100
AcDbLine
 10
1504.553989
 20
556.87237
 11
1496.553989
 21
561.491175
  0
LINE
  5
348
100
AcDbEntity
  8
M1
  6
CONTINUOUS
370
25
 62
     7
100
AcDbLine
 10
1504.553989
 20
691.87237
 11
1496.553989
 21
696.491175
  0
LINE
  5
349
100
AcDbEntity
  8
M1
  6
CONTINUOUS
370
25
 62
     7
100
AcDbLine
 10
1496.553989
 20
696.491175
 11
1496.553989
 21
705.728785
  0
LINE
  5
34A
100
AcDbEntity
  8
M1
  6
CONTINUOUS
370
25
 62
     7
100
AcDbLine
 10
1496.553989
 20
705.728785
 11
1504.553989
 21
710.34759
  0
LINE
  5
34B
100
AcDbEntity
  8
M1
  6
CONTINUOUS
370
25
 62
     7
100
AcDbLine
 10
1504.553989
 20
710.34759
 11
1512.553989
 21
705.728785
  0
LINE
  5
34C
100
AcDbEntity
  8
M1
  6
CONTINUOUS
370
25
 62
     7
100
AcDbLine
 10
1512.553989
 20
705.728785
 11
1512.553989
 21
696.491175
  0
LINE
  5
34D
100
AcDbEntity
  8
M1
  6
CONTINUOUS
370
25
 62
     7
100
AcDbLine
 10
1512.553989
 20
696.491175
 11
1504.553989
 21
691.87237
  0
LINE
  5
34E
100
AcDbEntity
  8
M1
  6
CONTINUOUS
370
25
 62
     7
100
AcDbLine
 10
1395.640552
 20
763.991175
 11
1387.640552
 21
759.37237
  0
LINE
  5
34F
100
AcDbEntity
  8
M1
  6
CONTINUOUS
370
25
 62
     7
100
AcDbLine
 10
1387.640552
 20
759.37237
 11
1379.640552
 21
763.991175
  0
LINE
  5
350
100
AcDbEntity
  8
M1
  6
CONTINUOUS
370
25
 62
     7
100
AcDbLine
 10
1379.640552
 20
763.991175
 11
1379.640552
 21
773.228754
  0
LINE
  5
351
100
AcDbEntity
  8
M1
  6
CONTINUOUS
370
25
 62
     7
100
AcDbLine
 10
1379.640552
 20
773.228754
 11
1387.640552
 21
777.84759
  0
LINE
  5
352
100
AcDbEntity
  8
M1
  6
CONTINUOUS
370
25
 62
     7
100
AcDbLine
 10
1387.640552
 20
777.84759
 11
1395.640552
 21
773.228754
  0
LINE
  5
353
100
AcDbEntity
  8
M1
  6
CONTINUOUS
370
25
 62
     7
100
AcDbLine
 10
1395.640552
 20
773.228754
 11
1395.640552
 21
763.991175
  0
TEXT
  5
354
100
AcDbEntity
  8
M1
100
AcDbText
 10
1480.613848
 20
281.529175
 40
12.5
  1
ＰＯＣ－２０
 41
0.833333
  7
STANDARD
100
AcDbText
  0
TEXT
  5
355
100
AcDbEntity
  8
M1
100
AcDbText
 10
296.877779
 20
381.684298
 40
12.5
  1
Ｄ１
 41
0.833333
  7
STANDARD
100
AcDbText
  0
TEXT
  5
356
100
AcDbEntity
  8
M1
100
AcDbText
 10
810.641817
 20
372.343279
 40
12.5
  1
Ｄ２
 41
0.833333
  7
STANDARD
100
AcDbText
  0
TEXT
  5
357
100
AcDbEntity
  8
M1
100
AcDbText
 10
1391.353838
 20
369.229281
 40
12.5
  1
Ｄ３
 41
0.833333
  7
STANDARD
100
AcDbText
  0
TEXT
  5
358
100
AcDbEntity
  8
M1
100
AcDbText
 10
1453.548784
 20
259.632294
 40
12.5
  1
（ＳＤＫ６０２７）
 41
0.833333
  7
STANDARD
100
AcDbText
  0
LINE
  5
359
100
AcDbEntity
  8
M1
  6
CONTINUOUS
370
25
 62
     7
100
AcDbLine
 10
1374.639556
 20
628.60998
 11
1374.639556
 21
638.60998
  0
LINE
  5
35A
100
AcDbEntity
  8
M1
  6
CONTINUOUS
370
25
 62
     7
100
AcDbLine
 10
1366.639556
 20
628.60998
 11
1366.639556
 21
638.60998
  0
LINE
  5
35B
100
AcDbEntity
  8
M1
  6
CONTINUOUS
370
25
 62
     7
100
AcDbLine
 10
1374.639556
 20
628.60998
 11
1366.639556
 21
628.60998
  0
LINE
  5
35C
100
AcDbEntity
  8
M1
  6
CONTINUOUS
370
25
 62
     7
100
AcDbLine
 10
1374.639556
 20
638.60998
 11
1366.639556
 21
638.60998
  0
ENDSEC
  0
SECTION
  2
OBJECTS
  0
DICTIONARY
  5
C
100
AcDbDictionary
  3
ACAD_GROUP
350
D
  3
ACAD_MLINESTYLE
350
E
  0
DICTIONARY
  5
D
102
{ACAD_REACTORS
330
C
102
}
100
AcDbDictionary
  0
DICTIONARY
  5
E
102
{ACAD_REACTORS
330
C
102
}
100
AcDbDictionary
  3
STANDARD
350
13
  0
MLINESTYLE
  5
13
102
{ACAD_REACTORS
330
E
102
}
100
AcDbMlineStyle
  2
STANDARD
 70
     0
  3

 62
     0
 51
90.0
 52
90.0
 71
     2
 49
0.5
 62
   256
  6
BYLAYER
 49
-0.5
 62
   256
  6
BYLAYER
  0
ENDSEC
  0
EOF
