  0
SECTION
  2
HEADER
  9
$ACADVER
  1
AC1015
  9
$INSBASE
 10
0.0
 20
0.0
  9
$VIEWCTR
 10
7.531722
 20
4.5
  9
$VIEWSIZE
 40
9.0
  9
$SNAPMODE
 70
     0
  9
$SNAPUNIT
 10
1.0
 20
1.0
  9
$SNAPBASE
 10
0.0
 20
0.0
  9
$SNAPANG
 50
0.0
  9
$SNAPSTYLE
 70
     0
  9
$SNAPISOPAIR
 70
     0
  9
$GRIDMODE
 70
     0
  9
$GRIDUNIT
 10
0.0
 20
0.0
  9
$ORTHOMODE
 70
     0
  9
$REGENMODE
 70
     1
  9
$FILLMODE
 70
     1
  9
$QTEXTMODE
 70
     0
  9
$DRAGMODE
 70
     2
  9
$LTSCALE
 40
1.0
  9
$OSMODE
 70
     0
  9
$ATTMODE
 70
     1
  9
$TEXTSIZE
 40
0.2
  9
$TRACEWID
 40
0.05
  9
$TEXTSTYLE
  7
STANDARD
  9
$CELTYPE
  6
BYLAYER
  9
$CECOLOR
 62
   256
  9
$DIMSCALE
 40
1.0
  9
$DIMASZ
 40
0.18
  9
$DIMEXO
 40
0.0625
  9
$DIMDLI
 40
0.38
  9
$DIMRND
 40
0.0
  9
$DIMDLE
 40
0.0
  9
$DIMEXE
 40
0.18
  9
$DIMTP
 40
0.0
  9
$DIMTM
 40
0.0
  9
$DIMTXT
 40
0.18
  9
$DIMCEN
 40
0.09
  9
$DIMTSZ
 40
0.0
  9
$DIMADEC
 70
     0
  9
$DIMALTRND
 40
0.000000
  9
$DIMAZIN
 70
     0
  9
$DIMDSEP
 70
    46
  9
$DIMATFIT
 70
     3
  9
$DIMFRAC
 70
     0
  9
$DIMLDRBLK
  1

  9
$DIMLUNIT
 70
     2
  9
$DIMLWD
 70
   13
  9
$DIMLWE
 70
   13
  9
$DIMTMOVE
 70
     0
  9
$CELWEIGHT
370
    25
  9
$LWDISPLAY
290
    1
  9
$EXTNAMES
290
    1
  9
$DIMTOL
 70
     0
  9
$DIMLIM
 70
     0
  9
$DIMTIH
 70
     1
  9
$DIMTOH
 70
     1
  9
$DIMSE1
 70
     0
  9
$DIMSE2
 70
     0
  9
$DIMTAD
 70
     0
  9
$DIMZIN
 70
     0
  9
$DIMBLK
  1

  9
$LUNITS
 70
     2
  9
$LUPREC
 70
     4
  9
$AXISMODE
 70
     0
  9
$AXISUNIT
 10
0.0
 20
0.0
  9
$SKETCHINC
 40
0.1
  9
$FILLETRAD
 40
0.0
  9
$AUNITS
 70
     0
  9
$AUPREC
 70
     0
  9
$MENU
  1
ACAD
  9
$ELEVATION
 40
0.0
  9
$THICKNESS
 40
0.0
  9
$VIEWDIR
 10
0.0
 20
0.0
 30
1.0
  9
$LIMCHECK
 70
     0
  9
$BLIPMODE
 70
     1
  9
$CHAMFERA
 40
0.0
  9
$CHAMFERB
 40
0.0
  9
$FASTZOOM
 70
     1
  9
$SKPOLY
 70
     0
  9
$TDCREATE
 40
0000000.0000000000
  9
$TDUPDATE
 40
0000000.0000000000
  9
$TDINDWG
 40
0.0000000000
  9
$TDUSRTIMER
 40
0.0000000000
  9
$USRTIMER
 70
     1
  9
$ANGBASE
 50
0.0
  9
$ANGDIR
 70
     0
  9
$PDMODE
 70
     0
  9
$PDSIZE
 40
0.0
  9
$PLINEWID
 40
0.0
  9
$COORDS
 70
     0
  9
$USERI1
 70
     0
  9
$USERI2
 70
     0
  9
$USERI3
 70
     0
  9
$USERI4
 70
     0
  9
$USERI5
 70
     0
  9
$USERR1
 40
0.0
  9
$USERR2
 40
0.0
  9
$USERR3
 40
0.0
  9
$USERR4
 40
0.0
  9
$USERR5
 40
0.0
  9
$CLAYER
  8
M1
  9
$EXTMIN
 10
0.0
 20
0.0
  9
$EXTMAX
 10
841.0
 20
594.0
  9
$LIMMIN
 10
0.0
 20
0.0
  9
$LIMMAX
 10
841.0
 20
594.0
  9
$HANDSEED
  5
1CD
  0
ENDSEC
  0
SECTION
  2
CLASSES
  0
ENDSEC
  0
SECTION
  2
TABLES
  0
TABLE
  2
VPORT
  5
8
100
AcDbSymbolTable
 70
     2
  0
VPORT
  5
14
100
AcDbSymbolTableRecord
100
AcDbViewportTableRecord
  2
*ACTIVE
 70
     0
 10
0.0
 20
0.0
 11
1.0
 21
1.0
 12
484.0
 22
297.0
 13
0.0
 23
0.0
 14
1.0
 24
1.0
 15
0.0
 25
0.0
 16
0.0
 26
0.0
 36
1.0
 17
0.0
 27
0.0
 37
0.0
 40
594.0
 41
2.0
 42
50.0
 43
0.0
 44
0.0
 50
0.0
 51
0.0
 71
     0
 72
   100
 73
     1
 74
     1
 75
     0
 76
     0
 77
     0
 78
     0
  0
ENDTAB
  0
TABLE
  2
LTYPE
  5
5
100
AcDbSymbolTable
 70
     5
  0
LTYPE
  5
15
100
AcDbSymbolTableRecord
100
AcDbLinetypeTableRecord
  2
BYBLOCK
 70
     0
  3

 72
    65
 73
     0
 40
0.0
  0
LTYPE
  5
16
100
AcDbSymbolTableRecord
100
AcDbLinetypeTableRecord
  2
BYLAYER
 70
     0
  3

 72
    65
 73
     0
 40
0.0
  0
LTYPE
  5
17
100
AcDbSymbolTableRecord
100
AcDbLinetypeTableRecord
  2
CONTINUOUS
 70
    64
  3
Solid line
 72
    65
 73
     0
 40
0.0
  0
LTYPE
  5
18
100
AcDbSymbolTableRecord
100
AcDbLinetypeTableRecord
  2
DASHED
 70
    64
  3
__ __ __ __ __ __ __ __ __ __ __ __ __ __ __ __
 72
    65
 73
     2
 40
0.75
 49
0.5
 74
     0
 49
-0.25
 74
     0
  0
LTYPE
  5
19
100
AcDbSymbolTableRecord
100
AcDbLinetypeTableRecord
  2
DASHDOT
 70
    64
  3
__ . __ . __ . __ . __ . __ . __ . __ . __ . __
 72
    65
 73
     4
 40
1.0
 49
0.5
 74
     0
 49
-0.25
 74
     0
 49
0.0
 74
     0
 49
-0.25
 74
     0
  0
LTYPE
  5
1A
100
AcDbSymbolTableRecord
100
AcDbLinetypeTableRecord
  2
DIVIDE
 70
    64
  3
____ . . ____ . . ____ . . ____ . . ____ . . __
 72
    65
 73
     6
 40
1.25
 49
0.5
 74
     0
 49
-0.25
 74
     0
 49
0.0
 74
     0
 49
-0.25
 74
     0
 49
0.0
 74
     0
 49
-0.25
 74
     0
  0
LTYPE
  5
1B
100
AcDbSymbolTableRecord
100
AcDbLinetypeTableRecord
  2
DOT
 70
    64
  3
. . . . . . . . . . . . . . . . . . . . . . . .
 72
    65
 73
     2
 40
0.25
 49
0.0
 74
     0
 49
-0.25
 74
     0
  0
ENDTAB
  0
TABLE
  2
LAYER
  5
2
100
AcDbSymbolTable
 70
   102
  0
LAYER
  5
F
100
AcDbSymbolTableRecord
100
AcDbLayerTableRecord
  2
0
 70
     0
 62
     7
  6
CONTINUOUS
370
     -3
390
F
  0
LAYER
  5
1C
100
AcDbSymbolTableRecord
100
AcDbLayerTableRecord
  2
M1
 70
     0
 62
     7
  6
CONTINUOUS
370
     -3
390
F
  0
ENDTAB
  0
TABLE
  2
STYLE
  5
3
100
AcDbSymbolTable
 70
     2
  0
STYLE
  5
10
100
AcDbSymbolTableRecord
100
AcDbTextStyleTableRecord
  2
STANDARD
 70
     0
 40
0.0
 41
1.0
 50
0.0
 71
     0
 42
0.2
  3
txt
  4
BIGFONT
  0
ENDTAB
  0
TABLE
  2
VIEW
  5
6
100
AcDbSymbolTable
 70
     0
  0
ENDTAB
  0
TABLE
  2
UCS
  5
7
100
AcDbSymbolTable
 70
     0
  0
ENDTAB
  0
TABLE
  2
APPID
  5
9
100
AcDbSymbolTable
 70
     1
  0
APPID
  5
11
100
AcDbSymbolTableRecord
100
AcDbRegAppTableRecord
  2
ACAD
 70
     0
  0
ENDTAB
  0
TABLE
  2
DIMSTYLE
  5
A
100
AcDbSymbolTable
 70
     2
100
AcDbDimStyleTable
 71
     1
  0
DIMSTYLE
105
23
100
AcDbSymbolTableRecord
100
AcDbDimStyleTableRecord
  2
STANDARD
 70
     0
  3

  4

  5

  6
_OPEN
  7
_OPEN
 40
1.0
 41
3.0
 42
0.5
 43
8.0
 44
1.5
 45
0.0
 46
0.0
 47
0.0
 48
0.0
140
3.15
141
0.09
142
0.0
143
0.03937
144
1.0
145
0.0
146
1.0
147
1.0
148
0.000000
 71
     0
 72
     0
 73
     0
 74
     0
 75
     0
 76
     0
 77
     3
 78
     8
170
     0
171
     2
172
     0
173
     1
174
     0
175
     0
176
     0
177
     0
178
     0
270
     2
271
     2
272
     4
273
     2
274
     2
340
10
275
     0
278
    46
280
     0
281
     0
282
     0
283
     1
284
     0
285
     0
286
     0
287
     3
288
     0
371
   13
372
   13
  0
DIMSTYLE
105
24
100
AcDbSymbolTableRecord
100
AcDbDimStyleTableRecord
  2
LEADSTYL
 70
     0
  3

  4

  5

  6
_OPEN
  7
_OPEN
 40
1.0
 41
3.0
 42
0.0625
 43
0.38
 44
0.18
 45
0.0
 46
0.0
 47
0.0
 48
0.0
140
3.15
141
0.09
142
0.0
143
25.4
144
1.0
145
0.0
146
1.0
147
1.0
 71
     0
 72
     0
 73
     1
 74
     1
 75
     0
 76
     0
 77
     0
 78
     0
170
     0
171
     2
172
     0
173
     1
174
     0
175
     0
176
     0
177
     0
178
     0
270
     2
271
     4
272
     4
273
     2
274
     2
340
10
275
     0
280
     0
281
     0
282
     0
283
     1
284
     0
285
     0
286
     0
287
     3
288
     0
  0
ENDTAB
  0
TABLE
  2
BLOCK_RECORD
  5
1
100
AcDbSymbolTable
 70
     6
  0
BLOCK_RECORD
  5
1D
100
AcDbSymbolTableRecord
100
AcDbBlockTableRecord
  2
*MODEL_SPACE
  0
BLOCK_RECORD
  5
20
100
AcDbSymbolTableRecord
100
AcDbBlockTableRecord
  2
*PAPER_SPACE
  0
BLOCK_RECORD
  5
25
100
AcDbSymbolTableRecord
100
AcDbBlockTableRecord
  2
_NONE
  0
BLOCK_RECORD
  5
29
100
AcDbSymbolTableRecord
100
AcDbBlockTableRecord
  2
_OPEN
  0
BLOCK_RECORD
  5
2F
100
AcDbSymbolTableRecord
100
AcDbBlockTableRecord
  2
_CLOSED
  0
BLOCK_RECORD
  5
36
100
AcDbSymbolTableRecord
100
AcDbBlockTableRecord
  2
_ORIGIN
  0
BLOCK_RECORD
  5
3B
100
AcDbSymbolTableRecord
100
AcDbBlockTableRecord
  2
_DOT
  0
BLOCK_RECORD
  5
43
100
AcDbSymbolTableRecord
100
AcDbBlockTableRecord
  2
_OBLIQUE
  0
ENDTAB
  0
ENDSEC
  0
SECTION
  2
BLOCKS
  0
BLOCK
  5
1E
100
AcDbEntity
  8
0
100
AcDbBlockBegin
  2
*MODEL_SPACE
 70
     0
 10
0.0
 20
0.0
 30
0.0
  3
*MODEL_SPACE
  1

  0
ENDBLK
  5
1F
100
AcDbEntity
  8
0
100
AcDbBlockEnd
  0
BLOCK
  5
21
100
AcDbEntity
 67
     1
  8
0
100
AcDbBlockBegin
  2
*PAPER_SPACE
 70
     0
 10
0.0
 20
0.0
 30
0.0
  3
*PAPER_SPACE
  1

  0
ENDBLK
  5
22
100
AcDbEntity
 67
     1
  8
0
100
AcDbBlockEnd
  0
BLOCK
  5
26
100
AcDbEntity
  8
0
100
AcDbBlockBegin
  2
_NONE
 70
     0
 10
0.0
 20
0.0
  0
CIRCLE
  5
27
100
AcDbEntity
  8
0
 62
     0
370
13
100
AcDbCircle
 10
0.0
 20
0.0
 40
0.25
  0
ENDBLK
  5
28
100
AcDbEntity
  8
0
100
AcDbBlockEnd
  0
BLOCK
  5
2A
100
AcDbEntity
  8
0
100
AcDbBlockBegin
  2
_OPEN
 70
     0
 10
0.0
 20
0.0
  0
LINE
  5
2B
100
AcDbEntity
  8
0
 62
     0
370
13
100
AcDbLine
 10
-0.965926
 20
0.258819
 11
0.0
 21
0.0
  0
LINE
  5
2C
100
AcDbEntity
  8
0
 62
     0
370
13
100
AcDbLine
 10
0.0
 20
0.0
 11
-0.965926
 21
-0.258819
  0
LINE
  5
2D
100
AcDbEntity
  8
0
 62
     0
370
13
100
AcDbLine
 10
0.0
 20
0.0
 11
-1.0
 21
0.0
  0
ENDBLK
  5
2E
100
AcDbEntity
  8
0
100
AcDbBlockEnd
  0
BLOCK
  5
30
100
AcDbEntity
  8
0
100
AcDbBlockBegin
  2
_CLOSED
 70
     0
 10
0.0
 20
0.0
  0
LINE
  5
31
100
AcDbEntity
  8
0
 62
     0
370
13
100
AcDbLine
 10
-0.965926
 20
0.258819
 11
0.0
 21
0.0
  0
LINE
  5
32
100
AcDbEntity
  8
0
 62
     0
370
13
100
AcDbLine
 10
0.0
 20
0.0
 11
-0.965926
 21
-0.258819
  0
LINE
  5
33
100
AcDbEntity
  8
0
 62
     0
370
13
100
AcDbLine
 10
-0.965926
 20
0.258819
 11
-0.965926
 21
-0.258819
  0
LINE
  5
34
100
AcDbEntity
  8
0
 62
     0
370
13
100
AcDbLine
 10
0.0
 20
0.0
 11
-1.0
 21
0.0
  0
ENDBLK
  5
35
100
AcDbEntity
  8
0
100
AcDbBlockEnd
  0
BLOCK
  5
37
100
AcDbEntity
  8
0
100
AcDbBlockBegin
  2
_ORIGIN
 70
     0
 10
0.0
 20
0.0
  0
CIRCLE
  5
38
100
AcDbEntity
  8
0
 62
     0
370
13
100
AcDbCircle
 10
0.0
 20
0.0
 40
0.5
  0
LINE
  5
39
100
AcDbEntity
  8
0
 62
     0
370
13
100
AcDbLine
 10
0.0
 20
0.0
 11
-1.0
 21
0.0
  0
ENDBLK
  5
3A
100
AcDbEntity
  8
0
100
AcDbBlockEnd
  0
BLOCK
  5
3C
100
AcDbEntity
  8
0
100
AcDbBlockBegin
  2
_DOT
 70
     0
 10
0.0
 20
0.0
  0
POLYLINE
  5
3D
100
AcDbEntity
  8
0
 62
     0
100
AcDb2dPolyline
 66
     1
 70
     1
 40
0.5
 41
0.5
  0
VERTEX
  5
3E
100
AcDbEntity
  8
0
 62
     0
100
AcDbVertex
100
AcDb2dVertex
 10
-0.25
 20
0.0
 42
1.0
  0
VERTEX
  5
3F
100
AcDbEntity
  8
0
 62
     0
100
AcDbVertex
100
AcDb2dVertex
 10
0.25
 20
0.0
 42
1.0
  0
SEQEND
  5
40
100
AcDbEntity
  8
0
 62
     0
  0
LINE
  5
41
100
AcDbEntity
  8
0
 62
     0
370
13
100
AcDbLine
 10
-0.5
 20
0.0
 11
-1.0
 21
0.0
  0
ENDBLK
  5
42
100
AcDbEntity
  8
0
100
AcDbBlockEnd
  0
BLOCK
  5
44
100
AcDbEntity
  8
0
100
AcDbBlockBegin
  2
_OBLIQUE
 70
     0
 10
0.0
 20
0.0
  0
LINE
  5
45
100
AcDbEntity
  8
0
 62
     0
370
13
100
AcDbLine
 10
-0.353553
 20
-0.353553
 11
0.353553
 21
0.353553
  0
ENDBLK
  5
46
100
AcDbEntity
  8
0
100
AcDbBlockEnd
  0
ENDSEC
  0
SECTION
  2
ENTITIES
  0
LINE
  5
47
100
AcDbEntity
  8
M1
  6
CONTINUOUS
370
25
100
AcDbLine
 10
241.642448
 20
304.431973
 11
246.039665
 21
304.431973
  0
LINE
  5
48
100
AcDbEntity
  8
M1
  6
CONTINUOUS
370
25
100
AcDbLine
 10
244.214622
 20
341.052243
 11
244.214622
 21
331.481854
  0
LINE
  5
49
100
AcDbEntity
  8
M1
  6
CONTINUOUS
370
25
100
AcDbLine
 10
288.53466
 20
326.843976
 11
288.53466
 21
330.018979
  0
LINE
  5
4A
100
AcDbEntity
  8
M1
  6
CONTINUOUS
370
25
100
AcDbLine
 10
285.78463
 20
325.255963
 11
288.53466
 21
326.843976
  0
LINE
  5
4B
100
AcDbEntity
  8
M1
  6
CONTINUOUS
370
25
100
AcDbLine
 10
283.034691
 20
326.843961
 11
285.78466
 21
325.255979
  0
LINE
  5
4C
100
AcDbEntity
  8
M1
  6
CONTINUOUS
370
25
100
AcDbLine
 10
283.03466
 20
330.018979
 11
283.03466
 21
326.843976
  0
LINE
  5
4D
100
AcDbEntity
  8
M1
  6
CONTINUOUS
370
25
100
AcDbLine
 10
285.78466
 20
331.606976
 11
283.03463
 21
330.018964
  0
LINE
  5
4E
100
AcDbEntity
  8
M1
  6
CONTINUOUS
370
25
100
AcDbLine
 10
288.53466
 20
330.018979
 11
285.78463
 21
331.606992
  0
LINE
  5
4F
100
AcDbEntity
  8
M1
  6
CONTINUOUS
370
25
100
AcDbLine
 10
288.533623
 20
282.018979
 11
285.783653
 21
283.606961
  0
LINE
  5
50
100
AcDbEntity
  8
M1
  6
CONTINUOUS
370
25
100
AcDbLine
 10
288.533653
 20
278.843991
 11
288.533653
 21
282.018979
  0
LINE
  5
51
100
AcDbEntity
  8
M1
  6
CONTINUOUS
370
25
100
AcDbLine
 10
285.783562
 20
277.256177
 11
288.533592
 21
278.84419
  0
LINE
  5
52
100
AcDbEntity
  8
M1
  6
CONTINUOUS
370
25
100
AcDbLine
 10
283.033684
 20
278.843915
 11
285.783684
 21
277.255918
  0
LINE
  5
53
100
AcDbEntity
  8
M1
  6
CONTINUOUS
370
25
100
AcDbLine
 10
283.033653
 20
282.018979
 11
283.033653
 21
278.843991
  0
LINE
  5
54
100
AcDbEntity
  8
M1
  6
CONTINUOUS
370
25
100
AcDbLine
 10
285.783745
 20
283.606946
 11
283.033714
 21
282.018933
  0
LINE
  5
55
100
AcDbEntity
  8
M1
  6
CONTINUOUS
370
25
100
AcDbLine
 10
246.964592
 20
258.018979
 11
244.214622
 21
259.606976
  0
LINE
  5
56
100
AcDbEntity
  8
M1
  6
CONTINUOUS
370
25
100
AcDbLine
 10
246.964622
 20
254.843991
 11
246.964622
 21
258.018979
  0
LINE
  5
57
100
AcDbEntity
  8
M1
  6
CONTINUOUS
370
25
100
AcDbLine
 10
244.214683
 20
253.255795
 11
246.964775
 21
254.843839
  0
LINE
  5
58
100
AcDbEntity
  8
M1
  6
CONTINUOUS
370
25
100
AcDbLine
 10
241.464683
 20
254.844007
 11
244.214714
 21
253.255994
  0
LINE
  5
59
100
AcDbEntity
  8
M1
  6
CONTINUOUS
370
25
100
AcDbLine
 10
241.464622
 20
258.018979
 11
241.464622
 21
254.843991
  0
LINE
  5
5A
100
AcDbEntity
  8
M1
  6
CONTINUOUS
370
25
100
AcDbLine
 10
244.214561
 20
259.607038
 11
241.464592
 21
258.019055
  0
LINE
  5
5B
100
AcDbEntity
  8
M1
  6
CONTINUOUS
370
25
100
AcDbLine
 10
202.645775
 20
283.606992
 11
199.895775
 21
282.020017
  0
LINE
  5
5C
100
AcDbEntity
  8
M1
  6
CONTINUOUS
370
25
100
AcDbLine
 10
205.395653
 20
282.019971
 11
202.645653
 21
283.606946
  0
LINE
  5
5D
100
AcDbEntity
  8
M1
  6
CONTINUOUS
370
25
100
AcDbLine
 10
205.395653
 20
278.843991
 11
205.395653
 21
282.019986
  0
LINE
  5
5E
100
AcDbEntity
  8
M1
  6
CONTINUOUS
370
25
100
AcDbLine
 10
202.645653
 20
277.255994
 11
205.395653
 21
278.843976
  0
LINE
  5
5F
100
AcDbEntity
  8
M1
  6
CONTINUOUS
370
25
100
AcDbLine
 10
199.895653
 20
278.843915
 11
202.645653
 21
277.255933
  0
LINE
  5
60
100
AcDbEntity
  8
M1
  6
CONTINUOUS
370
25
100
AcDbLine
 10
199.895653
 20
282.019986
 11
199.895653
 21
278.843991
  0
LINE
  5
61
100
AcDbEntity
  8
M1
  6
CONTINUOUS
370
25
100
AcDbLine
 10
205.395714
 20
330.018933
 11
202.64669
 21
331.606946
  0
LINE
  5
62
100
AcDbEntity
  8
M1
  6
CONTINUOUS
370
25
100
AcDbLine
 10
205.395653
 20
326.843976
 11
205.395653
 21
330.018979
  0
LINE
  5
63
100
AcDbEntity
  8
M1
  6
CONTINUOUS
370
25
100
AcDbLine
 10
202.646568
 20
325.256009
 11
205.395592
 21
326.843991
  0
LINE
  5
64
100
AcDbEntity
  8
M1
  6
CONTINUOUS
370
25
100
AcDbLine
 10
199.895653
 20
326.843991
 11
202.646629
 21
325.256009
  0
LINE
  5
65
100
AcDbEntity
  8
M1
  6
CONTINUOUS
370
25
100
AcDbLine
 10
199.895653
 20
330.018979
 11
199.895653
 21
326.843976
  0
LINE
  5
66
100
AcDbEntity
  8
M1
  6
CONTINUOUS
370
25
100
AcDbLine
 10
202.646629
 20
331.606931
 11
199.895653
 21
330.018949
  0
LINE
  5
67
100
AcDbEntity
  8
M1
  6
CONTINUOUS
370
25
100
AcDbLine
 10
246.964683
 20
354.018964
 11
244.214653
 21
355.606976
  0
LINE
  5
68
100
AcDbEntity
  8
M1
  6
CONTINUOUS
370
25
100
AcDbLine
 10
246.964622
 20
350.843991
 11
246.964622
 21
354.018979
  0
LINE
  5
69
100
AcDbEntity
  8
M1
  6
CONTINUOUS
370
25
100
AcDbLine
 10
244.214592
 20
349.255979
 11
246.964592
 21
350.843976
  0
LINE
  5
6A
100
AcDbEntity
  8
M1
  6
CONTINUOUS
370
25
100
AcDbLine
 10
241.464683
 20
350.843976
 11
244.214653
 21
349.255994
  0
LINE
  5
6B
100
AcDbEntity
  8
M1
  6
CONTINUOUS
370
25
100
AcDbLine
 10
241.464622
 20
354.018979
 11
241.464622
 21
350.843991
  0
LINE
  5
6C
100
AcDbEntity
  8
M1
  6
CONTINUOUS
370
25
100
AcDbLine
 10
244.214622
 20
355.606961
 11
241.464653
 21
354.018979
  0
LINE
  5
6D
100
AcDbEntity
  8
M1
  6
CONTINUOUS
370
25
100
AcDbLine
 10
268.031395
 20
318.181348
 11
275.825371
 21
322.681348
  0
LINE
  5
6E
100
AcDbEntity
  8
M1
  6
CONTINUOUS
370
25
100
AcDbLine
 10
268.030754
 20
290.682065
 11
275.280785
 21
286.49606
  0
LINE
  5
6F
100
AcDbEntity
  8
M1
  6
CONTINUOUS
370
25
100
AcDbLine
 10
212.953819
 20
286.382718
 11
220.399864
 21
290.681714
  0
LINE
  5
70
100
AcDbEntity
  8
M1
  6
CONTINUOUS
370
25
100
AcDbLine
 10
212.863609
 20
322.533093
 11
220.399651
 21
318.182065
  0
LINE
  5
71
100
AcDbEntity
  8
M1
  6
CONTINUOUS
370
25
100
AcDbLine
 10
459.214653
 20
244.431973
 11
424.214653
 21
244.431973
  0
LINE
  5
72
100
AcDbEntity
  8
M1
  6
CONTINUOUS
370
25
100
AcDbLine
 10
424.214653
 20
244.431973
 11
424.214653
 21
364.431973
  0
LINE
  5
73
100
AcDbEntity
  8
M1
  6
CONTINUOUS
370
25
100
AcDbLine
 10
421.714653
 20
251.931973
 11
421.714653
 21
356.931973
  0
LINE
  5
74
100
AcDbEntity
  8
M1
  6
CONTINUOUS
370
25
100
AcDbLine
 10
424.214653
 20
251.931973
 11
421.714653
 21
251.931973
  0
LINE
  5
75
100
AcDbEntity
  8
M1
  6
CONTINUOUS
370
25
100
AcDbLine
 10
424.214653
 20
356.931973
 11
421.714653
 21
356.931973
  0
LINE
  5
76
100
AcDbEntity
  8
M1
  6
CONTINUOUS
370
25
100
AcDbLine
 10
420.914635
 20
253.431973
 11
420.914635
 21
355.431973
  0
LINE
  5
77
100
AcDbEntity
  8
M1
  6
CONTINUOUS
370
25
100
AcDbLine
 10
411.714653
 20
266.706983
 11
411.714653
 21
342.155988
  0
LINE
  5
78
100
AcDbEntity
  8
M1
  6
CONTINUOUS
370
25
100
AcDbLine
 10
406.714653
 20
266.931973
 11
406.714653
 21
341.931973
  0
LINE
  5
79
100
AcDbEntity
  8
M1
  6
CONTINUOUS
370
25
100
AcDbLine
 10
421.714653
 20
355.431973
 11
420.914635
 21
355.431973
  0
LINE
  5
7A
100
AcDbEntity
  8
M1
  6
CONTINUOUS
370
25
100
AcDbLine
 10
421.714653
 20
253.431973
 11
420.914635
 21
253.431973
  0
LINE
  5
7B
100
AcDbEntity
  8
M1
  6
CONTINUOUS
370
25
100
AcDbLine
 10
420.270531
 20
347.687207
 11
413.841545
 21
345.241208
  0
LINE
  5
7C
100
AcDbEntity
  8
M1
  6
CONTINUOUS
370
25
100
AcDbLine
 10
420.270653
 20
261.176999
 11
413.841698
 21
263.622998
  0
LINE
  5
7D
100
AcDbEntity
  8
M1
  6
CONTINUOUS
370
25
100
AcDbLine
 10
411.714653
 20
341.931973
 11
406.714653
 21
341.931973
  0
LINE
  5
7E
100
AcDbEntity
  8
M1
  6
CONTINUOUS
370
25
100
AcDbLine
 10
411.714653
 20
266.931973
 11
406.714653
 21
266.931973
  0
LINE
  5
7F
100
AcDbEntity
  8
M1
  6
CONTINUOUS
370
25
100
AcDbLine
 10
406.714653
 20
325.431973
 11
395.714653
 21
325.431973
  0
LINE
  5
80
100
AcDbEntity
  8
M1
  6
CONTINUOUS
370
25
100
AcDbLine
 10
406.714653
 20
283.431973
 11
395.714653
 21
283.431973
  0
LINE
  5
81
100
AcDbEntity
  8
M1
  6
CONTINUOUS
370
25
100
AcDbLine
 10
395.714653
 20
315.03198
 11
394.714653
 21
315.03198
  0
LINE
  5
82
100
AcDbEntity
  8
M1
  6
CONTINUOUS
370
25
100
AcDbLine
 10
395.714653
 20
293.831983
 11
394.714653
 21
293.831983
  0
LINE
  5
83
100
AcDbEntity
  8
M1
  6
CONTINUOUS
370
25
100
AcDbLine
 10
394.714653
 20
293.831983
 11
394.714653
 21
315.03198
  0
LINE
  5
84
100
AcDbEntity
  8
M1
  6
CONTINUOUS
370
25
100
AcDbLine
 10
388.714653
 20
296.931973
 11
388.714653
 21
311.931973
  0
LINE
  5
85
100
AcDbEntity
  8
M1
  6
CONTINUOUS
370
25
100
AcDbLine
 10
394.714653
 20
311.931973
 11
388.714653
 21
311.931973
  0
LINE
  5
86
100
AcDbEntity
  8
M1
  6
CONTINUOUS
370
25
100
AcDbLine
 10
394.714653
 20
296.931973
 11
388.714653
 21
296.931973
  0
LINE
  5
87
100
AcDbEntity
  8
M1
  6
CONTINUOUS
370
25
100
AcDbLine
 10
365.714653
 20
299.431973
 11
365.714653
 21
309.431973
  0
LINE
  5
88
100
AcDbEntity
  8
M1
  6
CONTINUOUS
370
25
100
AcDbLine
 10
386.714653
 20
309.431973
 11
365.714653
 21
309.431973
  0
LINE
  5
89
100
AcDbEntity
  8
M1
  6
CONTINUOUS
370
25
100
AcDbLine
 10
386.714653
 20
299.431973
 11
365.714653
 21
299.431973
  0
LINE
  5
8A
100
AcDbEntity
  8
M1
  6
CONTINUOUS
370
25
100
AcDbLine
 10
424.214653
 20
364.431973
 11
459.214653
 21
364.431973
  0
LINE
  5
8B
100
AcDbEntity
  8
M1
  6
CONTINUOUS
370
25
100
AcDbLine
 10
420.214653
 20
331.380994
 11
420.914635
 21
331.380994
  0
LINE
  5
8C
100
AcDbEntity
  8
M1
  6
CONTINUOUS
370
25
100
AcDbLine
 10
420.914635
 20
325.480985
 11
420.214653
 21
325.480985
  0
LINE
  5
8D
100
AcDbEntity
  8
M1
  6
CONTINUOUS
370
25
100
AcDbLine
 10
420.214653
 20
325.254987
 11
420.214653
 21
331.605985
  0
LINE
  5
8E
100
AcDbEntity
  8
M1
  6
CONTINUOUS
370
25
100
AcDbLine
 10
418.456627
 20
331.605985
 11
420.214653
 21
331.605985
  0
LINE
  5
8F
100
AcDbEntity
  8
M1
  6
CONTINUOUS
370
25
100
AcDbLine
 10
420.214653
 20
325.254987
 11
418.456627
 21
325.254987
  0
LINE
  5
90
100
AcDbEntity
  8
M1
  6
CONTINUOUS
370
25
100
AcDbLine
 10
418.214653
 20
326.092984
 11
418.214653
 21
330.767987
  0
LINE
  5
91
100
AcDbEntity
  8
M1
  6
CONTINUOUS
370
25
100
AcDbLine
 10
418.456627
 20
329.930982
 11
420.214653
 21
329.930982
  0
LINE
  5
92
100
AcDbEntity
  8
M1
  6
CONTINUOUS
370
25
100
AcDbLine
 10
420.214653
 20
326.930982
 11
418.456627
 21
326.930982
  0
LINE
  5
93
100
AcDbEntity
  8
M1
  6
CONTINUOUS
370
25
100
AcDbLine
 10
600.273415
 20
304.431973
 11
594.06559
 21
304.431973
  0
LINE
  5
94
100
AcDbEntity
  8
M1
  6
CONTINUOUS
370
25
100
AcDbLine
 10
461.714653
 20
356.931973
 11
461.714653
 21
251.931973
  0
LINE
  5
95
100
AcDbEntity
  8
M1
  6
CONTINUOUS
370
25
100
AcDbLine
 10
461.714653
 20
356.931973
 11
459.214653
 21
356.931973
  0
LINE
  5
96
100
AcDbEntity
  8
M1
  6
CONTINUOUS
370
25
100
AcDbLine
 10
461.714653
 20
251.931973
 11
459.214653
 21
251.931973
  0
LINE
  5
97
100
AcDbEntity
  8
M1
  6
CONTINUOUS
370
25
100
AcDbLine
 10
463.014641
 20
355.431973
 11
463.014641
 21
349.901975
  0
LINE
  5
98
100
AcDbEntity
  8
M1
  6
CONTINUOUS
370
25
100
AcDbLine
 10
463.014641
 20
355.431973
 11
461.714653
 21
355.431973
  0
LINE
  5
99
100
AcDbEntity
  8
M1
  6
CONTINUOUS
370
25
100
AcDbLine
 10
463.014641
 20
253.431973
 11
461.714653
 21
253.431973
  0
LINE
  5
9A
100
AcDbEntity
  8
M1
  6
CONTINUOUS
370
25
100
AcDbLine
 10
471.078636
 20
293.657987
 11
468.414635
 21
293.657987
  0
LINE
  5
9B
100
AcDbEntity
  8
M1
  6
CONTINUOUS
370
25
100
AcDbLine
 10
468.414635
 20
305.204984
 11
471.078636
 21
305.204984
  0
LINE
  5
9C
100
AcDbEntity
  8
M1
  6
CONTINUOUS
370
25
100
AcDbLine
 10
471.614647
 20
303.818982
 11
471.614647
 21
295.04498
  0
LINE
  5
9D
100
AcDbEntity
  8
M1
  6
CONTINUOUS
370
25
100
AcDbLine
 10
471.078636
 20
296.431973
 11
468.414635
 21
296.431973
  0
LINE
  5
9E
100
AcDbEntity
  8
M1
  6
CONTINUOUS
370
25
100
AcDbLine
 10
468.414635
 20
302.431973
 11
471.078636
 21
302.431973
  0
LINE
  5
9F
100
AcDbEntity
  8
M1
  6
CONTINUOUS
370
25
100
AcDbLine
 10
459.214653
 20
364.431973
 11
459.214653
 21
244.431973
  0
LINE
  5
A0
100
AcDbEntity
  8
M1
  6
CONTINUOUS
370
25
100
AcDbLine
 10
463.014641
 20
355.431973
 11
463.014641
 21
253.431973
  0
LINE
  5
A1
100
AcDbEntity
  8
M1
  6
CONTINUOUS
370
25
100
AcDbLine
 10
468.414635
 20
343.931973
 11
468.414635
 21
264.931973
  0
LINE
  5
A2
100
AcDbEntity
  8
M1
  6
CONTINUOUS
370
25
100
AcDbLine
 10
471.078636
 20
308.657987
 11
468.414635
 21
308.657987
  0
LINE
  5
A3
100
AcDbEntity
  8
M1
  6
CONTINUOUS
370
25
100
AcDbLine
 10
468.414635
 20
320.204984
 11
471.078636
 21
320.204984
  0
LINE
  5
A4
100
AcDbEntity
  8
M1
  6
CONTINUOUS
370
25
100
AcDbLine
 10
471.614647
 20
318.817975
 11
471.614647
 21
310.04498
  0
LINE
  5
A5
100
AcDbEntity
  8
M1
  6
CONTINUOUS
370
25
100
AcDbLine
 10
471.078636
 20
311.431973
 11
468.414635
 21
311.431973
  0
LINE
  5
A6
100
AcDbEntity
  8
M1
  6
CONTINUOUS
370
25
100
AcDbLine
 10
468.414635
 20
317.431973
 11
471.078636
 21
317.431973
  0
LINE
  5
A7
100
AcDbEntity
  8
M1
  6
CONTINUOUS
370
25
100
AcDbLine
 10
395.714653
 20
283.431973
 11
395.714653
 21
311.931973
  0
LINE
  5
A8
100
AcDbEntity
  8
M1
  6
CONTINUOUS
370
25
100
AcDbLine
 10
395.714653
 20
311.931973
 11
395.714653
 21
325.431973
  0
LINE
  5
A9
100
AcDbEntity
  8
M1
  6
CONTINUOUS
370
25
100
AcDbLine
 10
385.714653
 20
302.431973
 11
385.714653
 21
306.431973
  0
LINE
  5
AA
100
AcDbEntity
  8
M1
  6
CONTINUOUS
370
25
100
AcDbLine
 10
420.214653
 20
355.381986
 11
420.914635
 21
355.381986
  0
LINE
  5
AB
100
AcDbEntity
  8
M1
  6
CONTINUOUS
370
25
100
AcDbLine
 10
420.914635
 20
349.481992
 11
420.214653
 21
349.481992
  0
LINE
  5
AC
100
AcDbEntity
  8
M1
  6
CONTINUOUS
370
25
100
AcDbLine
 10
420.214653
 20
349.255979
 11
420.214653
 21
355.606992
  0
LINE
  5
AD
100
AcDbEntity
  8
M1
  6
CONTINUOUS
370
25
100
AcDbLine
 10
418.456627
 20
355.606992
 11
420.214653
 21
355.606992
  0
LINE
  5
AE
100
AcDbEntity
  8
M1
  6
CONTINUOUS
370
25
100
AcDbLine
 10
420.214653
 20
349.255979
 11
418.456627
 21
349.255979
  0
LINE
  5
AF
100
AcDbEntity
  8
M1
  6
CONTINUOUS
370
25
100
AcDbLine
 10
418.214653
 20
350.093991
 11
418.214653
 21
354.768979
  0
LINE
  5
B0
100
AcDbEntity
  8
M1
  6
CONTINUOUS
370
25
100
AcDbLine
 10
418.456627
 20
353.931973
 11
420.214653
 21
353.931973
  0
LINE
  5
B1
100
AcDbEntity
  8
M1
  6
CONTINUOUS
370
25
100
AcDbLine
 10
420.214653
 20
350.931973
 11
418.456627
 21
350.931973
  0
LINE
  5
B2
100
AcDbEntity
  8
M1
  6
CONTINUOUS
370
25
100
AcDbLine
 10
421.714653
 20
253.431973
 11
420.914635
 21
253.431973
  0
LINE
  5
B3
100
AcDbEntity
  8
M1
  6
CONTINUOUS
370
25
100
AcDbLine
 10
420.214653
 20
277.482953
 11
420.914635
 21
277.482953
  0
LINE
  5
B4
100
AcDbEntity
  8
M1
  6
CONTINUOUS
370
25
100
AcDbLine
 10
420.914635
 20
283.382962
 11
420.214653
 21
283.382962
  0
LINE
  5
B5
100
AcDbEntity
  8
M1
  6
CONTINUOUS
370
25
100
AcDbLine
 10
420.214653
 20
283.60896
 11
420.214653
 21
277.257962
  0
LINE
  5
B6
100
AcDbEntity
  8
M1
  6
CONTINUOUS
370
25
100
AcDbLine
 10
418.456627
 20
277.257962
 11
420.214653
 21
277.257962
  0
LINE
  5
B7
100
AcDbEntity
  8
M1
  6
CONTINUOUS
370
25
100
AcDbLine
 10
420.214653
 20
283.60896
 11
418.456627
 21
283.60896
  0
LINE
  5
B8
100
AcDbEntity
  8
M1
  6
CONTINUOUS
370
25
100
AcDbLine
 10
418.214653
 20
282.770963
 11
418.214653
 21
278.09596
  0
LINE
  5
B9
100
AcDbEntity
  8
M1
  6
CONTINUOUS
370
25
100
AcDbLine
 10
418.456627
 20
278.932965
 11
420.214653
 21
278.932965
  0
LINE
  5
BA
100
AcDbEntity
  8
M1
  6
CONTINUOUS
370
25
100
AcDbLine
 10
420.214653
 20
281.932965
 11
418.456627
 21
281.932965
  0
LINE
  5
BB
100
AcDbEntity
  8
M1
  6
CONTINUOUS
370
25
100
AcDbLine
 10
420.214775
 20
280.432889
 11
420.914757
 21
281.132886
  0
LINE
  5
BC
100
AcDbEntity
  8
M1
  6
CONTINUOUS
370
25
100
AcDbLine
 10
420.214714
 20
279.732877
 11
420.914726
 21
280.432904
  0
LINE
  5
BD
100
AcDbEntity
  8
M1
  6
CONTINUOUS
370
25
100
AcDbLine
 10
420.214653
 20
253.481961
 11
420.914635
 21
253.481961
  0
LINE
  5
BE
100
AcDbEntity
  8
M1
  6
CONTINUOUS
370
25
100
AcDbLine
 10
420.914635
 20
259.38197
 11
420.214653
 21
259.38197
  0
LINE
  5
BF
100
AcDbEntity
  8
M1
  6
CONTINUOUS
370
25
100
AcDbLine
 10
420.214653
 20
259.607968
 11
420.214653
 21
253.25697
  0
LINE
  5
C0
100
AcDbEntity
  8
M1
  6
CONTINUOUS
370
25
100
AcDbLine
 10
418.456627
 20
253.25697
 11
420.214653
 21
253.25697
  0
LINE
  5
C1
100
AcDbEntity
  8
M1
  6
CONTINUOUS
370
25
100
AcDbLine
 10
420.214653
 20
259.607968
 11
418.456627
 21
259.607968
  0
LINE
  5
C2
100
AcDbEntity
  8
M1
  6
CONTINUOUS
370
25
100
AcDbLine
 10
418.214653
 20
258.769971
 11
418.214653
 21
254.094968
  0
LINE
  5
C3
100
AcDbEntity
  8
M1
  6
CONTINUOUS
370
25
100
AcDbLine
 10
418.456627
 20
254.931973
 11
420.214653
 21
254.931973
  0
LINE
  5
C4
100
AcDbEntity
  8
M1
  6
CONTINUOUS
370
25
100
AcDbLine
 10
420.214653
 20
257.931973
 11
418.456627
 21
257.931973
  0
LINE
  5
C5
100
AcDbEntity
  8
M1
  6
CONTINUOUS
370
25
100
AcDbLine
 10
420.214775
 20
256.431867
 11
420.914787
 21
257.131879
  0
LINE
  5
C6
100
AcDbEntity
  8
M1
  6
CONTINUOUS
370
25
100
AcDbLine
 10
420.214714
 20
255.731885
 11
420.914757
 21
256.431912
  0
LINE
  5
C7
100
AcDbEntity
  8
M1
  6
CONTINUOUS
370
25
100
AcDbLine
 10
462.214653
 20
355.431973
 11
463.014671
 21
355.431973
  0
LINE
  5
C8
100
AcDbEntity
  8
M1
  6
CONTINUOUS
370
25
100
AcDbLine
 10
463.714653
 20
331.380994
 11
463.014671
 21
331.380994
  0
LINE
  5
C9
100
AcDbEntity
  8
M1
  6
CONTINUOUS
370
25
100
AcDbLine
 10
463.014671
 20
325.480985
 11
463.714653
 21
325.480985
  0
LINE
  5
CA
100
AcDbEntity
  8
M1
  6
CONTINUOUS
370
25
100
AcDbLine
 10
463.714653
 20
325.254987
 11
463.714653
 21
331.605985
  0
LINE
  5
CB
100
AcDbEntity
  8
M1
  6
CONTINUOUS
370
25
100
AcDbLine
 10
465.472679
 20
331.605985
 11
463.714653
 21
331.605985
  0
LINE
  5
CC
100
AcDbEntity
  8
M1
  6
CONTINUOUS
370
25
100
AcDbLine
 10
463.714653
 20
325.254987
 11
465.472679
 21
325.254987
  0
LINE
  5
CD
100
AcDbEntity
  8
M1
  6
CONTINUOUS
370
25
100
AcDbLine
 10
465.714653
 20
326.092984
 11
465.714653
 21
330.767987
  0
LINE
  5
CE
100
AcDbEntity
  8
M1
  6
CONTINUOUS
370
25
100
AcDbLine
 10
465.472679
 20
329.930982
 11
463.714653
 21
329.930982
  0
LINE
  5
CF
100
AcDbEntity
  8
M1
  6
CONTINUOUS
370
25
100
AcDbLine
 10
463.714653
 20
326.930982
 11
465.472679
 21
326.930982
  0
LINE
  5
D0
100
AcDbEntity
  8
M1
  6
CONTINUOUS
370
25
100
AcDbLine
 10
463.714775
 20
328.430844
 11
463.014763
 21
327.730847
  0
LINE
  5
D1
100
AcDbEntity
  8
M1
  6
CONTINUOUS
370
25
100
AcDbLine
 10
463.714775
 20
329.130872
 11
463.014763
 21
328.430844
  0
LINE
  5
D2
100
AcDbEntity
  8
M1
  6
CONTINUOUS
370
25
100
AcDbLine
 10
463.714653
 20
355.381986
 11
463.014671
 21
355.381986
  0
LINE
  5
D3
100
AcDbEntity
  8
M1
  6
CONTINUOUS
370
25
100
AcDbLine
 10
463.014641
 20
349.481992
 11
463.714653
 21
349.481992
  0
LINE
  5
D4
100
AcDbEntity
  8
M1
  6
CONTINUOUS
370
25
100
AcDbLine
 10
463.714653
 20
349.255979
 11
463.714653
 21
355.606992
  0
LINE
  5
D5
100
AcDbEntity
  8
M1
  6
CONTINUOUS
370
25
100
AcDbLine
 10
465.472679
 20
355.606992
 11
463.714653
 21
355.606992
  0
LINE
  5
D6
100
AcDbEntity
  8
M1
  6
CONTINUOUS
370
25
100
AcDbLine
 10
463.714653
 20
349.255979
 11
465.472679
 21
349.255979
  0
LINE
  5
D7
100
AcDbEntity
  8
M1
  6
CONTINUOUS
370
25
100
AcDbLine
 10
465.714653
 20
350.093991
 11
465.714653
 21
354.768979
  0
LINE
  5
D8
100
AcDbEntity
  8
M1
  6
CONTINUOUS
370
25
100
AcDbLine
 10
465.472679
 20
353.931973
 11
463.714653
 21
353.931973
  0
LINE
  5
D9
100
AcDbEntity
  8
M1
  6
CONTINUOUS
370
25
100
AcDbLine
 10
463.714653
 20
350.931973
 11
465.472679
 21
350.931973
  0
LINE
  5
DA
100
AcDbEntity
  8
M1
  6
CONTINUOUS
370
25
100
AcDbLine
 10
463.714653
 20
352.431912
 11
463.014641
 21
351.731915
  0
LINE
  5
DB
100
AcDbEntity
  8
M1
  6
CONTINUOUS
370
25
100
AcDbLine
 10
463.714775
 20
353.131879
 11
463.014732
 21
352.431851
  0
LINE
  5
DC
100
AcDbEntity
  8
M1
  6
CONTINUOUS
370
25
100
AcDbLine
 10
462.214653
 20
253.431973
 11
463.014671
 21
253.431973
  0
LINE
  5
DD
100
AcDbEntity
  8
M1
  6
CONTINUOUS
370
25
100
AcDbLine
 10
463.714653
 20
277.482953
 11
463.014671
 21
277.482953
  0
LINE
  5
DE
100
AcDbEntity
  8
M1
  6
CONTINUOUS
370
25
100
AcDbLine
 10
463.014671
 20
283.382962
 11
463.714653
 21
283.382962
  0
LINE
  5
DF
100
AcDbEntity
  8
M1
  6
CONTINUOUS
370
25
100
AcDbLine
 10
463.714653
 20
283.60896
 11
463.714653
 21
277.257962
  0
LINE
  5
E0
100
AcDbEntity
  8
M1
  6
CONTINUOUS
370
25
100
AcDbLine
 10
465.472679
 20
277.257962
 11
463.714653
 21
277.257962
  0
LINE
  5
E1
100
AcDbEntity
  8
M1
  6
CONTINUOUS
370
25
100
AcDbLine
 10
463.714653
 20
283.60896
 11
465.472679
 21
283.60896
  0
LINE
  5
E2
100
AcDbEntity
  8
M1
  6
CONTINUOUS
370
25
100
AcDbLine
 10
465.714653
 20
282.770963
 11
465.714653
 21
278.09596
  0
LINE
  5
E3
100
AcDbEntity
  8
M1
  6
CONTINUOUS
370
25
100
AcDbLine
 10
465.472679
 20
278.932965
 11
463.714653
 21
278.932965
  0
LINE
  5
E4
100
AcDbEntity
  8
M1
  6
CONTINUOUS
370
25
100
AcDbLine
 10
463.714653
 20
281.932965
 11
465.472679
 21
281.932965
  0
LINE
  5
E5
100
AcDbEntity
  8
M1
  6
CONTINUOUS
370
25
100
AcDbLine
 10
463.714653
 20
253.481961
 11
463.014671
 21
253.481961
  0
LINE
  5
E6
100
AcDbEntity
  8
M1
  6
CONTINUOUS
370
25
100
AcDbLine
 10
463.014671
 20
259.38197
 11
463.714653
 21
259.38197
  0
LINE
  5
E7
100
AcDbEntity
  8
M1
  6
CONTINUOUS
370
25
100
AcDbLine
 10
463.714653
 20
259.607968
 11
463.714653
 21
253.25697
  0
LINE
  5
E8
100
AcDbEntity
  8
M1
  6
CONTINUOUS
370
25
100
AcDbLine
 10
465.472679
 20
253.25697
 11
463.714653
 21
253.25697
  0
LINE
  5
E9
100
AcDbEntity
  8
M1
  6
CONTINUOUS
370
25
100
AcDbLine
 10
463.714653
 20
259.607968
 11
465.472679
 21
259.607968
  0
LINE
  5
EA
100
AcDbEntity
  8
M1
  6
CONTINUOUS
370
25
100
AcDbLine
 10
465.714653
 20
258.769971
 11
465.714653
 21
254.094968
  0
LINE
  5
EB
100
AcDbEntity
  8
M1
  6
CONTINUOUS
370
25
100
AcDbLine
 10
465.472679
 20
254.931973
 11
463.714653
 21
254.931973
  0
LINE
  5
EC
100
AcDbEntity
  8
M1
  6
CONTINUOUS
370
25
100
AcDbLine
 10
463.714653
 20
257.931973
 11
465.472679
 21
257.931973
  0
LINE
  5
ED
100
AcDbEntity
  8
M1
  6
CONTINUOUS
370
25
100
AcDbLine
 10
420.214531
 20
352.442243
 11
420.914543
 21
353.142255
  0
LINE
  5
EE
100
AcDbEntity
  8
M1
  6
CONTINUOUS
370
25
100
AcDbLine
 10
420.214561
 20
328.765119
 11
420.914574
 21
329.465131
  0
LINE
  5
EF
100
AcDbEntity
  8
M1
  6
CONTINUOUS
370
25
100
AcDbLine
 10
420.21447
 20
351.452329
 11
420.914482
 21
352.152341
  0
LINE
  5
F0
100
AcDbEntity
  8
M1
  6
CONTINUOUS
370
25
100
AcDbLine
 10
420.2145
 20
327.775266
 11
420.914482
 21
328.475263
  0
LINE
  5
F1
100
AcDbEntity
  8
M1
  6
CONTINUOUS
370
25
100
AcDbLine
 10
463.014488
 20
256.608987
 11
463.7145
 21
257.308999
  0
LINE
  5
F2
100
AcDbEntity
  8
M1
  6
CONTINUOUS
370
25
100
AcDbLine
 10
463.01458
 20
280.549624
 11
463.714592
 21
281.249636
  0
LINE
  5
F3
100
AcDbEntity
  8
M1
  6
CONTINUOUS
370
25
100
AcDbLine
 10
463.014549
 20
255.619027
 11
463.714561
 21
256.319039
  0
LINE
  5
F4
100
AcDbEntity
  8
M1
  6
CONTINUOUS
370
25
100
AcDbLine
 10
463.014488
 20
279.559755
 11
463.7145
 21
280.259768
  0
LINE
  5
F5
100
AcDbEntity
  8
M1
  6
CONTINUOUS
370
25
100
AcDbLine
 10
597.16999
 20
307.16789
 11
597.16999
 21
300.96008
  0
LINE
  5
F6
100
AcDbEntity
  8
M1
  6
CONTINUOUS
370
25
100
AcDbLine
 10
605.809959
 20
293.670377
 11
600.850632
 21
296.533643
  0
LINE
  5
F7
100
AcDbEntity
  8
M1
  6
CONTINUOUS
370
25
100
AcDbLine
 10
610.809952
 20
302.33064
 11
605.850685
 21
305.193875
  0
LINE
  5
F8
100
AcDbEntity
  8
M1
  6
CONTINUOUS
370
25
100
AcDbLine
 10
610.809898
 20
302.330472
 11
610.809898
 21
296.556973
  0
LINE
  5
F9
100
AcDbEntity
  8
M1
  6
CONTINUOUS
370
25
100
AcDbLine
 10
605.850571
 20
305.193784
 11
600.850571
 21
302.307034
  0
LINE
  5
FA
100
AcDbEntity
  8
M1
  6
CONTINUOUS
370
25
100
AcDbLine
 10
605.809868
 20
293.6703
 11
610.809853
 21
296.55705
  0
LINE
  5
FB
100
AcDbEntity
  8
M1
  6
CONTINUOUS
370
25
100
AcDbLine
 10
600.850578
 20
296.53349
 11
600.850578
 21
302.306989
  0
LINE
  5
FC
100
AcDbEntity
  8
M1
  6
CONTINUOUS
370
25
100
AcDbLine
 10
602.16999
 20
317.295239
 11
602.16999
 21
311.568707
  0
LINE
  5
FD
100
AcDbEntity
  8
M1
  6
CONTINUOUS
370
25
100
AcDbLine
 10
592.16999
 20
317.295224
 11
592.16999
 21
311.568723
  0
LINE
  5
FE
100
AcDbEntity
  8
M1
  6
CONTINUOUS
370
25
100
AcDbLine
 10
592.169945
 20
317.295361
 11
597.169945
 21
320.182111
  0
LINE
  5
FF
100
AcDbEntity
  8
M1
  6
CONTINUOUS
370
25
100
AcDbLine
 10
592.169975
 20
311.568662
 11
597.169968
 21
308.681912
  0
LINE
  5
100
100
AcDbEntity
  8
M1
  6
CONTINUOUS
370
25
100
AcDbLine
 10
602.169968
 20
317.295163
 11
597.169945
 21
320.181928
  0
LINE
  5
101
100
AcDbEntity
  8
M1
  6
CONTINUOUS
370
25
100
AcDbLine
 10
602.170059
 20
311.568616
 11
597.170067
 21
308.681867
  0
LINE
  5
102
100
AcDbEntity
  8
M1
  6
CONTINUOUS
370
25
100
AcDbLine
 10
583.530037
 20
302.330518
 11
588.489372
 21
305.193784
  0
LINE
  5
103
100
AcDbEntity
  8
M1
  6
CONTINUOUS
370
25
100
AcDbLine
 10
588.530083
 20
293.670316
 11
593.489372
 21
296.533566
  0
LINE
  5
104
100
AcDbEntity
  8
M1
  6
CONTINUOUS
370
25
100
AcDbLine
 10
588.530128
 20
293.670346
 11
583.530128
 21
296.557096
  0
LINE
  5
105
100
AcDbEntity
  8
M1
  6
CONTINUOUS
370
25
100
AcDbLine
 10
593.489403
 20
296.53349
 11
593.489403
 21
302.306989
  0
LINE
  5
106
100
AcDbEntity
  8
M1
  6
CONTINUOUS
370
25
100
AcDbLine
 10
583.530083
 20
302.330457
 11
583.530083
 21
296.556973
  0
LINE
  5
107
100
AcDbEntity
  8
M1
  6
CONTINUOUS
370
25
100
AcDbLine
 10
588.489418
 20
305.193784
 11
593.489433
 21
302.307019
  0
LINE
  5
108
100
AcDbEntity
  8
M1
  6
CONTINUOUS
370
25
100
AcDbLine
 10
477.059532
 20
304.431973
 11
466.274863
 21
304.431973
  0
LINE
  5
109
100
AcDbEntity
  8
M1
  6
CONTINUOUS
370
25
100
AcDbLine
 10
246.714683
 20
306.430966
 11
246.714683
 21
302.430966
  0
LINE
  5
10A
100
AcDbEntity
  8
M1
  6
CONTINUOUS
370
25
100
AcDbLine
 10
250.714622
 20
306.430951
 11
246.714622
 21
306.430951
  0
LINE
  5
10B
100
AcDbEntity
  8
M1
  6
CONTINUOUS
370
25
100
AcDbLine
 10
250.714683
 20
306.430966
 11
250.714683
 21
302.430966
  0
LINE
  5
10C
100
AcDbEntity
  8
M1
  6
CONTINUOUS
370
25
100
AcDbLine
 10
246.714622
 20
302.430951
 11
250.714622
 21
302.430951
  0
LINE
  5
10D
100
AcDbEntity
  8
M1
  6
CONTINUOUS
370
25
100
AcDbLine
 10
455.942049
 20
364.431973
 11
455.942049
 21
367.807981
  0
LINE
  5
10E
100
AcDbEntity
  8
M1
  6
CONTINUOUS
370
25
100
AcDbLine
 10
452.942049
 20
370.807981
 11
442.187258
 21
370.807981
  0
LINE
  5
10F
100
AcDbEntity
  8
M1
  6
CONTINUOUS
370
25
100
AcDbLine
 10
439.187258
 20
367.807981
 11
439.187258
 21
364.431973
  0
LINE
  5
110
100
AcDbEntity
  8
M1
  6
CONTINUOUS
370
25
100
AcDbLine
 10
581.716494
 20
362.40774
 11
580.914024
 21
366.958981
  0
LINE
  5
111
100
AcDbEntity
  8
M1
  6
CONTINUOUS
370
25
100
AcDbLine
 10
587.582008
 20
371.181058
 11
583.347008
 21
370.434049
  0
LINE
  5
112
100
AcDbEntity
  8
M1
  6
CONTINUOUS
370
25
100
AcDbLine
 10
591.860514
 20
364.196591
 11
591.058006
 21
368.747891
  0
LINE
  5
113
100
AcDbEntity
  8
M1
  6
CONTINUOUS
370
25
100
AcDbLine
 10
612.623457
 20
362.407747
 11
613.425926
 21
366.958981
  0
LINE
  5
114
100
AcDbEntity
  8
M1
  6
CONTINUOUS
370
25
100
AcDbLine
 10
606.757965
 20
371.180997
 11
610.992973
 21
370.434018
  0
LINE
  5
115
100
AcDbEntity
  8
M1
  6
CONTINUOUS
370
25
100
AcDbLine
 10
602.47952
 20
364.196586
 11
603.282036
 21
368.747922
  0
LINE
  5
116
100
AcDbEntity
  8
M1
  6
CONTINUOUS
370
25
100
AcDbLine
 10
259.668047
 20
362.407758
 11
260.470512
 21
366.958966
  0
LINE
  5
117
100
AcDbEntity
  8
M1
  6
CONTINUOUS
370
25
100
AcDbLine
 10
253.802635
 20
371.180997
 11
258.03759
 21
370.433988
  0
LINE
  5
118
100
AcDbEntity
  8
M1
  6
CONTINUOUS
370
25
100
AcDbLine
 10
249.523844
 20
364.196613
 11
250.326378
 21
368.748013
  0
LINE
  5
119
100
AcDbEntity
  8
M1
  6
CONTINUOUS
370
25
100
AcDbLine
 10
238.905389
 20
364.196612
 11
238.102867
 21
368.747983
  0
LINE
  5
11A
100
AcDbEntity
  8
M1
  6
CONTINUOUS
370
25
100
AcDbLine
 10
234.626732
 20
371.181058
 11
230.391685
 21
370.434049
  0
LINE
  5
11B
100
AcDbEntity
  8
M1
  6
CONTINUOUS
370
25
100
AcDbLine
 10
228.761136
 20
362.407742
 11
227.958672
 21
366.958951
  0
LINE
  5
11C
100
AcDbEntity
  8
M1
  6
CONTINUOUS
370
25
100
AcDbLine
 10
635.988861
 20
330.019696
 11
638.738495
 21
331.60719
  0
LINE
  5
11D
100
AcDbEntity
  8
M1
  6
CONTINUOUS
370
25
100
AcDbLine
 10
635.988571
 20
326.843961
 11
635.988831
 21
330.019559
  0
LINE
  5
11E
100
AcDbEntity
  8
M1
  6
CONTINUOUS
370
25
100
AcDbLine
 10
638.739181
 20
325.256848
 11
635.988907
 21
326.844418
  0
LINE
  5
11F
100
AcDbEntity
  8
M1
  6
CONTINUOUS
370
25
100
AcDbLine
 10
641.488495
 20
326.844068
 11
638.738861
 21
325.256574
  0
LINE
  5
120
100
AcDbEntity
  8
M1
  6
CONTINUOUS
370
25
100
AcDbLine
 10
641.488724
 20
330.019467
 11
641.488464
 21
326.843884
  0
LINE
  5
121
100
AcDbEntity
  8
M1
  6
CONTINUOUS
370
25
100
AcDbLine
 10
638.738838
 20
331.60748
 11
641.489082
 21
330.019925
  0
LINE
  5
122
100
AcDbEntity
  8
M1
  6
CONTINUOUS
370
25
100
AcDbLine
 10
594.41999
 20
350.843991
 11
594.41999
 21
354.018979
  0
LINE
  5
123
100
AcDbEntity
  8
M1
  6
CONTINUOUS
370
25
100
AcDbLine
 10
597.169983
 20
349.256024
 11
594.41996
 21
350.844052
  0
LINE
  5
124
100
AcDbEntity
  8
M1
  6
CONTINUOUS
370
25
100
AcDbLine
 10
599.919983
 20
350.844068
 11
597.169968
 21
349.25604
  0
LINE
  5
125
100
AcDbEntity
  8
M1
  6
CONTINUOUS
370
25
100
AcDbLine
 10
599.91999
 20
354.018979
 11
599.91999
 21
350.843991
  0
LINE
  5
126
100
AcDbEntity
  8
M1
  6
CONTINUOUS
370
25
100
AcDbLine
 10
597.170029
 20
355.607007
 11
599.920021
 21
354.01901
  0
LINE
  5
127
100
AcDbEntity
  8
M1
  6
CONTINUOUS
370
25
100
AcDbLine
 10
594.41996
 20
354.01901
 11
597.169952
 21
355.607007
  0
LINE
  5
128
100
AcDbEntity
  8
M1
  6
CONTINUOUS
370
25
100
AcDbLine
 10
555.601036
 20
325.256452
 11
552.851402
 21
326.843945
  0
LINE
  5
129
100
AcDbEntity
  8
M1
  6
CONTINUOUS
370
25
100
AcDbLine
 10
558.35125
 20
326.844007
 11
555.60099
 21
325.256436
  0
LINE
  5
12A
100
AcDbEntity
  8
M1
  6
CONTINUOUS
370
25
100
AcDbLine
 10
558.351005
 20
330.019574
 11
558.351265
 21
326.843976
  0
LINE
  5
12B
100
AcDbEntity
  8
M1
  6
CONTINUOUS
370
25
100
AcDbLine
 10
555.601372
 20
331.607083
 11
558.35099
 21
330.019589
  0
LINE
  5
12C
100
AcDbEntity
  8
M1
  6
CONTINUOUS
370
25
100
AcDbLine
 10
552.851143
 20
330.019498
 11
555.601387
 21
331.607053
  0
LINE
  5
12D
100
AcDbEntity
  8
M1
  6
CONTINUOUS
370
25
100
AcDbLine
 10
552.851402
 20
326.843869
 11
552.851143
 21
330.019437
  0
LINE
  5
12E
100
AcDbEntity
  8
M1
  6
CONTINUOUS
370
25
100
AcDbLine
 10
558.350914
 20
278.844586
 11
555.60128
 21
277.257077
  0
LINE
  5
12F
100
AcDbEntity
  8
M1
  6
CONTINUOUS
370
25
100
AcDbLine
 10
558.351234
 20
282.019986
 11
558.350975
 21
278.844418
  0
LINE
  5
130
100
AcDbEntity
  8
M1
  6
CONTINUOUS
370
25
100
AcDbLine
 10
555.601005
 20
283.607617
 11
558.35128
 21
282.020032
  0
LINE
  5
131
100
AcDbEntity
  8
M1
  6
CONTINUOUS
370
25
100
AcDbLine
 10
552.85128
 20
282.020246
 11
555.600914
 21
283.607739
  0
LINE
  5
132
100
AcDbEntity
  8
M1
  6
CONTINUOUS
370
25
100
AcDbLine
 10
552.851097
 20
278.84451
 11
552.851356
 21
282.020062
  0
LINE
  5
133
100
AcDbEntity
  8
M1
  6
CONTINUOUS
370
25
100
AcDbLine
 10
555.601417
 20
277.256955
 11
552.851173
 21
278.844525
  0
LINE
  5
134
100
AcDbEntity
  8
M1
  6
CONTINUOUS
370
25
100
AcDbLine
 10
599.919945
 20
258.019971
 11
599.919945
 21
254.844968
  0
LINE
  5
135
100
AcDbEntity
  8
M1
  6
CONTINUOUS
370
25
100
AcDbLine
 10
597.169968
 20
259.607999
 11
599.91996
 21
258.020001
  0
LINE
  5
136
100
AcDbEntity
  8
M1
  6
CONTINUOUS
370
25
100
AcDbLine
 10
594.419853
 20
258.020184
 11
597.169876
 21
259.608197
  0
LINE
  5
137
100
AcDbEntity
  8
M1
  6
CONTINUOUS
370
25
100
AcDbLine
 10
594.419945
 20
254.844968
 11
594.419945
 21
258.019971
  0
LINE
  5
138
100
AcDbEntity
  8
M1
  6
CONTINUOUS
370
25
100
AcDbLine
 10
597.169968
 20
253.256986
 11
594.419975
 21
254.844983
  0
LINE
  5
139
100
AcDbEntity
  8
M1
  6
CONTINUOUS
370
25
100
AcDbLine
 10
599.919876
 20
254.845212
 11
597.169876
 21
253.257215
  0
LINE
  5
13A
100
AcDbEntity
  8
M1
  6
CONTINUOUS
370
25
100
AcDbLine
 10
638.73896
 20
283.607556
 11
641.488594
 21
282.020062
  0
LINE
  5
13B
100
AcDbEntity
  8
M1
  6
CONTINUOUS
370
25
100
AcDbLine
 10
635.988602
 20
282.020139
 11
638.738869
 21
283.607709
  0
LINE
  5
13C
100
AcDbEntity
  8
M1
  6
CONTINUOUS
370
25
100
AcDbLine
 10
635.988808
 20
278.844449
 11
635.988556
 21
282.020047
  0
LINE
  5
13D
100
AcDbEntity
  8
M1
  6
CONTINUOUS
370
25
100
AcDbLine
 10
638.738602
 20
277.256894
 11
635.988968
 21
278.844403
  0
LINE
  5
13E
100
AcDbEntity
  8
M1
  6
CONTINUOUS
370
25
100
AcDbLine
 10
641.488754
 20
278.844617
 11
638.738502
 21
277.257047
  0
LINE
  5
13F
100
AcDbEntity
  8
M1
  6
CONTINUOUS
370
25
100
AcDbLine
 10
641.488419
 20
282.020078
 11
641.48867
 21
278.844525
  0
LINE
  5
140
100
AcDbEntity
  8
M1
  6
CONTINUOUS
370
25
100
AcDbLine
 10
244.214622
 20
307.685208
 11
244.214622
 21
301.218732
  0
LINE
  5
141
100
AcDbEntity
  8
M1
  6
CONTINUOUS
370
25
100
AcDbLine
 10
244.214622
 20
276.904767
 11
244.214622
 21
268.627683
  0
LINE
  5
142
100
AcDbEntity
  8
M1
  6
CONTINUOUS
370
25
100
AcDbLine
 10
368.40342
 20
304.431973
 11
357.04665
 21
304.431973
  0
CIRCLE
  5
143
100
AcDbEntity
  8
M1
  6
CONTINUOUS
370
25
100
AcDbCircle
 10
244.214622
 20
304.431973
 40
60.0
  0
CIRCLE
  5
144
100
AcDbEntity
  8
M1
  6
CONTINUOUS
370
25
100
AcDbCircle
 10
244.214622
 20
304.431973
 40
52.5
  0
CIRCLE
  5
145
100
AcDbEntity
  8
M1
  6
CONTINUOUS
370
25
100
AcDbCircle
 10
244.214622
 20
304.431973
 40
37.5
  0
ARC
  5
146
100
AcDbEntity
  8
M1
  6
CONTINUOUS
370
25
100
AcDbCircle
 10
244.214622
 20
304.431973
 40
32.000008
100
AcDbArc
 50
21.317793
 51
38.062252
  0
CIRCLE
  5
147
100
AcDbEntity
  8
M1
  6
CONTINUOUS
370
25
100
AcDbCircle
 10
244.214622
 20
304.431973
 40
21.0
  0
CIRCLE
  5
148
100
AcDbEntity
  8
M1
  6
CONTINUOUS
370
25
100
AcDbCircle
 10
244.214622
 20
304.431973
 40
17.5
  0
CIRCLE
  5
149
100
AcDbEntity
  8
M1
  6
CONTINUOUS
370
25
100
AcDbCircle
 10
285.78466
 20
328.430982
 40
2.75
  0
CIRCLE
  5
14A
100
AcDbEntity
  8
M1
  6
CONTINUOUS
370
25
100
AcDbCircle
 10
285.783653
 20
280.430982
 40
2.75
  0
CIRCLE
  5
14B
100
AcDbEntity
  8
M1
  6
CONTINUOUS
370
25
100
AcDbCircle
 10
244.214622
 20
256.431973
 40
2.75
  0
CIRCLE
  5
14C
100
AcDbEntity
  8
M1
  6
CONTINUOUS
370
25
100
AcDbCircle
 10
202.645653
 20
280.431973
 40
2.75
  0
CIRCLE
  5
14D
100
AcDbEntity
  8
M1
  6
CONTINUOUS
370
25
100
AcDbCircle
 10
202.646629
 20
328.431973
 40
2.751007
  0
CIRCLE
  5
14E
100
AcDbEntity
  8
M1
  6
CONTINUOUS
370
25
100
AcDbCircle
 10
244.214622
 20
352.431973
 40
2.75
  0
CIRCLE
  5
14F
100
AcDbEntity
  8
M1
  6
CONTINUOUS
370
25
100
AcDbCircle
 10
244.214622
 20
336.431973
 40
2.5
  0
CIRCLE
  5
150
100
AcDbEntity
  8
M1
  6
CONTINUOUS
370
25
100
AcDbCircle
 10
244.214622
 20
336.431973
 40
2.0
  0
CIRCLE
  5
151
100
AcDbEntity
  8
M1
  6
CONTINUOUS
370
25
100
AcDbCircle
 10
271.927635
 20
320.430982
 40
2.5
  0
CIRCLE
  5
152
100
AcDbEntity
  8
M1
  6
CONTINUOUS
370
25
100
AcDbCircle
 10
271.927635
 20
320.430982
 40
2.0
  0
CIRCLE
  5
153
100
AcDbEntity
  8
M1
  6
CONTINUOUS
370
25
100
AcDbCircle
 10
271.927635
 20
288.431973
 40
2.5
  0
CIRCLE
  5
154
100
AcDbEntity
  8
M1
  6
CONTINUOUS
370
25
100
AcDbCircle
 10
271.927635
 20
288.431973
 40
2.0
  0
CIRCLE
  5
155
100
AcDbEntity
  8
M1
  6
CONTINUOUS
370
25
100
AcDbCircle
 10
244.214622
 20
272.431973
 40
2.5
  0
CIRCLE
  5
156
100
AcDbEntity
  8
M1
  6
CONTINUOUS
370
25
100
AcDbCircle
 10
244.214622
 20
272.431973
 40
2.0
  0
CIRCLE
  5
157
100
AcDbEntity
  8
M1
  6
CONTINUOUS
370
25
100
AcDbCircle
 10
216.50161
 20
288.431973
 40
2.5
  0
CIRCLE
  5
158
100
AcDbEntity
  8
M1
  6
CONTINUOUS
370
25
100
AcDbCircle
 10
216.50161
 20
288.431973
 40
2.0
  0
CIRCLE
  5
159
100
AcDbEntity
  8
M1
  6
CONTINUOUS
370
25
100
AcDbCircle
 10
216.502647
 20
320.431973
 40
2.5
  0
CIRCLE
  5
15A
100
AcDbEntity
  8
M1
  6
CONTINUOUS
370
25
100
AcDbCircle
 10
216.502647
 20
320.431973
 40
2.0
  0
ARC
  5
15B
100
AcDbEntity
  8
M1
  6
CONTINUOUS
370
25
100
AcDbCircle
 10
419.914635
 20
348.620969
 40
1.000011
100
AcDbArc
 50
290.86496
 51
360.0
  0
ARC
  5
15C
100
AcDbEntity
  8
M1
  6
CONTINUOUS
370
25
100
AcDbCircle
 10
415.014641
 20
342.155988
 40
3.299993
100
AcDbArc
 50
110.818031
 51
180.0
  0
ARC
  5
15D
100
AcDbEntity
  8
M1
  6
CONTINUOUS
370
25
100
AcDbCircle
 10
419.914635
 20
260.241971
 40
1.000488
100
AcDbArc
 50
0.0
 51
69.156349
  0
ARC
  5
15E
100
AcDbEntity
  8
M1
  6
CONTINUOUS
370
25
100
AcDbCircle
 10
415.014641
 20
266.706983
 40
3.29953
100
AcDbArc
 50
180.0
 51
249.175613
  0
ARC
  5
15F
100
AcDbEntity
  8
M1
  6
CONTINUOUS
370
25
100
AcDbCircle
 10
386.714653
 20
311.431973
 40
2.0
100
AcDbArc
 50
270.0
 51
360.0
  0
ARC
  5
160
100
AcDbEntity
  8
M1
  6
CONTINUOUS
370
25
100
AcDbCircle
 10
386.714653
 20
297.431973
 40
2.0
100
AcDbArc
 50
0.0
 51
90.0
  0
ARC
  5
161
100
AcDbEntity
  8
M1
  6
CONTINUOUS
370
25
100
AcDbCircle
 10
422.977653
 20
328.430982
 40
4.76334
100
AcDbArc
 50
161.644913
 51
198.355087
  0
ARC
  5
162
100
AcDbEntity
  8
M1
  6
CONTINUOUS
370
25
100
AcDbCircle
 10
419.783653
 20
326.092984
 40
1.569445
100
AcDbArc
 50
147.7276
 51
212.2724
  0
ARC
  5
163
100
AcDbEntity
  8
M1
  6
CONTINUOUS
370
25
100
AcDbCircle
 10
419.783653
 20
330.767987
 40
1.568937
100
AcDbArc
 50
147.727753
 51
212.241776
  0
ARC
  5
164
100
AcDbEntity
  8
M1
  6
CONTINUOUS
370
25
100
AcDbCircle
 10
464.414635
 20
343.931973
 40
4.000061
100
AcDbArc
 50
0.0
 51
84.261002
  0
ARC
  5
165
100
AcDbEntity
  8
M1
  6
CONTINUOUS
370
25
100
AcDbCircle
 10
465.014641
 20
349.901975
 40
2.000031
100
AcDbArc
 50
192.121663
 51
264.260529
  0
ARC
  5
166
100
AcDbEntity
  8
M1
  6
CONTINUOUS
370
25
100
AcDbCircle
 10
464.414635
 20
264.931973
 40
4.0
100
AcDbArc
 50
275.739075
 51
360.0
  0
ARC
  5
167
100
AcDbEntity
  8
M1
  6
CONTINUOUS
370
25
100
AcDbCircle
 10
465.014641
 20
258.961972
 40
2.000001
100
AcDbArc
 50
95.739517
 51
167.877713
  0
ARC
  5
168
100
AcDbEntity
  8
M1
  6
CONTINUOUS
370
25
100
AcDbCircle
 10
462.954643
 20
299.431973
 40
8.660212
100
AcDbArc
 50
339.731995
 51
380.26791
  0
ARC
  5
169
100
AcDbEntity
  8
M1
  6
CONTINUOUS
370
25
100
AcDbCircle
 10
469.553642
 20
303.818982
 40
2.060738
100
AcDbArc
 50
317.713226
 51
402.266354
  0
ARC
  5
16A
100
AcDbEntity
  8
M1
  6
CONTINUOUS
370
25
100
AcDbCircle
 10
469.553642
 20
295.04498
 40
2.061397
100
AcDbArc
 50
317.713257
 51
402.286755
  0
ARC
  5
16B
100
AcDbEntity
  8
M1
  6
CONTINUOUS
370
25
100
AcDbCircle
 10
462.954643
 20
314.431973
 40
8.660212
100
AcDbArc
 50
339.731995
 51
380.26791
  0
ARC
  5
16C
100
AcDbEntity
  8
M1
  6
CONTINUOUS
370
25
100
AcDbCircle
 10
469.553642
 20
318.817975
 40
2.061399
100
AcDbArc
 50
317.733368
 51
402.287067
  0
ARC
  5
16D
100
AcDbEntity
  8
M1
  6
CONTINUOUS
370
25
100
AcDbCircle
 10
469.553642
 20
310.04498
 40
2.061397
100
AcDbArc
 50
317.713257
 51
402.286755
  0
ARC
  5
16E
100
AcDbEntity
  8
M1
  6
CONTINUOUS
370
25
100
AcDbCircle
 10
244.214622
 20
304.431973
 40
31.999992
100
AcDbArc
 50
142.13475
 51
158.123474
  0
ARC
  5
16F
100
AcDbEntity
  8
M1
  6
CONTINUOUS
370
25
100
AcDbCircle
 10
244.214622
 20
304.431973
 40
31.999998
100
AcDbArc
 50
80.978279
 51
98.311462
  0
ARC
  5
170
100
AcDbEntity
  8
M1
  6
CONTINUOUS
370
25
100
AcDbCircle
 10
244.214622
 20
304.431973
 40
31.999994
100
AcDbArc
 50
202.287827
 51
218.427246
  0
ARC
  5
171
100
AcDbEntity
  8
M1
  6
CONTINUOUS
370
25
100
AcDbCircle
 10
244.214622
 20
304.431973
 40
32.000004
100
AcDbArc
 50
261.046783
 51
278.04953
  0
ARC
  5
172
100
AcDbEntity
  8
M1
  6
CONTINUOUS
370
25
100
AcDbCircle
 10
244.214622
 20
304.431973
 40
32.000008
100
AcDbArc
 50
322.573883
 51
338.195618
  0
ARC
  5
173
100
AcDbEntity
  8
M1
  6
CONTINUOUS
370
25
100
AcDbCircle
 10
422.977653
 20
352.431973
 40
4.76334
100
AcDbArc
 50
161.644913
 51
198.355087
  0
ARC
  5
174
100
AcDbEntity
  8
M1
  6
CONTINUOUS
370
25
100
AcDbCircle
 10
419.783653
 20
350.093991
 40
1.569445
100
AcDbArc
 50
147.7276
 51
212.2724
  0
ARC
  5
175
100
AcDbEntity
  8
M1
  6
CONTINUOUS
370
25
100
AcDbCircle
 10
419.783653
 20
354.768979
 40
1.568937
100
AcDbArc
 50
147.727753
 51
212.241776
  0
ARC
  5
176
100
AcDbEntity
  8
M1
  6
CONTINUOUS
370
25
100
AcDbCircle
 10
419.783653
 20
254.094968
 40
1.568916
100
AcDbArc
 50
147.758224
 51
212.272247
  0
ARC
  5
177
100
AcDbEntity
  8
M1
  6
CONTINUOUS
370
25
100
AcDbCircle
 10
419.783653
 20
282.770963
 40
1.569445
100
AcDbArc
 50
147.7276
 51
212.2724
  0
ARC
  5
178
100
AcDbEntity
  8
M1
  6
CONTINUOUS
370
25
100
AcDbCircle
 10
419.783653
 20
258.769971
 40
1.569445
100
AcDbArc
 50
147.7276
 51
212.2724
  0
ARC
  5
179
100
AcDbEntity
  8
M1
  6
CONTINUOUS
370
25
100
AcDbCircle
 10
422.977653
 20
256.431973
 40
4.76334
100
AcDbArc
 50
161.644913
 51
198.355087
  0
ARC
  5
17A
100
AcDbEntity
  8
M1
  6
CONTINUOUS
370
25
100
AcDbCircle
 10
419.783653
 20
278.09596
 40
1.568916
100
AcDbArc
 50
147.758224
 51
212.272247
  0
ARC
  5
17B
100
AcDbEntity
  8
M1
  6
CONTINUOUS
370
25
100
AcDbCircle
 10
422.977653
 20
280.432965
 40
4.76334
100
AcDbArc
 50
161.644913
 51
198.355087
  0
ARC
  5
17C
100
AcDbEntity
  8
M1
  6
CONTINUOUS
370
25
100
AcDbCircle
 10
464.145653
 20
354.768979
 40
1.568916
100
AcDbArc
 50
327.75824
 51
392.272247
  0
ARC
  5
17D
100
AcDbEntity
  8
M1
  6
CONTINUOUS
370
25
100
AcDbCircle
 10
464.145653
 20
326.092984
 40
1.569445
100
AcDbArc
 50
327.7276
 51
392.272396
  0
ARC
  5
17E
100
AcDbEntity
  8
M1
  6
CONTINUOUS
370
25
100
AcDbCircle
 10
464.145653
 20
350.093991
 40
1.569445
100
AcDbArc
 50
327.7276
 51
392.272396
  0
ARC
  5
17F
100
AcDbEntity
  8
M1
  6
CONTINUOUS
370
25
100
AcDbCircle
 10
460.951652
 20
352.431973
 40
4.76334
100
AcDbArc
 50
341.644928
 51
378.355085
  0
ARC
  5
180
100
AcDbEntity
  8
M1
  6
CONTINUOUS
370
25
100
AcDbCircle
 10
464.145653
 20
330.767987
 40
1.568916
100
AcDbArc
 50
327.75824
 51
392.272247
  0
ARC
  5
181
100
AcDbEntity
  8
M1
  6
CONTINUOUS
370
25
100
AcDbCircle
 10
460.951652
 20
328.430982
 40
4.76334
100
AcDbArc
 50
341.644928
 51
378.355085
  0
ARC
  5
182
100
AcDbEntity
  8
M1
  6
CONTINUOUS
370
25
100
AcDbCircle
 10
464.145653
 20
254.094968
 40
1.568929
100
AcDbArc
 50
327.72821
 51
392.241772
  0
ARC
  5
183
100
AcDbEntity
  8
M1
  6
CONTINUOUS
370
25
100
AcDbCircle
 10
464.145653
 20
282.770963
 40
1.569445
100
AcDbArc
 50
327.7276
 51
392.272396
  0
ARC
  5
184
100
AcDbEntity
  8
M1
  6
CONTINUOUS
370
25
100
AcDbCircle
 10
464.145653
 20
258.769971
 40
1.569445
100
AcDbArc
 50
327.7276
 51
392.272396
  0
ARC
  5
185
100
AcDbEntity
  8
M1
  6
CONTINUOUS
370
25
100
AcDbCircle
 10
460.951652
 20
256.431973
 40
4.76334
100
AcDbArc
 50
341.644928
 51
378.355085
  0
ARC
  5
186
100
AcDbEntity
  8
M1
  6
CONTINUOUS
370
25
100
AcDbCircle
 10
464.145653
 20
278.09596
 40
1.568929
100
AcDbArc
 50
327.72821
 51
392.241772
  0
ARC
  5
187
100
AcDbEntity
  8
M1
  6
CONTINUOUS
370
25
100
AcDbCircle
 10
460.951652
 20
280.432965
 40
4.76334
100
AcDbArc
 50
341.644928
 51
378.355085
  0
CIRCLE
  5
188
100
AcDbEntity
  8
M1
  6
CONTINUOUS
370
25
100
AcDbCircle
 10
597.16999
 20
304.431973
 40
60.0
  0
CIRCLE
  5
189
100
AcDbEntity
  8
M1
  6
CONTINUOUS
370
25
100
AcDbCircle
 10
597.16999
 20
304.431973
 40
60.0
  0
CIRCLE
  5
18A
100
AcDbEntity
  8
M1
  6
CONTINUOUS
370
25
100
AcDbCircle
 10
597.16999
 20
304.431973
 40
52.5
  0
CIRCLE
  5
18B
100
AcDbEntity
  8
M1
  6
CONTINUOUS
370
25
100
AcDbCircle
 10
605.830254
 20
299.431973
 40
5.0
  0
CIRCLE
  5
18C
100
AcDbEntity
  8
M1
  6
CONTINUOUS
370
25
100
AcDbCircle
 10
597.16999
 20
314.431973
 40
5.0
  0
CIRCLE
  5
18D
100
AcDbEntity
  8
M1
  6
CONTINUOUS
370
25
100
AcDbCircle
 10
588.509727
 20
299.431973
 40
5.0
  0
ARC
  5
18E
100
AcDbEntity
  8
M1
  6
CONTINUOUS
370
25
100
AcDbCircle
 10
244.214622
 20
304.431973
 40
4.99987
100
AcDbArc
 50
23.570246
 51
336.4086
  0
ARC
  5
18F
100
AcDbEntity
  8
M1
  6
CONTINUOUS
370
25
100
AcDbCircle
 10
583.867989
 20
367.479978
 40
2.999602
100
AcDbArc
 50
100.002342
 51
190.002335
  0
ARC
  5
190
100
AcDbEntity
  8
M1
  6
CONTINUOUS
370
25
100
AcDbCircle
 10
588.103004
 20
368.226987
 40
3.000564
100
AcDbArc
 50
9.999102
 51
100.002357
  0
ARC
  5
191
100
AcDbEntity
  8
M1
  6
CONTINUOUS
370
25
100
AcDbCircle
 10
610.471992
 20
367.479978
 40
2.999602
100
AcDbArc
 50
349.99765
 51
439.997658
  0
ARC
  5
192
100
AcDbEntity
  8
M1
  6
CONTINUOUS
370
25
100
AcDbCircle
 10
606.236977
 20
368.226987
 40
3.000564
100
AcDbArc
 50
79.997498
 51
170.0009
  0
ARC
  5
193
100
AcDbEntity
  8
M1
  6
CONTINUOUS
370
25
100
AcDbCircle
 10
257.516624
 20
367.479978
 40
2.999602
100
AcDbArc
 50
349.99765
 51
439.997658
  0
ARC
  5
194
100
AcDbEntity
  8
M1
  6
CONTINUOUS
370
25
100
AcDbCircle
 10
253.281639
 20
368.226987
 40
3.000566
100
AcDbArc
 50
79.997353
 51
170.0009
  0
ARC
  5
195
100
AcDbEntity
  8
M1
  6
CONTINUOUS
370
25
100
AcDbCircle
 10
235.147667
 20
368.226987
 40
3.000564
100
AcDbArc
 50
9.999102
 51
100.002647
  0
ARC
  5
196
100
AcDbEntity
  8
M1
  6
CONTINUOUS
370
25
100
AcDbCircle
 10
230.91262
 20
367.479978
 40
2.999602
100
AcDbArc
 50
100.002342
 51
190.002335
  0
CIRCLE
  5
197
100
AcDbEntity
  8
M1
  6
CONTINUOUS
370
25
100
AcDbCircle
 10
597.16999
 20
304.431973
 40
43.5
  0
CIRCLE
  5
198
100
AcDbEntity
  8
M1
  6
CONTINUOUS
370
25
100
AcDbCircle
 10
638.73922
 20
328.431958
 40
2.75
  0
CIRCLE
  5
199
100
AcDbEntity
  8
M1
  6
CONTINUOUS
370
25
100
AcDbCircle
 10
597.16999
 20
352.431973
 40
2.75
  0
CIRCLE
  5
19A
100
AcDbEntity
  8
M1
  6
CONTINUOUS
370
25
100
AcDbCircle
 10
555.600777
 20
328.431973
 40
2.75
  0
CIRCLE
  5
19B
100
AcDbEntity
  8
M1
  6
CONTINUOUS
370
25
100
AcDbCircle
 10
555.600761
 20
280.431973
 40
2.75
  0
CIRCLE
  5
19C
100
AcDbEntity
  8
M1
  6
CONTINUOUS
370
25
100
AcDbCircle
 10
597.169975
 20
256.431973
 40
2.75
  0
CIRCLE
  5
19D
100
AcDbEntity
  8
M1
  6
CONTINUOUS
370
25
100
AcDbCircle
 10
638.739204
 20
280.431973
 40
2.75
  0
ARC
  5
19E
100
AcDbEntity
  8
M1
  6
CONTINUOUS
370
25
100
AcDbCircle
 10
597.16999
 20
304.431973
 40
36.799995
100
AcDbArc
 50
313.000031
 51
347.007385
  0
ARC
  5
19F
100
AcDbEntity
  8
M1
  6
CONTINUOUS
370
25
100
AcDbCircle
 10
597.16999
 20
304.431973
 40
31.799994
100
AcDbArc
 50
313.000031
 51
347.007385
  0
ARC
  5
1A0
100
AcDbEntity
  8
M1
  6
CONTINUOUS
370
25
100
AcDbCircle
 10
597.16999
 20
304.431973
 40
24.200003
100
AcDbArc
 50
19.000046
 51
41.000011
  0
ARC
  5
1A1
100
AcDbEntity
  8
M1
  6
CONTINUOUS
370
25
100
AcDbCircle
 10
597.16999
 20
304.431973
 40
29.200003
100
AcDbArc
 50
19.000034
 51
41.000038
  0
ARC
  5
1A2
100
AcDbEntity
  8
M1
  6
CONTINUOUS
370
25
100
AcDbCircle
 10
630.591881
 20
296.720426
 40
2.499998
100
AcDbArc
 50
347.007507
 51
527.007523
  0
ARC
  5
1A3
100
AcDbEntity
  8
M1
  6
CONTINUOUS
370
25
100
AcDbCircle
 10
620.562523
 20
279.346524
 40
2.499999
100
AcDbArc
 50
132.999969
 51
312.999969
  0
ARC
  5
1A4
100
AcDbEntity
  8
M1
  6
CONTINUOUS
370
25
100
AcDbCircle
 10
587.137428
 20
337.231946
 40
2.500001
100
AcDbArc
 50
107.00724
 51
287.007233
  0
ARC
  5
1A5
100
AcDbEntity
  8
M1
  6
CONTINUOUS
370
25
100
AcDbCircle
 10
597.16999
 20
304.431973
 40
36.799999
100
AcDbArc
 50
73.0
 51
107.007378
  0
ARC
  5
1A6
100
AcDbEntity
  8
M1
  6
CONTINUOUS
370
25
100
AcDbCircle
 10
597.16999
 20
304.431973
 40
31.799999
100
AcDbArc
 50
73.000008
 51
107.00737
  0
ARC
  5
1A7
100
AcDbEntity
  8
M1
  6
CONTINUOUS
370
25
100
AcDbCircle
 10
607.198341
 20
337.233228
 40
2.5
100
AcDbArc
 50
253.000061
 51
432.999893
  0
ARC
  5
1A8
100
AcDbEntity
  8
M1
  6
CONTINUOUS
370
25
100
AcDbCircle
 10
573.780662
 20
279.343533
 40
2.499994
100
AcDbArc
 50
227.007339
 51
407.007336
  0
ARC
  5
1A9
100
AcDbEntity
  8
M1
  6
CONTINUOUS
370
25
100
AcDbCircle
 10
597.16999
 20
304.431973
 40
36.799995
100
AcDbArc
 50
193.000031
 51
227.007385
  0
ARC
  5
1AA
100
AcDbEntity
  8
M1
  6
CONTINUOUS
370
25
100
AcDbCircle
 10
597.16999
 20
304.431973
 40
31.800005
100
AcDbArc
 50
193.000031
 51
227.007401
  0
ARC
  5
1AB
100
AcDbEntity
  8
M1
  6
CONTINUOUS
370
25
100
AcDbCircle
 10
563.749092
 20
296.716153
 40
2.500003
100
AcDbArc
 50
12.99999
 51
192.999985
  0
ARC
  5
1AC
100
AcDbEntity
  8
M1
  6
CONTINUOUS
370
25
100
AcDbCircle
 10
622.415352
 20
313.124631
 40
2.500003
100
AcDbArc
 50
198.999939
 51
379.000002
  0
ARC
  5
1AD
100
AcDbEntity
  8
M1
  6
CONTINUOUS
370
25
100
AcDbCircle
 10
617.320747
 20
321.948743
 40
2.500001
100
AcDbArc
 50
41.000103
 51
221.000107
  0
ARC
  5
1AE
100
AcDbEntity
  8
M1
  6
CONTINUOUS
370
25
100
AcDbCircle
 10
597.16999
 20
304.431973
 40
24.200006
100
AcDbArc
 50
139.0
 51
160.999985
  0
ARC
  5
1AF
100
AcDbEntity
  8
M1
  6
CONTINUOUS
370
25
100
AcDbCircle
 10
597.16999
 20
304.431973
 40
29.199999
100
AcDbArc
 50
139.0
 51
161.000031
  0
ARC
  5
1B0
100
AcDbEntity
  8
M1
  6
CONTINUOUS
370
25
100
AcDbCircle
 10
577.019249
 20
321.948758
 40
2.499996
100
AcDbArc
 50
318.999786
 51
499.000275
  0
ARC
  5
1B1
100
AcDbEntity
  8
M1
  6
CONTINUOUS
370
25
100
AcDbCircle
 10
571.924644
 20
313.124646
 40
2.500003
100
AcDbArc
 50
161.000061
 51
341.000061
  0
ARC
  5
1B2
100
AcDbEntity
  8
M1
  6
CONTINUOUS
370
25
100
AcDbCircle
 10
597.16999
 20
304.431973
 40
24.200006
100
AcDbArc
 50
259.000031
 51
281.000031
  0
ARC
  5
1B3
100
AcDbEntity
  8
M1
  6
CONTINUOUS
370
25
100
AcDbCircle
 10
597.16999
 20
304.431973
 40
29.199997
100
AcDbArc
 50
259.000031
 51
281.000031
  0
ARC
  5
1B4
100
AcDbEntity
  8
M1
  6
CONTINUOUS
370
25
100
AcDbCircle
 10
592.075371
 20
278.222531
 40
2.500003
100
AcDbArc
 50
79.000061
 51
259.000061
  0
ARC
  5
1B5
100
AcDbEntity
  8
M1
  6
CONTINUOUS
370
25
100
AcDbCircle
 10
602.26458
 20
278.222531
 40
2.500004
100
AcDbArc
 50
281.000122
 51
460.999939
  0
LINE
  5
1B6
100
AcDbEntity
  8
M1
  6
CONTINUOUS
370
25
100
AcDbLine
 10
385.714653
 20
302.431973
 11
365.714653
 21
302.431973
  0
LINE
  5
1B7
100
AcDbEntity
  8
M1
  6
CONTINUOUS
370
25
100
AcDbLine
 10
385.714653
 20
306.431973
 11
365.714653
 21
306.431973
  0
ARC
  5
1B8
100
AcDbEntity
  8
M1
  6
CONTINUOUS
370
25
100
AcDbCircle
 10
385.714653
 20
304.431973
 40
2.0
100
AcDbArc
 50
270.0
 51
450.0
  0
CIRCLE
  5
1B9
100
AcDbEntity
  8
M1
  6
CONTINUOUS
370
25
100
AcDbCircle
 10
244.214622
 20
304.431973
 40
6.9
  0
ARC
  5
1BA
100
AcDbEntity
  8
M1
  6
CONTINUOUS
370
25
100
AcDbCircle
 10
244.214622
 20
303.906973
 40
8.475
100
AcDbArc
 50
113.066204
 51
426.933796
  0
LINE
  5
1BB
100
AcDbEntity
  8
M1
  6
CONTINUOUS
370
25
100
AcDbLine
 10
244.014622
 20
311.329074
 11
244.014622
 21
314.83005
  0
CIRCLE
  5
1BC
100
AcDbEntity
  8
M1
  6
CONTINUOUS
370
25
100
AcDbCircle
 10
242.708103
 20
313.18935
 40
0.85
  0
LINE
  5
1BD
100
AcDbEntity
  8
M1
  6
CONTINUOUS
370
25
100
AcDbLine
 10
241.722007
 20
314.366014
 11
241.066532
 21
311.903276
  0
ARC
  5
1BE
100
AcDbEntity
  8
M1
  6
CONTINUOUS
370
25
100
AcDbCircle
 10
244.214622
 20
304.431973
 40
10.4
100
AcDbArc
 50
91.10191
 51
102.596866
  0
ARC
  5
1BF
100
AcDbEntity
  8
M1
  6
CONTINUOUS
370
25
100
AcDbCircle
 10
242.011914
 20
314.288853
 40
0.3
100
AcDbArc
 50
102.596866
 51
165.095859
  0
ARC
  5
1C0
100
AcDbEntity
  8
M1
  6
CONTINUOUS
370
25
100
AcDbCircle
 10
240.776625
 20
311.980436
 40
0.3
100
AcDbArc
 50
293.066204
 51
345.095859
  0
ARC
  5
1C1
100
AcDbEntity
  8
M1
  6
CONTINUOUS
370
25
100
AcDbCircle
 10
247.652618
 20
311.980436
 40
0.3
100
AcDbArc
 50
194.904141
 51
246.933796
  0
ARC
  5
1C2
100
AcDbEntity
  8
M1
  6
CONTINUOUS
370
25
100
AcDbCircle
 10
246.417329
 20
314.288853
 40
0.3
100
AcDbArc
 50
14.904141
 51
77.403134
  0
ARC
  5
1C3
100
AcDbEntity
  8
M1
  6
CONTINUOUS
370
25
100
AcDbCircle
 10
244.214622
 20
304.431973
 40
10.4
100
AcDbArc
 50
77.403134
 51
88.89809
  0
LINE
  5
1C4
100
AcDbEntity
  8
M1
  6
CONTINUOUS
370
25
100
AcDbLine
 10
246.707237
 20
314.366014
 11
247.362711
 21
311.903276
  0
CIRCLE
  5
1C5
100
AcDbEntity
  8
M1
  6
CONTINUOUS
370
25
100
AcDbCircle
 10
245.721141
 20
313.18935
 40
0.85
  0
LINE
  5
1C6
100
AcDbEntity
  8
M1
  6
CONTINUOUS
370
25
100
AcDbLine
 10
244.414622
 20
311.329074
 11
244.414622
 21
314.83005
  0
ARC
  5
1C7
100
AcDbEntity
  8
M1
  6
CONTINUOUS
370
25
100
AcDbCircle
 10
442.187258
 20
367.807981
 40
3.0
100
AcDbArc
 50
90.0
 51
180.0
  0
ARC
  5
1C8
100
AcDbEntity
  8
M1
  6
CONTINUOUS
370
25
100
AcDbCircle
 10
452.942049
 20
367.807981
 40
3.0
100
AcDbArc
 50
0.0
 51
90.0
  0
TEXT
  5
1C9
100
AcDbEntity
  8
M1
100
AcDbText
 10
583.411011
 20
189.302628
 40
8.316
  1
ＰＯＢ－０．３
 41
1.052632
  7
STANDARD
100
AcDbText
  0
TEXT
  5
1CA
100
AcDbEntity
  8
M1
100
AcDbText
 10
580.81604
 20
173.526123
 40
7.35
  1
（ＳＤＫ６１０１）
 41
1.0
  7
STANDARD
100
AcDbText
  0
LINE
  5
1CB
100
AcDbEntity
  8
M1
  6
CONTINUOUS
370
25
100
AcDbLine
 10
447.564653
 20
370.807981
 11
447.564654
 21
359.65821
  0
ENDSEC
  0
SECTION
  2
OBJECTS
  0
DICTIONARY
  5
C
100
AcDbDictionary
  3
ACAD_GROUP
350
D
  3
ACAD_MLINESTYLE
350
E
  0
DICTIONARY
  5
D
102
{ACAD_REACTORS
330
C
102
}
100
AcDbDictionary
  0
DICTIONARY
  5
E
102
{ACAD_REACTORS
330
C
102
}
100
AcDbDictionary
  3
STANDARD
350
13
  0
MLINESTYLE
  5
13
102
{ACAD_REACTORS
330
E
102
}
100
AcDbMlineStyle
  2
STANDARD
 70
     0
  3

 62
     0
 51
90.0
 52
90.0
 71
     2
 49
0.5
 62
   256
  6
BYLAYER
 49
-0.5
 62
   256
  6
BYLAYER
  0
ENDSEC
  0
EOF
