  0
SECTION
  2
HEADER
  9
$ACADVER
  1
AC1015
  9
$INSBASE
 10
0.0
 20
0.0
  9
$VIEWCTR
 10
7.531722
 20
4.5
  9
$VIEWSIZE
 40
9.0
  9
$SNAPMODE
 70
     0
  9
$SNAPUNIT
 10
1.0
 20
1.0
  9
$SNAPBASE
 10
0.0
 20
0.0
  9
$SNAPANG
 50
0.0
  9
$SNAPSTYLE
 70
     0
  9
$SNAPISOPAIR
 70
     0
  9
$GRIDMODE
 70
     0
  9
$GRIDUNIT
 10
0.0
 20
0.0
  9
$ORTHOMODE
 70
     0
  9
$REGENMODE
 70
     1
  9
$FILLMODE
 70
     1
  9
$QTEXTMODE
 70
     0
  9
$DRAGMODE
 70
     2
  9
$LTSCALE
 40
1.0
  9
$OSMODE
 70
     0
  9
$ATTMODE
 70
     1
  9
$TEXTSIZE
 40
0.2
  9
$TRACEWID
 40
0.05
  9
$TEXTSTYLE
  7
STANDARD
  9
$CELTYPE
  6
BYLAYER
  9
$CECOLOR
 62
   256
  9
$DIMSCALE
 40
1.0
  9
$DIMASZ
 40
0.18
  9
$DIMEXO
 40
0.0625
  9
$DIMDLI
 40
0.38
  9
$DIMRND
 40
0.0
  9
$DIMDLE
 40
0.0
  9
$DIMEXE
 40
0.18
  9
$DIMTP
 40
0.0
  9
$DIMTM
 40
0.0
  9
$DIMTXT
 40
0.18
  9
$DIMCEN
 40
0.09
  9
$DIMTSZ
 40
0.0
  9
$DIMADEC
 70
     0
  9
$DIMALTRND
 40
0.000000
  9
$DIMAZIN
 70
     0
  9
$DIMDSEP
 70
    46
  9
$DIMATFIT
 70
     3
  9
$DIMFRAC
 70
     0
  9
$DIMLDRBLK
  1

  9
$DIMLUNIT
 70
     2
  9
$DIMLWD
 70
   13
  9
$DIMLWE
 70
   13
  9
$DIMTMOVE
 70
     0
  9
$CELWEIGHT
370
    25
  9
$LWDISPLAY
290
    1
  9
$EXTNAMES
290
    1
  9
$DIMTOL
 70
     0
  9
$DIMLIM
 70
     0
  9
$DIMTIH
 70
     1
  9
$DIMTOH
 70
     1
  9
$DIMSE1
 70
     0
  9
$DIMSE2
 70
     0
  9
$DIMTAD
 70
     0
  9
$DIMZIN
 70
     0
  9
$DIMBLK
  1

  9
$LUNITS
 70
     2
  9
$LUPREC
 70
     4
  9
$AXISMODE
 70
     0
  9
$AXISUNIT
 10
0.0
 20
0.0
  9
$SKETCHINC
 40
0.1
  9
$FILLETRAD
 40
0.0
  9
$AUNITS
 70
     0
  9
$AUPREC
 70
     0
  9
$MENU
  1
ACAD
  9
$ELEVATION
 40
0.0
  9
$THICKNESS
 40
0.0
  9
$VIEWDIR
 10
0.0
 20
0.0
 30
1.0
  9
$LIMCHECK
 70
     0
  9
$BLIPMODE
 70
     1
  9
$CHAMFERA
 40
0.0
  9
$CHAMFERB
 40
0.0
  9
$FASTZOOM
 70
     1
  9
$SKPOLY
 70
     0
  9
$TDCREATE
 40
0000000.0000000000
  9
$TDUPDATE
 40
0000000.0000000000
  9
$TDINDWG
 40
0.0000000000
  9
$TDUSRTIMER
 40
0.0000000000
  9
$USRTIMER
 70
     1
  9
$ANGBASE
 50
0.0
  9
$ANGDIR
 70
     0
  9
$PDMODE
 70
     0
  9
$PDSIZE
 40
0.0
  9
$PLINEWID
 40
0.0
  9
$COORDS
 70
     0
  9
$USERI1
 70
     0
  9
$USERI2
 70
     0
  9
$USERI3
 70
     0
  9
$USERI4
 70
     0
  9
$USERI5
 70
     0
  9
$USERR1
 40
0.0
  9
$USERR2
 40
0.0
  9
$USERR3
 40
0.0
  9
$USERR4
 40
0.0
  9
$USERR5
 40
0.0
  9
$CLAYER
  8
M1
  9
$EXTMIN
 10
115.695551
 20
204.247591
  9
$EXTMAX
 10
1494.693905
 20
875.092834
  9
$LIMMIN
 10
0.0
 20
0.0
  9
$LIMMAX
 10
841.0
 20
594.0
  9
$HANDSEED
  5
36F
  0
ENDSEC
  0
SECTION
  2
CLASSES
  0
ENDSEC
  0
SECTION
  2
TABLES
  0
TABLE
  2
VPORT
  5
8
100
AcDbSymbolTable
 70
     2
  0
VPORT
  5
14
100
AcDbSymbolTableRecord
100
AcDbViewportTableRecord
  2
*ACTIVE
 70
     0
 10
0.0
 20
0.0
 11
1.0
 21
1.0
 12
484.0
 22
297.0
 13
0.0
 23
0.0
 14
1.0
 24
1.0
 15
0.0
 25
0.0
 16
0.0
 26
0.0
 36
1.0
 17
0.0
 27
0.0
 37
0.0
 40
594.0
 41
2.0
 42
50.0
 43
0.0
 44
0.0
 50
0.0
 51
0.0
 71
     0
 72
   100
 73
     1
 74
     1
 75
     0
 76
     0
 77
     0
 78
     0
  0
ENDTAB
  0
TABLE
  2
LTYPE
  5
5
100
AcDbSymbolTable
 70
     5
  0
LTYPE
  5
15
100
AcDbSymbolTableRecord
100
AcDbLinetypeTableRecord
  2
BYBLOCK
 70
     0
  3

 72
    65
 73
     0
 40
0.0
  0
LTYPE
  5
16
100
AcDbSymbolTableRecord
100
AcDbLinetypeTableRecord
  2
BYLAYER
 70
     0
  3

 72
    65
 73
     0
 40
0.0
  0
LTYPE
  5
17
100
AcDbSymbolTableRecord
100
AcDbLinetypeTableRecord
  2
CONTINUOUS
 70
    64
  3
Solid line
 72
    65
 73
     0
 40
0.0
  0
LTYPE
  5
18
100
AcDbSymbolTableRecord
100
AcDbLinetypeTableRecord
  2
DASHED
 70
    64
  3
__ __ __ __ __ __ __ __ __ __ __ __ __ __ __ __
 72
    65
 73
     2
 40
0.75
 49
0.5
 74
     0
 49
-0.25
 74
     0
  0
LTYPE
  5
19
100
AcDbSymbolTableRecord
100
AcDbLinetypeTableRecord
  2
DASHDOT
 70
    64
  3
__ . __ . __ . __ . __ . __ . __ . __ . __ . __
 72
    65
 73
     4
 40
1.0
 49
0.5
 74
     0
 49
-0.25
 74
     0
 49
0.0
 74
     0
 49
-0.25
 74
     0
  0
LTYPE
  5
1A
100
AcDbSymbolTableRecord
100
AcDbLinetypeTableRecord
  2
DIVIDE
 70
    64
  3
____ . . ____ . . ____ . . ____ . . ____ . . __
 72
    65
 73
     6
 40
1.25
 49
0.5
 74
     0
 49
-0.25
 74
     0
 49
0.0
 74
     0
 49
-0.25
 74
     0
 49
0.0
 74
     0
 49
-0.25
 74
     0
  0
LTYPE
  5
1B
100
AcDbSymbolTableRecord
100
AcDbLinetypeTableRecord
  2
DOT
 70
    64
  3
. . . . . . . . . . . . . . . . . . . . . . . .
 72
    65
 73
     2
 40
0.25
 49
0.0
 74
     0
 49
-0.25
 74
     0
  0
ENDTAB
  0
TABLE
  2
LAYER
  5
2
100
AcDbSymbolTable
 70
   102
  0
LAYER
  5
F
100
AcDbSymbolTableRecord
100
AcDbLayerTableRecord
  2
0
 70
     0
 62
     7
  6
CONTINUOUS
370
     -3
390
F
  0
LAYER
  5
1C
100
AcDbSymbolTableRecord
100
AcDbLayerTableRecord
  2
M1
 70
     0
 62
     7
  6
CONTINUOUS
370
     -3
390
F
  0
ENDTAB
  0
TABLE
  2
STYLE
  5
3
100
AcDbSymbolTable
 70
     2
  0
STYLE
  5
10
100
AcDbSymbolTableRecord
100
AcDbTextStyleTableRecord
  2
STANDARD
 70
     0
 40
0.0
 41
1.0
 50
0.0
 71
     0
 42
0.2
  3
txt
  4
BIGFONT
  0
ENDTAB
  0
TABLE
  2
VIEW
  5
6
100
AcDbSymbolTable
 70
     0
  0
ENDTAB
  0
TABLE
  2
UCS
  5
7
100
AcDbSymbolTable
 70
     0
  0
ENDTAB
  0
TABLE
  2
APPID
  5
9
100
AcDbSymbolTable
 70
     1
  0
APPID
  5
11
100
AcDbSymbolTableRecord
100
AcDbRegAppTableRecord
  2
ACAD
 70
     0
  0
ENDTAB
  0
TABLE
  2
DIMSTYLE
  5
A
100
AcDbSymbolTable
 70
     2
100
AcDbDimStyleTable
 71
     1
  0
DIMSTYLE
105
23
100
AcDbSymbolTableRecord
100
AcDbDimStyleTableRecord
  2
STANDARD
 70
     0
  3

  4

  5

  6
_OPEN
  7
_OPEN
 40
1.0
 41
6.0
 42
0.5
 43
8.0
 44
1.5
 45
0.0
 46
0.0
 47
0.0
 48
0.0
140
6.3
141
0.09
142
0.0
143
0.03937
144
1.0
145
0.0
146
1.0
147
1.0
148
0.000000
 71
     0
 72
     0
 73
     0
 74
     0
 75
     0
 76
     0
 77
     3
 78
     8
170
     0
171
     2
172
     0
173
     1
174
     0
175
     0
176
     0
177
     0
178
     0
270
     2
271
     2
272
     4
273
     2
274
     2
340
10
275
     0
278
    46
280
     0
281
     0
282
     0
283
     1
284
     0
285
     0
286
     0
287
     3
288
     0
371
   13
372
   13
  0
DIMSTYLE
105
24
100
AcDbSymbolTableRecord
100
AcDbDimStyleTableRecord
  2
LEADSTYL
 70
     0
  3

  4

  5

  6
_OPEN
  7
_OPEN
 40
1.0
 41
6.0
 42
0.0625
 43
0.38
 44
0.18
 45
0.0
 46
0.0
 47
0.0
 48
0.0
140
6.3
141
0.09
142
0.0
143
25.4
144
1.0
145
0.0
146
1.0
147
1.0
 71
     0
 72
     0
 73
     1
 74
     1
 75
     0
 76
     0
 77
     0
 78
     0
170
     0
171
     2
172
     0
173
     1
174
     0
175
     0
176
     0
177
     0
178
     0
270
     2
271
     4
272
     4
273
     2
274
     2
340
10
275
     0
280
     0
281
     0
282
     0
283
     1
284
     0
285
     0
286
     0
287
     3
288
     0
  0
ENDTAB
  0
TABLE
  2
BLOCK_RECORD
  5
1
100
AcDbSymbolTable
 70
     6
  0
BLOCK_RECORD
  5
1D
100
AcDbSymbolTableRecord
100
AcDbBlockTableRecord
  2
*MODEL_SPACE
  0
BLOCK_RECORD
  5
20
100
AcDbSymbolTableRecord
100
AcDbBlockTableRecord
  2
*PAPER_SPACE
  0
BLOCK_RECORD
  5
25
100
AcDbSymbolTableRecord
100
AcDbBlockTableRecord
  2
_NONE
  0
BLOCK_RECORD
  5
29
100
AcDbSymbolTableRecord
100
AcDbBlockTableRecord
  2
_OPEN
  0
BLOCK_RECORD
  5
2F
100
AcDbSymbolTableRecord
100
AcDbBlockTableRecord
  2
_CLOSED
  0
BLOCK_RECORD
  5
36
100
AcDbSymbolTableRecord
100
AcDbBlockTableRecord
  2
_ORIGIN
  0
BLOCK_RECORD
  5
3B
100
AcDbSymbolTableRecord
100
AcDbBlockTableRecord
  2
_DOT
  0
BLOCK_RECORD
  5
43
100
AcDbSymbolTableRecord
100
AcDbBlockTableRecord
  2
_OBLIQUE
  0
ENDTAB
  0
ENDSEC
  0
SECTION
  2
BLOCKS
  0
BLOCK
  5
1E
100
AcDbEntity
  8
0
100
AcDbBlockBegin
  2
*MODEL_SPACE
 70
     0
 10
0.0
 20
0.0
 30
0.0
  3
*MODEL_SPACE
  1

  0
ENDBLK
  5
1F
100
AcDbEntity
  8
0
100
AcDbBlockEnd
  0
BLOCK
  5
21
100
AcDbEntity
 67
     1
  8
0
100
AcDbBlockBegin
  2
*PAPER_SPACE
 70
     0
 10
0.0
 20
0.0
 30
0.0
  3
*PAPER_SPACE
  1

  0
ENDBLK
  5
22
100
AcDbEntity
 67
     1
  8
0
100
AcDbBlockEnd
  0
BLOCK
  5
26
100
AcDbEntity
  8
0
100
AcDbBlockBegin
  2
_NONE
 70
     0
 10
0.0
 20
0.0
  0
CIRCLE
  5
27
100
AcDbEntity
  8
0
 62
     0
370
13
100
AcDbCircle
 10
0.0
 20
0.0
 40
0.25
  0
ENDBLK
  5
28
100
AcDbEntity
  8
0
100
AcDbBlockEnd
  0
BLOCK
  5
2A
100
AcDbEntity
  8
0
100
AcDbBlockBegin
  2
_OPEN
 70
     0
 10
0.0
 20
0.0
  0
LINE
  5
2B
100
AcDbEntity
  8
0
 62
     0
370
13
100
AcDbLine
 10
-0.965926
 20
0.258819
 11
0.0
 21
0.0
  0
LINE
  5
2C
100
AcDbEntity
  8
0
 62
     0
370
13
100
AcDbLine
 10
0.0
 20
0.0
 11
-0.965926
 21
-0.258819
  0
LINE
  5
2D
100
AcDbEntity
  8
0
 62
     0
370
13
100
AcDbLine
 10
0.0
 20
0.0
 11
-1.0
 21
0.0
  0
ENDBLK
  5
2E
100
AcDbEntity
  8
0
100
AcDbBlockEnd
  0
BLOCK
  5
30
100
AcDbEntity
  8
0
100
AcDbBlockBegin
  2
_CLOSED
 70
     0
 10
0.0
 20
0.0
  0
LINE
  5
31
100
AcDbEntity
  8
0
 62
     0
370
13
100
AcDbLine
 10
-0.965926
 20
0.258819
 11
0.0
 21
0.0
  0
LINE
  5
32
100
AcDbEntity
  8
0
 62
     0
370
13
100
AcDbLine
 10
0.0
 20
0.0
 11
-0.965926
 21
-0.258819
  0
LINE
  5
33
100
AcDbEntity
  8
0
 62
     0
370
13
100
AcDbLine
 10
-0.965926
 20
0.258819
 11
-0.965926
 21
-0.258819
  0
LINE
  5
34
100
AcDbEntity
  8
0
 62
     0
370
13
100
AcDbLine
 10
0.0
 20
0.0
 11
-1.0
 21
0.0
  0
ENDBLK
  5
35
100
AcDbEntity
  8
0
100
AcDbBlockEnd
  0
BLOCK
  5
37
100
AcDbEntity
  8
0
100
AcDbBlockBegin
  2
_ORIGIN
 70
     0
 10
0.0
 20
0.0
  0
CIRCLE
  5
38
100
AcDbEntity
  8
0
 62
     0
370
13
100
AcDbCircle
 10
0.0
 20
0.0
 40
0.5
  0
LINE
  5
39
100
AcDbEntity
  8
0
 62
     0
370
13
100
AcDbLine
 10
0.0
 20
0.0
 11
-1.0
 21
0.0
  0
ENDBLK
  5
3A
100
AcDbEntity
  8
0
100
AcDbBlockEnd
  0
BLOCK
  5
3C
100
AcDbEntity
  8
0
100
AcDbBlockBegin
  2
_DOT
 70
     0
 10
0.0
 20
0.0
  0
POLYLINE
  5
3D
100
AcDbEntity
  8
0
 62
     0
100
AcDb2dPolyline
 66
     1
 70
     1
 40
0.5
 41
0.5
  0
VERTEX
  5
3E
100
AcDbEntity
  8
0
 62
     0
100
AcDbVertex
100
AcDb2dVertex
 10
-0.25
 20
0.0
 42
1.0
  0
VERTEX
  5
3F
100
AcDbEntity
  8
0
 62
     0
100
AcDbVertex
100
AcDb2dVertex
 10
0.25
 20
0.0
 42
1.0
  0
SEQEND
  5
40
100
AcDbEntity
  8
0
 62
     0
  0
LINE
  5
41
100
AcDbEntity
  8
0
 62
     0
370
13
100
AcDbLine
 10
-0.5
 20
0.0
 11
-1.0
 21
0.0
  0
ENDBLK
  5
42
100
AcDbEntity
  8
0
100
AcDbBlockEnd
  0
BLOCK
  5
44
100
AcDbEntity
  8
0
100
AcDbBlockBegin
  2
_OBLIQUE
 70
     0
 10
0.0
 20
0.0
  0
LINE
  5
45
100
AcDbEntity
  8
0
 62
     0
370
13
100
AcDbLine
 10
-0.353553
 20
-0.353553
 11
0.353553
 21
0.353553
  0
ENDBLK
  5
46
100
AcDbEntity
  8
0
100
AcDbBlockEnd
  0
ENDSEC
  0
SECTION
  2
ENTITIES
  0
LINE
  5
47
100
AcDbEntity
  8
M1
  6
CONTINUOUS
370
25
100
AcDbLine
 10
202.359981
 20
652.592834
 11
226.256343
 21
652.592834
  0
LINE
  5
48
100
AcDbEntity
  8
M1
  6
CONTINUOUS
370
25
100
AcDbLine
 10
819.222469
 20
850.092834
 11
916.222469
 21
850.092834
  0
LINE
  5
49
100
AcDbEntity
  8
M1
  6
CONTINUOUS
370
25
100
AcDbLine
 10
918.222469
 20
848.092834
 11
918.222469
 21
457.092834
  0
LINE
  5
4A
100
AcDbEntity
  8
M1
  6
CONTINUOUS
370
25
100
AcDbLine
 10
817.222469
 20
848.092834
 11
817.222469
 21
457.092834
  0
LINE
  5
4B
100
AcDbEntity
  8
M1
  6
CONTINUOUS
370
25
100
AcDbLine
 10
817.222469
 20
828.592834
 11
799.222469
 21
828.592834
  0
LINE
  5
4C
100
AcDbEntity
  8
M1
  6
CONTINUOUS
370
25
100
AcDbLine
 10
795.222529
 20
824.592834
 11
795.222529
 21
480.592834
  0
LINE
  5
4D
100
AcDbEntity
  8
M1
  6
CONTINUOUS
370
25
100
AcDbLine
 10
795.223261
 20
795.09192
 11
769.629145
 21
770.395814
  0
LINE
  5
4E
100
AcDbEntity
  8
M1
  6
CONTINUOUS
370
25
100
AcDbLine
 10
762.684443
 20
767.592834
 11
761.722529
 21
767.592834
  0
LINE
  5
4F
100
AcDbEntity
  8
M1
  6
CONTINUOUS
370
25
100
AcDbLine
 10
761.722529
 20
767.592834
 11
761.722529
 21
537.592834
  0
LINE
  5
50
100
AcDbEntity
  8
M1
  6
CONTINUOUS
370
25
100
AcDbLine
 10
761.722529
 20
717.592834
 11
728.722529
 21
717.592834
  0
LINE
  5
51
100
AcDbEntity
  8
M1
  6
CONTINUOUS
370
25
100
AcDbLine
 10
728.722529
 20
717.592834
 11
728.722529
 21
587.592834
  0
LINE
  5
52
100
AcDbEntity
  8
M1
  6
CONTINUOUS
370
25
100
AcDbLine
 10
819.222469
 20
455.092834
 11
916.222469
 21
455.092834
  0
LINE
  5
53
100
AcDbEntity
  8
M1
  6
CONTINUOUS
370
25
100
AcDbLine
 10
762.684687
 20
537.592834
 11
761.722529
 21
537.592834
  0
LINE
  5
54
100
AcDbEntity
  8
M1
  6
CONTINUOUS
370
25
100
AcDbLine
 10
761.722529
 20
587.592834
 11
728.722529
 21
587.592834
  0
LINE
  5
55
100
AcDbEntity
  8
M1
  6
CONTINUOUS
370
25
100
AcDbLine
 10
795.222529
 20
510.093016
 11
769.628291
 21
534.789184
  0
LINE
  5
56
100
AcDbEntity
  8
M1
  6
CONTINUOUS
370
25
100
AcDbLine
 10
817.222469
 20
476.592834
 11
799.222469
 21
476.592834
  0
LINE
  5
57
100
AcDbEntity
  8
M1
  6
CONTINUOUS
370
25
100
AcDbLine
 10
622.722529
 20
675.092834
 11
622.722529
 21
630.092834
  0
LINE
  5
58
100
AcDbEntity
  8
M1
  6
CONTINUOUS
370
25
100
AcDbLine
 10
714.722529
 20
676.592834
 11
714.722529
 21
628.592834
  0
LINE
  5
59
100
AcDbEntity
  8
M1
  6
CONTINUOUS
370
25
100
AcDbLine
 10
702.722529
 20
658.592834
 11
702.722529
 21
646.592834
  0
LINE
  5
5A
100
AcDbEntity
  8
M1
  6
CONTINUOUS
370
25
100
AcDbLine
 10
622.722529
 20
675.092834
 11
714.722529
 21
675.092834
  0
LINE
  5
5B
100
AcDbEntity
  8
M1
  6
CONTINUOUS
370
25
100
AcDbLine
 10
622.722529
 20
630.092834
 11
714.722529
 21
630.092834
  0
LINE
  5
5C
100
AcDbEntity
  8
M1
  6
CONTINUOUS
370
25
100
AcDbLine
 10
622.722529
 20
646.592834
 11
702.722529
 21
646.592834
  0
LINE
  5
5D
100
AcDbEntity
  8
M1
  6
CONTINUOUS
370
25
100
AcDbLine
 10
622.722529
 20
658.592834
 11
702.722529
 21
658.592834
  0
LINE
  5
5E
100
AcDbEntity
  8
M1
  6
CONTINUOUS
370
25
100
AcDbLine
 10
722.266353
 20
700.675598
 11
722.266353
 21
604.51007
  0
LINE
  5
5F
100
AcDbEntity
  8
M1
  6
CONTINUOUS
370
25
100
AcDbLine
 10
722.266353
 20
700.675598
 11
724.266353
 21
700.675598
  0
LINE
  5
60
100
AcDbEntity
  8
M1
  6
CONTINUOUS
370
25
100
AcDbLine
 10
716.722529
 20
692.688538
 11
722.266353
 21
692.688538
  0
LINE
  5
61
100
AcDbEntity
  8
M1
  6
CONTINUOUS
370
25
100
AcDbLine
 10
724.266353
 20
700.675598
 11
728.722407
 21
691.119568
  0
LINE
  5
62
100
AcDbEntity
  8
M1
  6
CONTINUOUS
370
25
100
AcDbLine
 10
722.266353
 20
604.51007
 11
724.266353
 21
604.51007
  0
LINE
  5
63
100
AcDbEntity
  8
M1
  6
CONTINUOUS
370
25
100
AcDbLine
 10
716.722529
 20
612.497132
 11
722.266353
 21
612.497132
  0
LINE
  5
64
100
AcDbEntity
  8
M1
  6
CONTINUOUS
370
25
100
AcDbLine
 10
724.266841
 20
604.509856
 11
728.723017
 21
614.066008
  0
LINE
  5
65
100
AcDbEntity
  8
M1
  6
CONTINUOUS
370
25
100
AcDbLine
 10
313.195551
 20
765.256958
 11
313.195551
 21
742.21399
  0
LINE
  5
66
100
AcDbEntity
  8
M1
  6
CONTINUOUS
370
25
100
AcDbLine
 10
598.161219
 20
652.592834
 11
629.863643
 21
652.592834
  0
LINE
  5
67
100
AcDbEntity
  8
M1
  6
CONTINUOUS
370
25
100
AcDbLine
 10
448.278193
 20
741.553344
 11
438.812129
 21
736.088134
  0
LINE
  5
68
100
AcDbEntity
  8
M1
  6
CONTINUOUS
370
25
100
AcDbLine
 10
457.778071
 20
725.09906
 11
448.312129
 21
719.63385
  0
LINE
  5
69
100
AcDbEntity
  8
M1
  6
CONTINUOUS
370
25
100
AcDbLine
 10
448.278559
 20
741.552796
 11
457.778559
 21
736.067932
  0
LINE
  5
6A
100
AcDbEntity
  8
M1
  6
CONTINUOUS
370
25
100
AcDbLine
 10
438.812129
 20
736.087524
 11
438.812129
 21
725.117798
  0
LINE
  5
6B
100
AcDbEntity
  8
M1
  6
CONTINUOUS
370
25
100
AcDbLine
 10
457.778193
 20
725.098204
 11
457.778193
 21
736.06781
  0
LINE
  5
6C
100
AcDbEntity
  8
M1
  6
CONTINUOUS
370
25
100
AcDbLine
 10
448.311275
 20
719.630492
 11
438.811153
 21
725.115418
  0
LINE
  5
6D
100
AcDbEntity
  8
M1
  6
CONTINUOUS
370
25
100
AcDbLine
 10
303.695551
 20
814.057982
 11
303.695551
 21
803.127624
  0
LINE
  5
6E
100
AcDbEntity
  8
M1
  6
CONTINUOUS
370
25
100
AcDbLine
 10
322.695551
 20
814.058044
 11
322.695551
 21
803.127562
  0
LINE
  5
6F
100
AcDbEntity
  8
M1
  6
CONTINUOUS
370
25
100
AcDbLine
 10
303.695551
 20
814.058532
 11
313.195551
 21
819.543336
  0
LINE
  5
70
100
AcDbEntity
  8
M1
  6
CONTINUOUS
370
25
100
AcDbLine
 10
303.695551
 20
803.127624
 11
313.195551
 21
797.642762
  0
LINE
  5
71
100
AcDbEntity
  8
M1
  6
CONTINUOUS
370
25
100
AcDbLine
 10
322.695551
 20
814.058044
 11
313.195551
 21
819.542846
  0
LINE
  5
72
100
AcDbEntity
  8
M1
  6
CONTINUOUS
370
25
100
AcDbLine
 10
322.695795
 20
803.127562
 11
313.195673
 21
797.642762
  0
LINE
  5
73
100
AcDbEntity
  8
M1
  6
CONTINUOUS
370
25
100
AcDbLine
 10
168.612543
 20
725.098204
 11
178.078487
 21
719.632996
  0
LINE
  5
74
100
AcDbEntity
  8
M1
  6
CONTINUOUS
370
25
100
AcDbLine
 10
178.112421
 20
741.552672
 11
187.578487
 21
736.087464
  0
LINE
  5
75
100
AcDbEntity
  8
M1
  6
CONTINUOUS
370
25
100
AcDbLine
 10
168.612665
 20
725.098266
 11
168.612665
 21
736.067932
  0
LINE
  5
76
100
AcDbEntity
  8
M1
  6
CONTINUOUS
370
25
100
AcDbLine
 10
178.078241
 20
719.63385
 11
187.578119
 21
725.118652
  0
LINE
  5
77
100
AcDbEntity
  8
M1
  6
CONTINUOUS
370
25
100
AcDbLine
 10
178.112055
 20
741.553222
 11
168.612055
 21
736.06842
  0
LINE
  5
78
100
AcDbEntity
  8
M1
  6
CONTINUOUS
370
25
100
AcDbLine
 10
187.581415
 20
736.087646
 11
187.581415
 21
725.117858
  0
LINE
  5
79
100
AcDbEntity
  8
M1
  6
CONTINUOUS
370
25
100
AcDbLine
 10
178.112177
 20
563.633514
 11
187.578241
 21
569.098724
  0
LINE
  5
7A
100
AcDbEntity
  8
M1
  6
CONTINUOUS
370
25
100
AcDbLine
 10
168.612177
 20
580.088104
 11
178.078119
 21
585.553314
  0
LINE
  5
7B
100
AcDbEntity
  8
M1
  6
CONTINUOUS
370
25
100
AcDbLine
 10
178.112543
 20
563.632964
 11
168.612543
 21
569.117828
  0
LINE
  5
7C
100
AcDbEntity
  8
M1
  6
CONTINUOUS
370
25
100
AcDbLine
 10
187.579097
 20
569.098204
 11
187.579097
 21
580.067932
  0
LINE
  5
7D
100
AcDbEntity
  8
M1
  6
CONTINUOUS
370
25
100
AcDbLine
 10
168.613031
 20
580.08734
 11
168.613031
 21
569.117736
  0
LINE
  5
7E
100
AcDbEntity
  8
M1
  6
CONTINUOUS
370
25
100
AcDbLine
 10
178.079829
 20
585.555206
 11
187.579951
 21
580.070282
  0
LINE
  5
7F
100
AcDbEntity
  8
M1
  6
CONTINUOUS
370
25
100
AcDbLine
 10
322.695673
 20
491.127624
 11
322.695673
 21
502.058044
  0
LINE
  5
80
100
AcDbEntity
  8
M1
  6
CONTINUOUS
370
25
100
AcDbLine
 10
303.695673
 20
491.127624
 11
303.695673
 21
502.058044
  0
LINE
  5
81
100
AcDbEntity
  8
M1
  6
CONTINUOUS
370
25
100
AcDbLine
 10
322.695307
 20
491.128174
 11
313.195185
 21
485.64331
  0
LINE
  5
82
100
AcDbEntity
  8
M1
  6
CONTINUOUS
370
25
100
AcDbLine
 10
322.695673
 20
502.05841
 11
313.195551
 21
507.543274
  0
LINE
  5
83
100
AcDbEntity
  8
M1
  6
CONTINUOUS
370
25
100
AcDbLine
 10
303.695795
 20
491.12793
 11
313.195795
 21
485.643128
  0
LINE
  5
84
100
AcDbEntity
  8
M1
  6
CONTINUOUS
370
25
100
AcDbLine
 10
303.693721
 20
502.060852
 11
313.193843
 21
507.545776
  0
LINE
  5
85
100
AcDbEntity
  8
M1
  6
CONTINUOUS
370
25
100
AcDbLine
 10
457.778681
 20
580.087556
 11
448.312617
 21
585.552764
  0
LINE
  5
86
100
AcDbEntity
  8
M1
  6
CONTINUOUS
370
25
100
AcDbLine
 10
448.278559
 20
563.633026
 11
438.812617
 21
569.098236
  0
LINE
  5
87
100
AcDbEntity
  8
M1
  6
CONTINUOUS
370
25
100
AcDbLine
 10
457.778681
 20
580.087586
 11
457.778681
 21
569.117858
  0
LINE
  5
88
100
AcDbEntity
  8
M1
  6
CONTINUOUS
370
25
100
AcDbLine
 10
448.311885
 20
585.553588
 11
438.811763
 21
580.068726
  0
LINE
  5
89
100
AcDbEntity
  8
M1
  6
CONTINUOUS
370
25
100
AcDbLine
 10
448.278071
 20
563.63385
 11
457.778071
 21
569.118652
  0
LINE
  5
8A
100
AcDbEntity
  8
M1
  6
CONTINUOUS
370
25
100
AcDbLine
 10
438.809809
 20
569.097962
 11
438.809809
 21
580.06781
  0
LINE
  5
8B
100
AcDbEntity
  8
M1
  6
CONTINUOUS
370
25
100
AcDbLine
 10
792.222529
 20
741.542846
 11
792.222529
 21
719.642822
  0
LINE
  5
8C
100
AcDbEntity
  8
M1
  6
CONTINUOUS
370
25
100
AcDbLine
 10
792.222529
 20
741.342834
 11
795.222529
 21
741.342834
  0
LINE
  5
8D
100
AcDbEntity
  8
M1
  6
CONTINUOUS
370
25
100
AcDbLine
 10
792.222529
 20
719.842834
 11
795.222529
 21
719.842834
  0
LINE
  5
8E
100
AcDbEntity
  8
M1
  6
CONTINUOUS
370
25
100
AcDbLine
 10
792.222041
 20
731.600952
 11
795.222041
 21
734.601014
  0
LINE
  5
8F
100
AcDbEntity
  8
M1
  6
CONTINUOUS
370
25
100
AcDbLine
 10
792.222041
 20
727.358398
 11
795.222041
 21
730.358398
  0
LINE
  5
90
100
AcDbEntity
  8
M1
  6
CONTINUOUS
370
25
100
AcDbLine
 10
784.222529
 20
739.59314
 11
784.222529
 21
721.59265
  0
LINE
  5
91
100
AcDbEntity
  8
M1
  6
CONTINUOUS
370
25
100
AcDbLine
 10
785.348261
 20
719.642822
 11
792.222529
 21
719.642822
  0
LINE
  5
92
100
AcDbEntity
  8
M1
  6
CONTINUOUS
370
25
100
AcDbLine
 10
785.348261
 20
741.542846
 11
792.222529
 21
741.542846
  0
LINE
  5
93
100
AcDbEntity
  8
M1
  6
CONTINUOUS
370
25
100
AcDbLine
 10
785.348261
 20
736.592834
 11
792.222529
 21
736.592834
  0
LINE
  5
94
100
AcDbEntity
  8
M1
  6
CONTINUOUS
370
25
100
AcDbLine
 10
785.348261
 20
724.592834
 11
792.222529
 21
724.592834
  0
LINE
  5
95
100
AcDbEntity
  8
M1
  6
CONTINUOUS
370
25
100
AcDbLine
 10
784.222163
 20
739.593078
 11
785.348017
 21
741.543028
  0
LINE
  5
96
100
AcDbEntity
  8
M1
  6
CONTINUOUS
370
25
100
AcDbLine
 10
784.223139
 20
721.59314
 11
785.348871
 21
719.64325
  0
LINE
  5
97
100
AcDbEntity
  8
M1
  6
CONTINUOUS
370
25
100
AcDbLine
 10
792.222529
 20
819.542846
 11
792.222529
 21
797.642822
  0
LINE
  5
98
100
AcDbEntity
  8
M1
  6
CONTINUOUS
370
25
100
AcDbLine
 10
792.222529
 20
819.342834
 11
795.222529
 21
819.342834
  0
LINE
  5
99
100
AcDbEntity
  8
M1
  6
CONTINUOUS
370
25
100
AcDbLine
 10
792.222529
 20
797.842834
 11
795.222529
 21
797.842834
  0
LINE
  5
9A
100
AcDbEntity
  8
M1
  6
CONTINUOUS
370
25
100
AcDbLine
 10
792.222163
 20
809.601014
 11
795.222041
 21
812.601014
  0
LINE
  5
9B
100
AcDbEntity
  8
M1
  6
CONTINUOUS
370
25
100
AcDbLine
 10
792.222041
 20
805.358458
 11
795.222041
 21
808.358458
  0
LINE
  5
9C
100
AcDbEntity
  8
M1
  6
CONTINUOUS
370
25
100
AcDbLine
 10
784.222529
 20
817.59314
 11
784.222529
 21
799.59265
  0
LINE
  5
9D
100
AcDbEntity
  8
M1
  6
CONTINUOUS
370
25
100
AcDbLine
 10
785.348261
 20
797.642822
 11
792.222529
 21
797.642822
  0
LINE
  5
9E
100
AcDbEntity
  8
M1
  6
CONTINUOUS
370
25
100
AcDbLine
 10
785.348261
 20
819.542846
 11
792.222529
 21
819.542846
  0
LINE
  5
9F
100
AcDbEntity
  8
M1
  6
CONTINUOUS
370
25
100
AcDbLine
 10
785.348261
 20
814.592834
 11
792.222529
 21
814.592834
  0
LINE
  5
A0
100
AcDbEntity
  8
M1
  6
CONTINUOUS
370
25
100
AcDbLine
 10
785.348261
 20
802.592834
 11
792.222529
 21
802.592834
  0
LINE
  5
A1
100
AcDbEntity
  8
M1
  6
CONTINUOUS
370
25
100
AcDbLine
 10
784.222285
 20
817.593078
 11
785.348139
 21
819.543028
  0
LINE
  5
A2
100
AcDbEntity
  8
M1
  6
CONTINUOUS
370
25
100
AcDbLine
 10
784.223139
 20
799.59314
 11
785.348993
 21
797.643126
  0
LINE
  5
A3
100
AcDbEntity
  8
M1
  6
CONTINUOUS
370
25
100
AcDbLine
 10
792.222529
 20
563.642822
 11
792.222529
 21
585.542846
  0
LINE
  5
A4
100
AcDbEntity
  8
M1
  6
CONTINUOUS
370
25
100
AcDbLine
 10
792.222529
 20
563.842834
 11
795.222529
 21
563.842834
  0
LINE
  5
A5
100
AcDbEntity
  8
M1
  6
CONTINUOUS
370
25
100
AcDbLine
 10
792.222529
 20
585.342834
 11
795.222529
 21
585.342834
  0
LINE
  5
A6
100
AcDbEntity
  8
M1
  6
CONTINUOUS
370
25
100
AcDbLine
 10
784.222529
 20
565.592528
 11
784.222529
 21
583.593016
  0
LINE
  5
A7
100
AcDbEntity
  8
M1
  6
CONTINUOUS
370
25
100
AcDbLine
 10
785.348261
 20
585.542846
 11
792.222529
 21
585.542846
  0
LINE
  5
A8
100
AcDbEntity
  8
M1
  6
CONTINUOUS
370
25
100
AcDbLine
 10
785.348261
 20
563.642822
 11
792.222529
 21
563.642822
  0
LINE
  5
A9
100
AcDbEntity
  8
M1
  6
CONTINUOUS
370
25
100
AcDbLine
 10
785.348261
 20
568.592834
 11
792.222529
 21
568.592834
  0
LINE
  5
AA
100
AcDbEntity
  8
M1
  6
CONTINUOUS
370
25
100
AcDbLine
 10
785.348261
 20
580.592834
 11
792.222529
 21
580.592834
  0
LINE
  5
AB
100
AcDbEntity
  8
M1
  6
CONTINUOUS
370
25
100
AcDbLine
 10
784.223383
 20
565.593262
 11
785.349115
 21
563.643342
  0
LINE
  5
AC
100
AcDbEntity
  8
M1
  6
CONTINUOUS
370
25
100
AcDbLine
 10
784.223627
 20
583.592224
 11
785.349483
 21
585.542144
  0
LINE
  5
AD
100
AcDbEntity
  8
M1
  6
CONTINUOUS
370
25
100
AcDbLine
 10
792.222529
 20
485.642822
 11
792.222529
 21
507.542846
  0
LINE
  5
AE
100
AcDbEntity
  8
M1
  6
CONTINUOUS
370
25
100
AcDbLine
 10
792.222529
 20
485.842834
 11
795.222529
 21
485.842834
  0
LINE
  5
AF
100
AcDbEntity
  8
M1
  6
CONTINUOUS
370
25
100
AcDbLine
 10
792.222529
 20
507.342834
 11
795.222529
 21
507.342834
  0
LINE
  5
B0
100
AcDbEntity
  8
M1
  6
CONTINUOUS
370
25
100
AcDbLine
 10
784.222529
 20
487.59253
 11
784.222529
 21
505.593018
  0
LINE
  5
B1
100
AcDbEntity
  8
M1
  6
CONTINUOUS
370
25
100
AcDbLine
 10
785.348261
 20
507.542846
 11
792.222529
 21
507.542846
  0
LINE
  5
B2
100
AcDbEntity
  8
M1
  6
CONTINUOUS
370
25
100
AcDbLine
 10
785.348261
 20
485.642822
 11
792.222529
 21
485.642822
  0
LINE
  5
B3
100
AcDbEntity
  8
M1
  6
CONTINUOUS
370
25
100
AcDbLine
 10
785.348261
 20
490.592834
 11
792.222529
 21
490.592834
  0
LINE
  5
B4
100
AcDbEntity
  8
M1
  6
CONTINUOUS
370
25
100
AcDbLine
 10
785.348261
 20
502.592834
 11
792.222529
 21
502.592834
  0
LINE
  5
B5
100
AcDbEntity
  8
M1
  6
CONTINUOUS
370
25
100
AcDbLine
 10
784.223261
 20
487.593232
 11
785.349239
 21
485.64322
  0
LINE
  5
B6
100
AcDbEntity
  8
M1
  6
CONTINUOUS
370
25
100
AcDbLine
 10
784.223749
 20
505.592286
 11
785.349605
 21
507.542236
  0
LINE
  5
B7
100
AcDbEntity
  8
M1
  6
CONTINUOUS
370
25
100
AcDbLine
 10
943.222469
 20
563.642822
 11
943.222469
 21
585.542846
  0
LINE
  5
B8
100
AcDbEntity
  8
M1
  6
CONTINUOUS
370
25
100
AcDbLine
 10
943.222469
 20
563.842834
 11
940.222469
 21
563.842834
  0
LINE
  5
B9
100
AcDbEntity
  8
M1
  6
CONTINUOUS
370
25
100
AcDbLine
 10
943.222469
 20
585.342834
 11
940.222469
 21
585.342834
  0
LINE
  5
BA
100
AcDbEntity
  8
M1
  6
CONTINUOUS
370
25
100
AcDbLine
 10
943.222651
 20
573.584868
 11
940.222651
 21
570.584838
  0
LINE
  5
BB
100
AcDbEntity
  8
M1
  6
CONTINUOUS
370
25
100
AcDbLine
 10
943.222651
 20
577.827454
 11
940.222713
 21
574.827484
  0
LINE
  5
BC
100
AcDbEntity
  8
M1
  6
CONTINUOUS
370
25
100
AcDbLine
 10
951.222469
 20
565.592528
 11
951.222469
 21
583.593016
  0
LINE
  5
BD
100
AcDbEntity
  8
M1
  6
CONTINUOUS
370
25
100
AcDbLine
 10
950.096675
 20
585.542846
 11
943.222469
 21
585.542846
  0
LINE
  5
BE
100
AcDbEntity
  8
M1
  6
CONTINUOUS
370
25
100
AcDbLine
 10
950.096675
 20
563.642822
 11
943.222469
 21
563.642822
  0
LINE
  5
BF
100
AcDbEntity
  8
M1
  6
CONTINUOUS
370
25
100
AcDbLine
 10
950.096675
 20
568.592834
 11
943.222469
 21
568.592834
  0
LINE
  5
C0
100
AcDbEntity
  8
M1
  6
CONTINUOUS
370
25
100
AcDbLine
 10
950.096675
 20
580.592834
 11
943.222469
 21
580.592834
  0
LINE
  5
C1
100
AcDbEntity
  8
M1
  6
CONTINUOUS
370
25
100
AcDbLine
 10
951.221797
 20
565.593078
 11
950.096003
 21
563.643096
  0
LINE
  5
C2
100
AcDbEntity
  8
M1
  6
CONTINUOUS
370
25
100
AcDbLine
 10
951.222957
 20
583.59314
 11
950.097101
 21
585.54309
  0
LINE
  5
C3
100
AcDbEntity
  8
M1
  6
CONTINUOUS
370
25
100
AcDbLine
 10
943.222469
 20
485.642822
 11
943.222469
 21
507.542846
  0
LINE
  5
C4
100
AcDbEntity
  8
M1
  6
CONTINUOUS
370
25
100
AcDbLine
 10
943.222469
 20
485.842834
 11
940.222469
 21
485.842834
  0
LINE
  5
C5
100
AcDbEntity
  8
M1
  6
CONTINUOUS
370
25
100
AcDbLine
 10
943.222469
 20
507.342834
 11
940.222469
 21
507.342834
  0
LINE
  5
C6
100
AcDbEntity
  8
M1
  6
CONTINUOUS
370
25
100
AcDbLine
 10
943.222101
 20
495.585266
 11
940.222041
 21
492.585236
  0
LINE
  5
C7
100
AcDbEntity
  8
M1
  6
CONTINUOUS
370
25
100
AcDbLine
 10
943.222285
 20
499.82788
 11
940.222223
 21
496.82785
  0
LINE
  5
C8
100
AcDbEntity
  8
M1
  6
CONTINUOUS
370
25
100
AcDbLine
 10
951.222469
 20
487.59253
 11
951.222469
 21
505.593018
  0
LINE
  5
C9
100
AcDbEntity
  8
M1
  6
CONTINUOUS
370
25
100
AcDbLine
 10
950.096675
 20
507.542846
 11
943.222469
 21
507.542846
  0
LINE
  5
CA
100
AcDbEntity
  8
M1
  6
CONTINUOUS
370
25
100
AcDbLine
 10
950.096675
 20
485.642822
 11
943.222469
 21
485.642822
  0
LINE
  5
CB
100
AcDbEntity
  8
M1
  6
CONTINUOUS
370
25
100
AcDbLine
 10
950.096675
 20
490.592834
 11
943.222469
 21
490.592834
  0
LINE
  5
CC
100
AcDbEntity
  8
M1
  6
CONTINUOUS
370
25
100
AcDbLine
 10
950.096675
 20
502.592834
 11
943.222469
 21
502.592834
  0
LINE
  5
CD
100
AcDbEntity
  8
M1
  6
CONTINUOUS
370
25
100
AcDbLine
 10
951.222041
 20
487.593048
 11
950.096187
 21
485.643098
  0
LINE
  5
CE
100
AcDbEntity
  8
M1
  6
CONTINUOUS
370
25
100
AcDbLine
 10
951.222163
 20
505.592866
 11
950.096247
 21
507.542846
  0
LINE
  5
CF
100
AcDbEntity
  8
M1
  6
CONTINUOUS
370
25
100
AcDbLine
 10
792.222163
 20
575.456816
 11
795.222163
 21
578.456816
  0
LINE
  5
D0
100
AcDbEntity
  8
M1
  6
CONTINUOUS
370
25
100
AcDbLine
 10
792.222041
 20
497.458984
 11
795.222041
 21
500.458984
  0
LINE
  5
D1
100
AcDbEntity
  8
M1
  6
CONTINUOUS
370
25
100
AcDbLine
 10
792.222163
 20
571.21405
 11
795.222163
 21
574.21408
  0
LINE
  5
D2
100
AcDbEntity
  8
M1
  6
CONTINUOUS
370
25
100
AcDbLine
 10
792.222163
 20
493.216278
 11
795.222163
 21
496.216278
  0
LINE
  5
D3
100
AcDbEntity
  8
M1
  6
CONTINUOUS
370
25
100
AcDbLine
 10
339.195551
 20
658.592834
 11
331.195551
 21
658.592834
  0
LINE
  5
D4
100
AcDbEntity
  8
M1
  6
CONTINUOUS
370
25
100
AcDbLine
 10
331.195673
 20
658.592834
 11
331.195673
 21
646.592834
  0
LINE
  5
D5
100
AcDbEntity
  8
M1
  6
CONTINUOUS
370
25
100
AcDbLine
 10
339.195673
 20
658.592834
 11
339.195673
 21
646.592834
  0
LINE
  5
D6
100
AcDbEntity
  8
M1
  6
CONTINUOUS
370
25
100
AcDbLine
 10
339.195551
 20
646.592834
 11
331.195551
 21
646.592834
  0
LINE
  5
D7
100
AcDbEntity
  8
M1
  6
CONTINUOUS
370
25
100
AcDbLine
 10
424.634791
 20
741.404752
 11
375.420893
 21
692.190858
  0
LINE
  5
D8
100
AcDbEntity
  8
M1
  6
CONTINUOUS
370
25
100
AcDbLine
 10
378.955927
 20
676.583314
 11
411.192499
 21
689.936158
  0
LINE
  5
D9
100
AcDbEntity
  8
M1
  6
CONTINUOUS
370
25
100
AcDbLine
 10
376.659419
 20
682.126524
 11
408.896113
 21
695.479432
  0
LINE
  5
DA
100
AcDbEntity
  8
M1
  6
CONTINUOUS
370
25
100
AcDbLine
 10
235.161005
 20
574.55899
 11
250.780513
 21
590.178558
  0
LINE
  5
DB
100
AcDbEntity
  8
M1
  6
CONTINUOUS
370
25
100
AcDbLine
 10
365.261347
 20
770.449402
 11
368.901851
 21
779.238342
  0
LINE
  5
DC
100
AcDbEntity
  8
M1
  6
CONTINUOUS
370
25
100
AcDbLine
 10
385.195673
 20
668.59314
 11
454.794461
 21
668.59314
  0
LINE
  5
DD
100
AcDbEntity
  8
M1
  6
CONTINUOUS
370
25
100
AcDbLine
 10
376.169429
 20
715.567382
 11
392.209223
 21
731.607298
  0
LINE
  5
DE
100
AcDbEntity
  8
M1
  6
CONTINUOUS
370
25
100
AcDbLine
 10
234.885737
 20
730.90216
 11
249.486689
 21
716.301268
  0
LINE
  5
DF
100
AcDbEntity
  8
M1
  6
CONTINUOUS
370
25
100
AcDbLine
 10
376.395381
 20
589.392608
 11
392.014887
 21
573.773072
  0
LINE
  5
E0
100
AcDbEntity
  8
M1
  6
CONTINUOUS
370
25
100
AcDbLine
 10
819.223261
 20
850.092042
 11
817.223261
 21
848.09198
  0
LINE
  5
E1
100
AcDbEntity
  8
M1
  6
CONTINUOUS
370
25
100
AcDbLine
 10
916.222469
 20
850.092896
 11
918.222407
 21
848.092956
  0
LINE
  5
E2
100
AcDbEntity
  8
M1
  6
CONTINUOUS
370
25
100
AcDbLine
 10
817.222591
 20
457.092926
 11
819.222529
 21
455.092956
  0
LINE
  5
E3
100
AcDbEntity
  8
M1
  6
CONTINUOUS
370
25
100
AcDbLine
 10
918.222651
 20
457.092682
 11
916.222651
 21
455.092682
  0
LINE
  5
E4
100
AcDbEntity
  8
M1
  6
CONTINUOUS
370
25
100
AcDbLine
 10
329.195551
 20
794.191778
 11
329.195551
 21
724.592834
  0
LINE
  5
E5
100
AcDbEntity
  8
M1
  6
CONTINUOUS
370
25
100
AcDbLine
 10
337.187861
 20
718.352782
 11
350.540767
 21
750.589538
  0
LINE
  5
E6
100
AcDbEntity
  8
M1
  6
CONTINUOUS
370
25
100
AcDbLine
 10
342.731073
 20
716.056702
 11
356.083979
 21
748.293458
  0
LINE
  5
E7
100
AcDbEntity
  8
M1
  6
CONTINUOUS
370
25
100
AcDbLine
 10
352.793207
 20
714.818604
 11
402.007029
 21
764.032426
  0
LINE
  5
E8
100
AcDbEntity
  8
M1
  6
CONTINUOUS
370
25
100
AcDbLine
 10
224.383679
 20
764.03211
 11
273.597529
 21
714.818298
  0
LINE
  5
E9
100
AcDbEntity
  8
M1
  6
CONTINUOUS
370
25
100
AcDbLine
 10
283.661249
 20
716.057252
 11
270.308345
 21
748.294006
  0
LINE
  5
EA
100
AcDbEntity
  8
M1
  6
CONTINUOUS
370
25
100
AcDbLine
 10
289.204585
 20
718.353514
 11
275.851801
 21
750.59015
  0
LINE
  5
EB
100
AcDbEntity
  8
M1
  6
CONTINUOUS
370
25
100
AcDbLine
 10
297.195185
 20
724.592956
 11
297.195185
 21
794.191736
  0
LINE
  5
EC
100
AcDbEntity
  8
M1
  6
CONTINUOUS
370
25
100
AcDbLine
 10
171.596601
 20
668.592774
 11
241.195673
 21
668.592774
  0
LINE
  5
ED
100
AcDbEntity
  8
M1
  6
CONTINUOUS
370
25
100
AcDbLine
 10
247.435419
 20
676.585022
 11
215.198725
 21
689.937928
  0
LINE
  5
EE
100
AcDbEntity
  8
M1
  6
CONTINUOUS
370
25
100
AcDbLine
 10
249.731319
 20
682.12854
 11
217.494867
 21
695.481324
  0
LINE
  5
EF
100
AcDbEntity
  8
M1
  6
CONTINUOUS
370
25
100
AcDbLine
 10
250.969843
 20
692.190674
 11
201.756069
 21
741.404446
  0
LINE
  5
F0
100
AcDbEntity
  8
M1
  6
CONTINUOUS
370
25
100
AcDbLine
 10
201.756219
 20
563.781034
 11
250.970209
 21
612.995026
  0
LINE
  5
F1
100
AcDbEntity
  8
M1
  6
CONTINUOUS
370
25
100
AcDbLine
 10
249.731197
 20
623.058714
 11
217.494379
 21
609.70581
  0
LINE
  5
F2
100
AcDbEntity
  8
M1
  6
CONTINUOUS
370
25
100
AcDbLine
 10
247.434809
 20
628.601868
 11
215.198237
 21
615.249054
  0
LINE
  5
F3
100
AcDbEntity
  8
M1
  6
CONTINUOUS
370
25
100
AcDbLine
 10
241.195551
 20
636.592408
 11
171.596657
 21
636.592408
  0
LINE
  5
F4
100
AcDbEntity
  8
M1
  6
CONTINUOUS
370
25
100
AcDbLine
 10
297.195551
 20
510.993892
 11
297.195551
 21
580.593016
  0
LINE
  5
F5
100
AcDbEntity
  8
M1
  6
CONTINUOUS
370
25
100
AcDbLine
 10
289.202997
 20
586.833342
 11
275.849971
 21
554.596588
  0
LINE
  5
F6
100
AcDbEntity
  8
M1
  6
CONTINUOUS
370
25
100
AcDbLine
 10
283.659541
 20
589.12912
 11
270.306757
 21
556.892578
  0
LINE
  5
F7
100
AcDbEntity
  8
M1
  6
CONTINUOUS
370
25
100
AcDbLine
 10
273.597773
 20
590.367218
 11
224.383921
 21
541.153366
  0
LINE
  5
F8
100
AcDbEntity
  8
M1
  6
CONTINUOUS
370
25
100
AcDbLine
 10
402.007437
 20
541.15357
 11
352.793451
 21
590.367552
  0
LINE
  5
F9
100
AcDbEntity
  8
M1
  6
CONTINUOUS
370
25
100
AcDbLine
 10
342.728755
 20
589.128754
 11
356.081659
 21
556.891966
  0
LINE
  5
FA
100
AcDbEntity
  8
M1
  6
CONTINUOUS
370
25
100
AcDbLine
 10
337.185663
 20
586.832184
 11
350.538447
 21
554.595642
  0
LINE
  5
FB
100
AcDbEntity
  8
M1
  6
CONTINUOUS
370
25
100
AcDbLine
 10
329.195917
 20
580.592834
 11
329.195917
 21
510.993932
  0
LINE
  5
FC
100
AcDbEntity
  8
M1
  6
CONTINUOUS
370
25
100
AcDbLine
 10
454.794489
 20
636.592774
 11
385.195551
 21
636.592774
  0
LINE
  5
FD
100
AcDbEntity
  8
M1
  6
CONTINUOUS
370
25
100
AcDbLine
 10
378.954341
 20
628.600158
 11
411.191035
 21
615.247222
  0
LINE
  5
FE
100
AcDbEntity
  8
M1
  6
CONTINUOUS
370
25
100
AcDbLine
 10
376.658687
 20
623.05658
 11
408.895137
 21
609.703766
  0
LINE
  5
FF
100
AcDbEntity
  8
M1
  6
CONTINUOUS
370
25
100
AcDbLine
 10
375.421137
 20
612.995148
 11
424.635047
 21
563.781238
  0
LINE
  5
100
100
AcDbEntity
  8
M1
  6
CONTINUOUS
370
25
100
AcDbLine
 10
365.261469
 20
534.736236
 11
368.901973
 21
525.947326
  0
LINE
  5
101
100
AcDbEntity
  8
M1
  6
CONTINUOUS
370
25
100
AcDbLine
 10
261.129877
 20
770.449402
 11
257.489375
 21
779.238342
  0
LINE
  5
102
100
AcDbEntity
  8
M1
  6
CONTINUOUS
370
25
100
AcDbLine
 10
261.129633
 20
534.736236
 11
257.489253
 21
525.947358
  0
LINE
  5
103
100
AcDbEntity
  8
M1
  6
CONTINUOUS
370
25
100
AcDbLine
 10
441.097895
 20
660.59314
 11
452.605951
 21
660.59314
  0
LINE
  5
104
100
AcDbEntity
  8
M1
  6
CONTINUOUS
370
25
100
AcDbLine
 10
452.605951
 20
644.592774
 11
441.097895
 21
644.592774
  0
LINE
  5
105
100
AcDbEntity
  8
M1
  6
CONTINUOUS
370
25
100
AcDbLine
 10
173.785151
 20
644.592774
 11
185.293207
 21
644.592774
  0
LINE
  5
106
100
AcDbEntity
  8
M1
  6
CONTINUOUS
370
25
100
AcDbLine
 10
185.293207
 20
660.59314
 11
173.785151
 21
660.59314
  0
LINE
  5
107
100
AcDbEntity
  8
M1
  6
CONTINUOUS
370
25
100
AcDbLine
 10
1312.573391
 20
652.592834
 11
1281.814419
 21
652.592834
  0
LINE
  5
108
100
AcDbEntity
  8
M1
  6
CONTINUOUS
370
25
100
AcDbLine
 10
1162.111233
 20
741.553284
 11
1171.577327
 21
736.088072
  0
LINE
  5
109
100
AcDbEntity
  8
M1
  6
CONTINUOUS
370
25
100
AcDbLine
 10
1152.611355
 20
725.09906
 11
1162.077297
 21
719.63385
  0
LINE
  5
10A
100
AcDbEntity
  8
M1
  6
CONTINUOUS
370
25
100
AcDbLine
 10
1162.110927
 20
741.552796
 11
1152.610927
 21
736.067932
  0
LINE
  5
10B
100
AcDbEntity
  8
M1
  6
CONTINUOUS
370
25
100
AcDbLine
 10
1171.577327
 20
736.087524
 11
1171.577327
 21
725.117798
  0
LINE
  5
10C
100
AcDbEntity
  8
M1
  6
CONTINUOUS
370
25
100
AcDbLine
 10
1152.611261
 20
725.098204
 11
1152.611261
 21
736.06781
  0
LINE
  5
10D
100
AcDbEntity
  8
M1
  6
CONTINUOUS
370
25
100
AcDbLine
 10
1162.078211
 20
719.630432
 11
1171.578333
 21
725.115356
  0
LINE
  5
10E
100
AcDbEntity
  8
M1
  6
CONTINUOUS
370
25
100
AcDbLine
 10
1306.693905
 20
814.057982
 11
1306.693905
 21
803.127624
  0
LINE
  5
10F
100
AcDbEntity
  8
M1
  6
CONTINUOUS
370
25
100
AcDbLine
 10
1287.693905
 20
814.058044
 11
1287.693905
 21
803.127562
  0
LINE
  5
110
100
AcDbEntity
  8
M1
  6
CONTINUOUS
370
25
100
AcDbLine
 10
1306.693875
 20
814.058532
 11
1297.193905
 21
819.543336
  0
LINE
  5
111
100
AcDbEntity
  8
M1
  6
CONTINUOUS
370
25
100
AcDbLine
 10
1306.693905
 20
803.127624
 11
1297.193905
 21
797.6427
  0
LINE
  5
112
100
AcDbEntity
  8
M1
  6
CONTINUOUS
370
25
100
AcDbLine
 10
1287.693905
 20
814.058044
 11
1297.193905
 21
819.542846
  0
LINE
  5
113
100
AcDbEntity
  8
M1
  6
CONTINUOUS
370
25
100
AcDbLine
 10
1287.693659
 20
803.127624
 11
1297.193781
 21
797.642762
  0
LINE
  5
114
100
AcDbEntity
  8
M1
  6
CONTINUOUS
370
25
100
AcDbLine
 10
1441.776911
 20
725.098204
 11
1432.310985
 21
719.632996
  0
LINE
  5
115
100
AcDbEntity
  8
M1
  6
CONTINUOUS
370
25
100
AcDbLine
 10
1432.277035
 20
741.552672
 11
1422.810969
 21
736.087464
  0
LINE
  5
116
100
AcDbEntity
  8
M1
  6
CONTINUOUS
370
25
100
AcDbLine
 10
1441.776789
 20
725.098266
 11
1441.776789
 21
736.067932
  0
LINE
  5
117
100
AcDbEntity
  8
M1
  6
CONTINUOUS
370
25
100
AcDbLine
 10
1432.311213
 20
719.63379
 11
1422.811337
 21
725.11859
  0
LINE
  5
118
100
AcDbEntity
  8
M1
  6
CONTINUOUS
370
25
100
AcDbLine
 10
1432.277401
 20
741.553222
 11
1441.777293
 21
736.06842
  0
LINE
  5
119
100
AcDbEntity
  8
M1
  6
CONTINUOUS
370
25
100
AcDbLine
 10
1422.808039
 20
736.087646
 11
1422.808039
 21
725.117858
  0
LINE
  5
11A
100
AcDbEntity
  8
M1
  6
CONTINUOUS
370
25
100
AcDbLine
 10
1432.277279
 20
563.633514
 11
1422.811213
 21
569.098724
  0
LINE
  5
11B
100
AcDbEntity
  8
M1
  6
CONTINUOUS
370
25
100
AcDbLine
 10
1441.777279
 20
580.088104
 11
1432.311337
 21
585.553314
  0
LINE
  5
11C
100
AcDbEntity
  8
M1
  6
CONTINUOUS
370
25
100
AcDbLine
 10
1432.276927
 20
563.632904
 11
1441.776927
 21
569.117768
  0
LINE
  5
11D
100
AcDbEntity
  8
M1
  6
CONTINUOUS
370
25
100
AcDbLine
 10
1422.810359
 20
569.098204
 11
1422.810359
 21
580.067932
  0
LINE
  5
11E
100
AcDbEntity
  8
M1
  6
CONTINUOUS
370
25
100
AcDbLine
 10
1441.776425
 20
580.08734
 11
1441.776425
 21
569.117736
  0
LINE
  5
11F
100
AcDbEntity
  8
M1
  6
CONTINUOUS
370
25
100
AcDbLine
 10
1432.309643
 20
585.555144
 11
1422.809535
 21
580.070222
  0
LINE
  5
120
100
AcDbEntity
  8
M1
  6
CONTINUOUS
370
25
100
AcDbLine
 10
1287.693781
 20
491.127624
 11
1287.693781
 21
502.058044
  0
LINE
  5
121
100
AcDbEntity
  8
M1
  6
CONTINUOUS
370
25
100
AcDbLine
 10
1306.693781
 20
491.127624
 11
1306.693781
 21
502.058044
  0
LINE
  5
122
100
AcDbEntity
  8
M1
  6
CONTINUOUS
370
25
100
AcDbLine
 10
1287.694179
 20
491.128112
 11
1297.194149
 21
485.64325
  0
LINE
  5
123
100
AcDbEntity
  8
M1
  6
CONTINUOUS
370
25
100
AcDbLine
 10
1287.693813
 20
502.05838
 11
1297.193935
 21
507.543244
  0
LINE
  5
124
100
AcDbEntity
  8
M1
  6
CONTINUOUS
370
25
100
AcDbLine
 10
1306.693659
 20
491.12793
 11
1297.193659
 21
485.643128
  0
LINE
  5
125
100
AcDbEntity
  8
M1
  6
CONTINUOUS
370
25
100
AcDbLine
 10
1306.695765
 20
502.060792
 11
1297.195521
 21
507.545716
  0
LINE
  5
126
100
AcDbEntity
  8
M1
  6
CONTINUOUS
370
25
100
AcDbLine
 10
1152.610745
 20
580.087586
 11
1162.076807
 21
585.552796
  0
LINE
  5
127
100
AcDbEntity
  8
M1
  6
CONTINUOUS
370
25
100
AcDbLine
 10
1162.110867
 20
563.633056
 11
1171.576807
 21
569.098266
  0
LINE
  5
128
100
AcDbEntity
  8
M1
  6
CONTINUOUS
370
25
100
AcDbLine
 10
1152.610773
 20
580.087586
 11
1152.610773
 21
569.117858
  0
LINE
  5
129
100
AcDbEntity
  8
M1
  6
CONTINUOUS
370
25
100
AcDbLine
 10
1162.077601
 20
585.553558
 11
1171.577725
 21
580.068694
  0
LINE
  5
12A
100
AcDbEntity
  8
M1
  6
CONTINUOUS
370
25
100
AcDbLine
 10
1162.111261
 20
563.633818
 11
1152.611385
 21
569.118622
  0
LINE
  5
12B
100
AcDbEntity
  8
M1
  6
CONTINUOUS
370
25
100
AcDbLine
 10
1171.579647
 20
569.097962
 11
1171.579647
 21
580.06781
  0
LINE
  5
12C
100
AcDbEntity
  8
M1
  6
CONTINUOUS
370
25
100
AcDbLine
 10
951.722469
 20
737.084656
 11
951.722469
 21
567.59265
  0
LINE
  5
12D
100
AcDbEntity
  8
M1
  6
CONTINUOUS
370
25
100
AcDbLine
 10
938.222469
 20
828.592834
 11
918.222469
 21
828.592834
  0
LINE
  5
12E
100
AcDbEntity
  8
M1
  6
CONTINUOUS
370
25
100
AcDbLine
 10
940.222469
 20
826.592834
 11
940.222469
 21
478.592834
  0
LINE
  5
12F
100
AcDbEntity
  8
M1
  6
CONTINUOUS
370
25
100
AcDbLine
 10
940.222469
 20
793.592774
 11
951.620235
 21
738.090454
  0
LINE
  5
130
100
AcDbEntity
  8
M1
  6
CONTINUOUS
370
25
100
AcDbLine
 10
938.222529
 20
828.592774
 11
940.222469
 21
826.592834
  0
LINE
  5
131
100
AcDbEntity
  8
M1
  6
CONTINUOUS
370
25
100
AcDbLine
 10
1350.833675
 20
637.592896
 11
1333.554135
 21
637.592896
  0
LINE
  5
132
100
AcDbEntity
  8
M1
  6
CONTINUOUS
370
25
100
AcDbLine
 10
1350.833615
 20
667.592896
 11
1333.554135
 21
667.592896
  0
LINE
  5
133
100
AcDbEntity
  8
M1
  6
CONTINUOUS
370
25
100
AcDbLine
 10
1350.833553
 20
667.592896
 11
1359.493831
 21
652.592834
  0
LINE
  5
134
100
AcDbEntity
  8
M1
  6
CONTINUOUS
370
25
100
AcDbLine
 10
1297.193905
 20
637.213348
 11
1297.193905
 21
667.97232
  0
LINE
  5
135
100
AcDbEntity
  8
M1
  6
CONTINUOUS
370
25
100
AcDbLine
 10
1333.554195
 20
667.592834
 11
1324.893885
 21
652.592834
  0
LINE
  5
136
100
AcDbEntity
  8
M1
  6
CONTINUOUS
370
25
100
AcDbLine
 10
1350.833675
 20
637.592712
 11
1359.493983
 21
652.592712
  0
LINE
  5
137
100
AcDbEntity
  8
M1
  6
CONTINUOUS
370
25
100
AcDbLine
 10
1333.554071
 20
637.592774
 11
1324.893795
 21
652.592834
  0
LINE
  5
138
100
AcDbEntity
  8
M1
  6
CONTINUOUS
370
25
100
AcDbLine
 10
1312.193905
 20
706.232604
 11
1312.193905
 21
688.953064
  0
LINE
  5
139
100
AcDbEntity
  8
M1
  6
CONTINUOUS
370
25
100
AcDbLine
 10
1282.193905
 20
706.232544
 11
1282.193905
 21
688.953064
  0
LINE
  5
13A
100
AcDbEntity
  8
M1
  6
CONTINUOUS
370
25
100
AcDbLine
 10
1282.193875
 20
706.232604
 11
1297.193905
 21
714.892822
  0
LINE
  5
13B
100
AcDbEntity
  8
M1
  6
CONTINUOUS
370
25
100
AcDbLine
 10
1282.193905
 20
688.953064
 11
1297.193935
 21
680.292786
  0
LINE
  5
13C
100
AcDbEntity
  8
M1
  6
CONTINUOUS
370
25
100
AcDbLine
 10
1312.193905
 20
706.232604
 11
1297.193875
 21
714.892884
  0
LINE
  5
13D
100
AcDbEntity
  8
M1
  6
CONTINUOUS
370
25
100
AcDbLine
 10
1312.193965
 20
688.953004
 11
1297.193905
 21
680.292724
  0
LINE
  5
13E
100
AcDbEntity
  8
M1
  6
CONTINUOUS
370
25
100
AcDbLine
 10
1243.554135
 20
667.592774
 11
1260.833675
 21
667.592774
  0
LINE
  5
13F
100
AcDbEntity
  8
M1
  6
CONTINUOUS
370
25
100
AcDbLine
 10
1243.554195
 20
637.592774
 11
1260.833675
 21
637.592774
  0
LINE
  5
140
100
AcDbEntity
  8
M1
  6
CONTINUOUS
370
25
100
AcDbLine
 10
1243.554103
 20
637.592896
 11
1234.893825
 21
652.592956
  0
LINE
  5
141
100
AcDbEntity
  8
M1
  6
CONTINUOUS
370
25
100
AcDbLine
 10
1260.833675
 20
637.59265
 11
1269.493983
 21
652.592712
  0
LINE
  5
142
100
AcDbEntity
  8
M1
  6
CONTINUOUS
370
25
100
AcDbLine
 10
1243.554165
 20
667.592834
 11
1234.893885
 21
652.592774
  0
LINE
  5
143
100
AcDbEntity
  8
M1
  6
CONTINUOUS
370
25
100
AcDbLine
 10
1260.833767
 20
667.592834
 11
1269.494013
 21
652.592834
  0
LINE
  5
144
100
AcDbEntity
  8
M1
  6
CONTINUOUS
370
25
100
AcDbLine
 10
1282.193997
 20
598.953064
 11
1282.193997
 21
616.232604
  0
LINE
  5
145
100
AcDbEntity
  8
M1
  6
CONTINUOUS
370
25
100
AcDbLine
 10
1312.193997
 20
598.953124
 11
1312.193997
 21
616.232604
  0
LINE
  5
146
100
AcDbEntity
  8
M1
  6
CONTINUOUS
370
25
100
AcDbLine
 10
1312.193875
 20
598.953154
 11
1297.193813
 21
590.292878
  0
LINE
  5
147
100
AcDbEntity
  8
M1
  6
CONTINUOUS
370
25
100
AcDbLine
 10
1312.194087
 20
616.232544
 11
1297.194057
 21
624.892822
  0
LINE
  5
148
100
AcDbEntity
  8
M1
  6
CONTINUOUS
370
25
100
AcDbLine
 10
1282.193935
 20
598.953064
 11
1297.193965
 21
590.292756
  0
LINE
  5
149
100
AcDbEntity
  8
M1
  6
CONTINUOUS
370
25
100
AcDbLine
 10
1282.193813
 20
616.232636
 11
1297.193875
 21
624.892944
  0
LINE
  5
14A
100
AcDbEntity
  8
M1
  6
CONTINUOUS
370
25
100
AcDbLine
 10
938.222469
 20
476.592834
 11
918.222469
 21
476.592834
  0
LINE
  5
14B
100
AcDbEntity
  8
M1
  6
CONTINUOUS
370
25
100
AcDbLine
 10
938.222591
 20
476.592896
 11
940.222529
 21
478.592834
  0
LINE
  5
14C
100
AcDbEntity
  8
M1
  6
CONTINUOUS
370
25
100
AcDbLine
 10
940.222407
 20
511.592926
 11
951.722407
 21
567.592682
  0
LINE
  5
14D
100
AcDbEntity
  8
M1
  6
CONTINUOUS
370
25
100
AcDbLine
 10
943.222469
 20
741.542846
 11
943.222469
 21
719.642822
  0
LINE
  5
14E
100
AcDbEntity
  8
M1
  6
CONTINUOUS
370
25
100
AcDbLine
 10
943.222469
 20
741.342834
 11
940.222469
 21
741.342834
  0
LINE
  5
14F
100
AcDbEntity
  8
M1
  6
CONTINUOUS
370
25
100
AcDbLine
 10
943.222469
 20
719.842834
 11
940.222469
 21
719.842834
  0
LINE
  5
150
100
AcDbEntity
  8
M1
  6
CONTINUOUS
370
25
100
AcDbLine
 10
951.222469
 20
739.59314
 11
951.222469
 21
721.59265
  0
LINE
  5
151
100
AcDbEntity
  8
M1
  6
CONTINUOUS
370
25
100
AcDbLine
 10
950.096675
 20
719.642822
 11
943.222469
 21
719.642822
  0
LINE
  5
152
100
AcDbEntity
  8
M1
  6
CONTINUOUS
370
25
100
AcDbLine
 10
950.096675
 20
741.542846
 11
943.222469
 21
741.542846
  0
LINE
  5
153
100
AcDbEntity
  8
M1
  6
CONTINUOUS
370
25
100
AcDbLine
 10
950.096675
 20
736.592834
 11
943.222469
 21
736.592834
  0
LINE
  5
154
100
AcDbEntity
  8
M1
  6
CONTINUOUS
370
25
100
AcDbLine
 10
950.096675
 20
724.592834
 11
943.222469
 21
724.592834
  0
LINE
  5
155
100
AcDbEntity
  8
M1
  6
CONTINUOUS
370
25
100
AcDbLine
 10
951.221919
 20
739.592528
 11
950.096125
 21
741.54248
  0
LINE
  5
156
100
AcDbEntity
  8
M1
  6
CONTINUOUS
370
25
100
AcDbLine
 10
951.223017
 20
721.592468
 11
950.097163
 21
719.642518
  0
LINE
  5
157
100
AcDbEntity
  8
M1
  6
CONTINUOUS
370
25
100
AcDbLine
 10
943.222469
 20
819.542846
 11
943.222469
 21
797.642822
  0
LINE
  5
158
100
AcDbEntity
  8
M1
  6
CONTINUOUS
370
25
100
AcDbLine
 10
943.222469
 20
819.342834
 11
940.222469
 21
819.342834
  0
LINE
  5
159
100
AcDbEntity
  8
M1
  6
CONTINUOUS
370
25
100
AcDbLine
 10
943.222469
 20
797.842834
 11
940.222469
 21
797.842834
  0
LINE
  5
15A
100
AcDbEntity
  8
M1
  6
CONTINUOUS
370
25
100
AcDbLine
 10
951.222469
 20
817.59314
 11
951.222469
 21
799.59265
  0
LINE
  5
15B
100
AcDbEntity
  8
M1
  6
CONTINUOUS
370
25
100
AcDbLine
 10
950.096675
 20
797.642822
 11
943.222469
 21
797.642822
  0
LINE
  5
15C
100
AcDbEntity
  8
M1
  6
CONTINUOUS
370
25
100
AcDbLine
 10
950.096675
 20
819.542846
 11
943.222469
 21
819.542846
  0
LINE
  5
15D
100
AcDbEntity
  8
M1
  6
CONTINUOUS
370
25
100
AcDbLine
 10
950.096675
 20
814.592834
 11
943.222469
 21
814.592834
  0
LINE
  5
15E
100
AcDbEntity
  8
M1
  6
CONTINUOUS
370
25
100
AcDbLine
 10
950.096675
 20
802.592834
 11
943.222469
 21
802.592834
  0
LINE
  5
15F
100
AcDbEntity
  8
M1
  6
CONTINUOUS
370
25
100
AcDbLine
 10
951.222163
 20
817.592468
 11
950.096309
 21
819.54242
  0
LINE
  5
160
100
AcDbEntity
  8
M1
  6
CONTINUOUS
370
25
100
AcDbLine
 10
951.222163
 20
799.592834
 11
950.096247
 21
797.642822
  0
LINE
  5
161
100
AcDbEntity
  8
M1
  6
CONTINUOUS
370
25
100
AcDbLine
 10
940.222407
 20
809.881226
 11
943.222407
 21
812.881226
  0
LINE
  5
162
100
AcDbEntity
  8
M1
  6
CONTINUOUS
370
25
100
AcDbLine
 10
940.222407
 20
730.24524
 11
943.222469
 21
733.24524
  0
LINE
  5
163
100
AcDbEntity
  8
M1
  6
CONTINUOUS
370
25
100
AcDbLine
 10
940.222407
 20
805.63861
 11
943.222407
 21
808.63861
  0
LINE
  5
164
100
AcDbEntity
  8
M1
  6
CONTINUOUS
370
25
100
AcDbLine
 10
940.222407
 20
726.002624
 11
943.222407
 21
729.002562
  0
LINE
  5
165
100
AcDbEntity
  8
M1
  6
CONTINUOUS
370
25
100
AcDbLine
 10
956.322443
 20
667.092834
 11
956.322443
 21
638.092712
  0
LINE
  5
166
100
AcDbEntity
  8
M1
  6
CONTINUOUS
370
25
100
AcDbLine
 10
951.722469
 20
642.592834
 11
954.705867
 21
642.592834
  0
LINE
  5
167
100
AcDbEntity
  8
M1
  6
CONTINUOUS
370
25
100
AcDbLine
 10
951.722469
 20
662.592834
 11
954.705867
 21
662.592834
  0
LINE
  5
168
100
AcDbEntity
  8
M1
  6
CONTINUOUS
370
25
100
AcDbLine
 10
951.722469
 20
635.292846
 11
954.705867
 21
635.292846
  0
LINE
  5
169
100
AcDbEntity
  8
M1
  6
CONTINUOUS
370
25
100
AcDbLine
 10
951.722469
 20
669.892822
 11
954.705867
 21
669.892822
  0
LINE
  5
16A
100
AcDbEntity
  8
M1
  6
CONTINUOUS
370
25
100
AcDbLine
 10
954.705805
 20
669.892822
 11
956.322383
 21
667.092834
  0
LINE
  5
16B
100
AcDbEntity
  8
M1
  6
CONTINUOUS
370
25
100
AcDbLine
 10
954.705745
 20
635.292906
 11
956.322321
 21
638.092896
  0
LINE
  5
16C
100
AcDbEntity
  8
M1
  6
CONTINUOUS
370
25
100
AcDbLine
 10
956.322443
 20
593.092834
 11
956.322443
 21
622.092956
  0
LINE
  5
16D
100
AcDbEntity
  8
M1
  6
CONTINUOUS
370
25
100
AcDbLine
 10
951.722469
 20
617.592834
 11
954.705867
 21
617.592834
  0
LINE
  5
16E
100
AcDbEntity
  8
M1
  6
CONTINUOUS
370
25
100
AcDbLine
 10
951.722469
 20
597.592834
 11
954.705867
 21
597.592834
  0
LINE
  5
16F
100
AcDbEntity
  8
M1
  6
CONTINUOUS
370
25
100
AcDbLine
 10
951.722469
 20
624.892822
 11
954.705867
 21
624.892822
  0
LINE
  5
170
100
AcDbEntity
  8
M1
  6
CONTINUOUS
370
25
100
AcDbLine
 10
951.722469
 20
590.292846
 11
954.705867
 21
590.292846
  0
LINE
  5
171
100
AcDbEntity
  8
M1
  6
CONTINUOUS
370
25
100
AcDbLine
 10
954.705805
 20
590.292878
 11
956.322383
 21
593.092866
  0
LINE
  5
172
100
AcDbEntity
  8
M1
  6
CONTINUOUS
370
25
100
AcDbLine
 10
954.705745
 20
624.892822
 11
956.322321
 21
622.092834
  0
LINE
  5
173
100
AcDbEntity
  8
M1
  6
CONTINUOUS
370
25
100
AcDbLine
 10
956.322443
 20
712.092834
 11
956.322443
 21
683.092712
  0
LINE
  5
174
100
AcDbEntity
  8
M1
  6
CONTINUOUS
370
25
100
AcDbLine
 10
951.722469
 20
687.592834
 11
954.705867
 21
687.592834
  0
LINE
  5
175
100
AcDbEntity
  8
M1
  6
CONTINUOUS
370
25
100
AcDbLine
 10
951.722469
 20
707.592834
 11
954.705867
 21
707.592834
  0
LINE
  5
176
100
AcDbEntity
  8
M1
  6
CONTINUOUS
370
25
100
AcDbLine
 10
951.722469
 20
680.292846
 11
954.705867
 21
680.292846
  0
LINE
  5
177
100
AcDbEntity
  8
M1
  6
CONTINUOUS
370
25
100
AcDbLine
 10
951.722469
 20
714.892822
 11
954.705867
 21
714.892822
  0
LINE
  5
178
100
AcDbEntity
  8
M1
  6
CONTINUOUS
370
25
100
AcDbLine
 10
954.705867
 20
714.892822
 11
956.322443
 21
712.092834
  0
LINE
  5
179
100
AcDbEntity
  8
M1
  6
CONTINUOUS
370
25
100
AcDbLine
 10
954.705805
 20
680.292906
 11
956.322321
 21
683.092896
  0
LINE
  5
17A
100
AcDbEntity
  8
M1
  6
CONTINUOUS
370
25
100
AcDbLine
 10
1316.618281
 20
849.135252
 11
1319.979763
 21
868.199156
  0
LINE
  5
17B
100
AcDbEntity
  8
M1
  6
CONTINUOUS
370
25
100
AcDbLine
 10
1343.845851
 20
871.098876
 11
1328.088953
 21
873.877258
  0
LINE
  5
17C
100
AcDbEntity
  8
M1
  6
CONTINUOUS
370
25
100
AcDbLine
 10
1346.162531
 20
843.925842
 11
1349.524013
 21
862.989746
  0
LINE
  5
17D
100
AcDbEntity
  8
M1
  6
CONTINUOUS
370
25
100
AcDbLine
 10
1277.769589
 20
849.135252
 11
1274.408107
 21
868.199218
  0
LINE
  5
17E
100
AcDbEntity
  8
M1
  6
CONTINUOUS
370
25
100
AcDbLine
 10
1250.541925
 20
871.09906
 11
1266.298823
 21
873.877442
  0
LINE
  5
17F
100
AcDbEntity
  8
M1
  6
CONTINUOUS
370
25
100
AcDbLine
 10
1248.225307
 20
843.925904
 11
1244.863825
 21
862.989684
  0
LINE
  5
180
100
AcDbEntity
  8
M1
  6
CONTINUOUS
370
25
100
AcDbLine
 10
844.722469
 20
868.092834
 11
844.722469
 21
850.092834
  0
LINE
  5
181
100
AcDbEntity
  8
M1
  6
CONTINUOUS
370
25
100
AcDbLine
 10
851.722469
 20
875.092834
 11
883.722469
 21
875.092834
  0
LINE
  5
182
100
AcDbEntity
  8
M1
  6
CONTINUOUS
370
25
100
AcDbLine
 10
890.722469
 20
868.092834
 11
890.722469
 21
850.092834
  0
LINE
  5
183
100
AcDbEntity
  8
M1
  6
CONTINUOUS
370
25
100
AcDbLine
 10
264.226435
 20
843.925904
 11
260.865107
 21
862.989624
  0
LINE
  5
184
100
AcDbEntity
  8
M1
  6
CONTINUOUS
370
25
100
AcDbLine
 10
266.543573
 20
871.098998
 11
282.300409
 21
873.87738
  0
LINE
  5
185
100
AcDbEntity
  8
M1
  6
CONTINUOUS
370
25
100
AcDbLine
 10
293.771113
 20
849.135252
 11
290.409785
 21
868.199278
  0
LINE
  5
186
100
AcDbEntity
  8
M1
  6
CONTINUOUS
370
25
100
AcDbLine
 10
332.619623
 20
849.135252
 11
335.980951
 21
868.199218
  0
LINE
  5
187
100
AcDbEntity
  8
M1
  6
CONTINUOUS
370
25
100
AcDbLine
 10
359.847529
 20
871.09906
 11
344.090571
 21
873.877502
  0
LINE
  5
188
100
AcDbEntity
  8
M1
  6
CONTINUOUS
370
25
100
AcDbLine
 10
362.164545
 20
843.92578
 11
365.525995
 21
862.989564
  0
LINE
  5
189
100
AcDbEntity
  8
M1
  6
CONTINUOUS
370
25
100
AcDbLine
 10
313.195551
 20
566.404542
 11
313.195551
 21
540.801208
  0
LINE
  5
18A
100
AcDbEntity
  8
M1
  6
CONTINUOUS
370
25
100
AcDbLine
 10
302.963741
 20
652.592834
 11
323.427363
 21
652.592834
  0
LINE
  5
18B
100
AcDbEntity
  8
M1
  6
CONTINUOUS
370
25
100
AcDbLine
 10
313.195551
 20
662.824644
 11
313.195551
 21
642.361022
  0
LINE
  5
18C
100
AcDbEntity
  8
M1
  6
CONTINUOUS
370
25
100
AcDbLine
 10
398.651973
 20
652.592834
 11
425.108759
 21
652.592834
  0
LINE
  5
18D
100
AcDbEntity
  8
M1
  6
CONTINUOUS
370
25
100
AcDbLine
 10
945.927209
 20
652.592834
 11
974.499263
 21
652.592834
  0
ARC
  5
18E
100
AcDbEntity
  8
M1
  6
CONTINUOUS
370
25
100
AcDbCircle
 10
702.722529
 20
652.592834
 40
6.0
100
AcDbArc
 50
270.0
 51
450.0
  0
CIRCLE
  5
18F
100
AcDbEntity
  8
M1
  6
CONTINUOUS
370
25
100
AcDbCircle
 10
313.195551
 20
652.592834
 40
176.0
  0
CIRCLE
  5
190
100
AcDbEntity
  8
M1
  6
CONTINUOUS
370
25
100
AcDbCircle
 10
448.295527
 20
730.592834
 40
9.5
  0
CIRCLE
  5
191
100
AcDbEntity
  8
M1
  6
CONTINUOUS
370
25
100
AcDbCircle
 10
313.195551
 20
808.592834
 40
9.5
  0
CIRCLE
  5
192
100
AcDbEntity
  8
M1
  6
CONTINUOUS
370
25
100
AcDbCircle
 10
178.095575
 20
730.592834
 40
9.5
  0
CIRCLE
  5
193
100
AcDbEntity
  8
M1
  6
CONTINUOUS
370
25
100
AcDbCircle
 10
178.095575
 20
574.592834
 40
9.5
  0
CIRCLE
  5
194
100
AcDbEntity
  8
M1
  6
CONTINUOUS
370
25
100
AcDbCircle
 10
313.195551
 20
496.592834
 40
9.5
  0
CIRCLE
  5
195
100
AcDbEntity
  8
M1
  6
CONTINUOUS
370
25
100
AcDbCircle
 10
448.295527
 20
574.592834
 40
9.5
  0
ARC
  5
196
100
AcDbEntity
  8
M1
  6
CONTINUOUS
370
25
100
AcDbCircle
 10
790.198847
 20
740.124328
 40
6.0
100
AcDbArc
 50
185.079132
 51
216.118011
  0
ARC
  5
197
100
AcDbEntity
  8
M1
  6
CONTINUOUS
370
25
100
AcDbCircle
 10
790.198847
 20
721.06134
 40
5.999968
100
AcDbArc
 50
143.881989
 51
174.920868
  0
ARC
  5
198
100
AcDbEntity
  8
M1
  6
CONTINUOUS
370
25
100
AcDbCircle
 10
790.198847
 20
799.06134
 40
5.999968
100
AcDbArc
 50
143.881989
 51
174.920868
  0
ARC
  5
199
100
AcDbEntity
  8
M1
  6
CONTINUOUS
370
25
100
AcDbCircle
 10
790.198847
 20
818.124328
 40
6.0
100
AcDbArc
 50
185.079132
 51
216.118011
  0
ARC
  5
19A
100
AcDbEntity
  8
M1
  6
CONTINUOUS
370
25
100
AcDbCircle
 10
790.198847
 20
584.124328
 40
6.0
100
AcDbArc
 50
185.079132
 51
216.118011
  0
ARC
  5
19B
100
AcDbEntity
  8
M1
  6
CONTINUOUS
370
25
100
AcDbCircle
 10
790.198847
 20
487.06134
 40
5.999968
100
AcDbArc
 50
143.881989
 51
174.920868
  0
ARC
  5
19C
100
AcDbEntity
  8
M1
  6
CONTINUOUS
370
25
100
AcDbCircle
 10
790.198847
 20
506.124328
 40
6.0
100
AcDbArc
 50
185.079132
 51
216.118011
  0
ARC
  5
19D
100
AcDbEntity
  8
M1
  6
CONTINUOUS
370
25
100
AcDbCircle
 10
790.198847
 20
565.06134
 40
5.999968
100
AcDbArc
 50
143.881989
 51
174.920868
  0
ARC
  5
19E
100
AcDbEntity
  8
M1
  6
CONTINUOUS
370
25
100
AcDbCircle
 10
945.246027
 20
584.124328
 40
6.000016
100
AcDbArc
 50
323.882324
 51
354.920868
  0
ARC
  5
19F
100
AcDbEntity
  8
M1
  6
CONTINUOUS
370
25
100
AcDbCircle
 10
945.246027
 20
487.06134
 40
6.0
100
AcDbArc
 50
5.079131
 51
36.117661
  0
ARC
  5
1A0
100
AcDbEntity
  8
M1
  6
CONTINUOUS
370
25
100
AcDbCircle
 10
945.246027
 20
506.124328
 40
6.000016
100
AcDbArc
 50
323.882324
 51
354.920868
  0
ARC
  5
1A1
100
AcDbEntity
  8
M1
  6
CONTINUOUS
370
25
100
AcDbCircle
 10
945.246027
 20
565.06134
 40
6.0
100
AcDbArc
 50
5.079131
 51
36.117661
  0
ARC
  5
1A2
100
AcDbEntity
  8
M1
  6
CONTINUOUS
370
25
100
AcDbCircle
 10
313.195551
 20
652.592834
 40
99.999976
100
AcDbArc
 50
352.303009
 51
367.451854
  0
CIRCLE
  5
1A3
100
AcDbEntity
  8
M1
  6
CONTINUOUS
370
25
100
AcDbCircle
 10
383.906245
 20
723.303526
 40
6.0
  0
CIRCLE
  5
1A4
100
AcDbEntity
  8
M1
  6
CONTINUOUS
370
25
100
AcDbCircle
 10
383.906245
 20
723.303526
 40
5.0
  0
CIRCLE
  5
1A5
100
AcDbEntity
  8
M1
  6
CONTINUOUS
370
25
100
AcDbCircle
 10
313.195551
 20
752.592834
 40
6.0
  0
CIRCLE
  5
1A6
100
AcDbEntity
  8
M1
  6
CONTINUOUS
370
25
100
AcDbCircle
 10
313.195551
 20
752.592834
 40
5.0
  0
CIRCLE
  5
1A7
100
AcDbEntity
  8
M1
  6
CONTINUOUS
370
25
100
AcDbCircle
 10
242.484859
 20
723.303526
 40
6.0
  0
CIRCLE
  5
1A8
100
AcDbEntity
  8
M1
  6
CONTINUOUS
370
25
100
AcDbCircle
 10
242.484859
 20
723.303526
 40
5.0
  0
CIRCLE
  5
1A9
100
AcDbEntity
  8
M1
  6
CONTINUOUS
370
25
100
AcDbCircle
 10
213.195551
 20
652.592834
 40
6.0
  0
CIRCLE
  5
1AA
100
AcDbEntity
  8
M1
  6
CONTINUOUS
370
25
100
AcDbCircle
 10
213.195551
 20
652.592834
 40
5.0
  0
CIRCLE
  5
1AB
100
AcDbEntity
  8
M1
  6
CONTINUOUS
370
25
100
AcDbCircle
 10
242.484859
 20
581.88214
 40
6.0
  0
CIRCLE
  5
1AC
100
AcDbEntity
  8
M1
  6
CONTINUOUS
370
25
100
AcDbCircle
 10
242.484859
 20
581.88214
 40
5.0
  0
CIRCLE
  5
1AD
100
AcDbEntity
  8
M1
  6
CONTINUOUS
370
25
100
AcDbCircle
 10
313.195551
 20
552.592834
 40
6.0
  0
CIRCLE
  5
1AE
100
AcDbEntity
  8
M1
  6
CONTINUOUS
370
25
100
AcDbCircle
 10
313.195551
 20
552.592834
 40
5.0
  0
CIRCLE
  5
1AF
100
AcDbEntity
  8
M1
  6
CONTINUOUS
370
25
100
AcDbCircle
 10
383.906245
 20
581.88214
 40
6.0
  0
CIRCLE
  5
1B0
100
AcDbEntity
  8
M1
  6
CONTINUOUS
370
25
100
AcDbCircle
 10
383.906245
 20
581.88214
 40
5.0
  0
CIRCLE
  5
1B1
100
AcDbEntity
  8
M1
  6
CONTINUOUS
370
25
100
AcDbCircle
 10
413.195551
 20
652.592834
 40
6.0
  0
CIRCLE
  5
1B2
100
AcDbEntity
  8
M1
  6
CONTINUOUS
370
25
100
AcDbCircle
 10
413.195551
 20
652.592834
 40
5.0
  0
ARC
  5
1B3
100
AcDbEntity
  8
M1
  6
CONTINUOUS
370
25
100
AcDbCircle
 10
313.195551
 20
652.592834
 40
22.500052
100
AcDbArc
 50
15.465973
 51
344.534027
  0
CIRCLE
  5
1B4
100
AcDbEntity
  8
M1
  6
CONTINUOUS
370
25
100
AcDbCircle
 10
313.195551
 20
652.592834
 40
65.0
  0
CIRCLE
  5
1B5
100
AcDbEntity
  8
M1
  6
CONTINUOUS
370
25
100
AcDbCircle
 10
313.195551
 20
652.592834
 40
55.0
  0
ARC
  5
1B6
100
AcDbEntity
  8
M1
  6
CONTINUOUS
370
25
100
AcDbCircle
 10
313.195551
 20
652.592834
 40
114.999968
100
AcDbArc
 50
41.724194
 51
48.275826
  0
ARC
  5
1B7
100
AcDbEntity
  8
M1
  6
CONTINUOUS
370
25
100
AcDbCircle
 10
383.077875
 20
730.960388
 40
10.000032
100
AcDbArc
 50
48.275501
 51
135.0
  0
ARC
  5
1B8
100
AcDbEntity
  8
M1
  6
CONTINUOUS
370
25
100
AcDbCircle
 10
391.563227
 20
722.475036
 40
9.999968
100
AcDbArc
 50
315.0
 51
401.724003
  0
ARC
  5
1B9
100
AcDbEntity
  8
M1
  6
CONTINUOUS
370
25
100
AcDbCircle
 10
313.195551
 20
652.592834
 40
124.999984
100
AcDbArc
 50
53.919041
 51
64.389381
  0
ARC
  5
1BA
100
AcDbEntity
  8
M1
  6
CONTINUOUS
370
25
100
AcDbCircle
 10
372.596675
 20
777.707824
 40
3.999986
100
AcDbArc
 50
64.602509
 51
157.500641
  0
ARC
  5
1BB
100
AcDbEntity
  8
M1
  6
CONTINUOUS
370
25
100
AcDbCircle
 10
368.956171
 20
768.918824
 40
4.000022
100
AcDbArc
 50
157.500641
 51
244.389389
  0
ARC
  5
1BC
100
AcDbEntity
  8
M1
  6
CONTINUOUS
370
25
100
AcDbCircle
 10
395.961177
 20
763.642822
 40
4.000004
100
AcDbArc
 50
315.001251
 51
413.30233
  0
ARC
  5
1BD
100
AcDbEntity
  8
M1
  6
CONTINUOUS
370
25
100
AcDbCircle
 10
389.167231
 20
756.848816
 40
3.999988
100
AcDbArc
 50
233.918884
 51
314.99939
  0
ARC
  5
1BE
100
AcDbEntity
  8
M1
  6
CONTINUOUS
370
25
100
AcDbCircle
 10
313.195551
 20
652.592834
 40
100.000016
100
AcDbArc
 50
83.368988
 51
96.939163
  0
ARC
  5
1BF
100
AcDbEntity
  8
M1
  6
CONTINUOUS
370
25
100
AcDbCircle
 10
313.195551
 20
652.592834
 40
99.999962
100
AcDbArc
 50
128.573074
 51
141.153992
  0
ARC
  5
1C0
100
AcDbEntity
  8
M1
  6
CONTINUOUS
370
25
100
AcDbCircle
 10
313.195551
 20
652.592834
 40
100.000022
100
AcDbArc
 50
38.428799
 51
51.047085
  0
ARC
  5
1C1
100
AcDbEntity
  8
M1
  6
CONTINUOUS
370
25
100
AcDbCircle
 10
313.195551
 20
652.592834
 40
107.999938
100
AcDbArc
 50
10.425304
 51
19.224133
  0
ARC
  5
1C2
100
AcDbEntity
  8
M1
  6
CONTINUOUS
370
25
100
AcDbCircle
 10
399.651117
 20
712.178466
 40
3.000052
100
AcDbArc
 50
34.574322
 51
135.0
  0
ARC
  5
1C3
100
AcDbEntity
  8
M1
  6
CONTINUOUS
370
25
100
AcDbCircle
 10
313.195551
 20
652.592834
 40
107.999992
100
AcDbArc
 50
25.775791
 51
34.574749
  0
ARC
  5
1C4
100
AcDbEntity
  8
M1
  6
CONTINUOUS
370
25
100
AcDbCircle
 10
407.748285
 20
698.252136
 40
3.000036
100
AcDbArc
 50
292.500153
 51
385.77577
  0
ARC
  5
1C5
100
AcDbEntity
  8
M1
  6
CONTINUOUS
370
25
100
AcDbCircle
 10
412.340571
 20
687.165588
 40
3.000048
100
AcDbArc
 50
19.223812
 51
112.50016
  0
ARC
  5
1C6
100
AcDbEntity
  8
M1
  6
CONTINUOUS
370
25
100
AcDbCircle
 10
416.462153
 20
671.592834
 40
3.0
100
AcDbArc
 50
270.0
 51
370.426313
  0
ARC
  5
1C7
100
AcDbEntity
  8
M1
  6
CONTINUOUS
370
25
100
AcDbCircle
 10
313.195551
 20
652.592834
 40
69.999962
100
AcDbArc
 50
16.260244
 51
28.739841
  0
ARC
  5
1C8
100
AcDbEntity
  8
M1
  6
CONTINUOUS
370
25
100
AcDbCircle
 10
378.956415
 20
688.655334
 40
4.999984
100
AcDbArc
 50
135.0
 51
208.739456
  0
ARC
  5
1C9
100
AcDbEntity
  8
M1
  6
CONTINUOUS
370
25
100
AcDbCircle
 10
385.195551
 20
673.592896
 40
5.000038
100
AcDbArc
 50
196.259644
 51
270.0
  0
ARC
  5
1CA
100
AcDbEntity
  8
M1
  6
CONTINUOUS
370
25
100
AcDbCircle
 10
313.195551
 20
652.592834
 40
100.000052
100
AcDbArc
 50
174.242584
 51
186.550964
  0
ARC
  5
1CB
100
AcDbEntity
  8
M1
  6
CONTINUOUS
370
25
100
AcDbCircle
 10
313.195551
 20
652.592834
 40
99.999968
100
AcDbArc
 50
218.8255
 51
231.213699
  0
ARC
  5
1CC
100
AcDbEntity
  8
M1
  6
CONTINUOUS
370
25
100
AcDbCircle
 10
313.195551
 20
652.592834
 40
100.0
100
AcDbArc
 50
263.953766
 51
276.529053
  0
ARC
  5
1CD
100
AcDbEntity
  8
M1
  6
CONTINUOUS
370
25
100
AcDbCircle
 10
313.195551
 20
652.592834
 40
100.000008
100
AcDbArc
 50
308.938538
 51
321.555359
  0
ARC
  5
1CE
100
AcDbEntity
  8
M1
  6
CONTINUOUS
370
25
100
AcDbCircle
 10
799.222469
 20
824.592834
 40
4.0
100
AcDbArc
 50
90.0
 51
180.0
  0
ARC
  5
1CF
100
AcDbEntity
  8
M1
  6
CONTINUOUS
370
25
100
AcDbCircle
 10
799.222469
 20
480.592834
 40
3.99994
100
AcDbArc
 50
180.0
 51
270.0
  0
ARC
  5
1D0
100
AcDbEntity
  8
M1
  6
CONTINUOUS
370
25
100
AcDbCircle
 10
762.684687
 20
527.592834
 40
10.00003
100
AcDbArc
 50
46.022923
 51
90.0
  0
ARC
  5
1D1
100
AcDbEntity
  8
M1
  6
CONTINUOUS
370
25
100
AcDbCircle
 10
762.684443
 20
777.592834
 40
10.0
100
AcDbArc
 50
270.0
 51
313.977203
  0
ARC
  5
1D2
100
AcDbEntity
  8
M1
  6
CONTINUOUS
370
25
100
AcDbCircle
 10
307.195551
 20
757.421264
 40
9.999982
100
AcDbArc
 50
93.275734
 51
180.0
  0
ARC
  5
1D3
100
AcDbEntity
  8
M1
  6
CONTINUOUS
370
25
100
AcDbCircle
 10
313.195551
 20
652.592834
 40
114.999976
100
AcDbArc
 50
86.724182
 51
93.275818
  0
ARC
  5
1D4
100
AcDbEntity
  8
M1
  6
CONTINUOUS
370
25
100
AcDbCircle
 10
319.195551
 20
757.421264
 40
10.0
100
AcDbArc
 50
0.0
 51
86.724266
  0
ARC
  5
1D5
100
AcDbEntity
  8
M1
  6
CONTINUOUS
370
25
100
AcDbCircle
 10
332.195551
 20
755.859496
 40
3.000024
100
AcDbArc
 50
79.575043
 51
180.0
  0
ARC
  5
1D6
100
AcDbEntity
  8
M1
  6
CONTINUOUS
370
25
100
AcDbCircle
 10
313.195551
 20
652.592834
 40
108.000022
100
AcDbArc
 50
70.775803
 51
79.574768
  0
ARC
  5
1D7
100
AcDbEntity
  8
M1
  6
CONTINUOUS
370
25
100
AcDbCircle
 10
347.768427
 20
751.737732
 40
2.999978
100
AcDbArc
 50
337.49939
 51
430.775803
  0
ARC
  5
1D8
100
AcDbEntity
  8
M1
  6
CONTINUOUS
370
25
100
AcDbCircle
 10
334.195551
 20
724.592834
 40
5.0
100
AcDbArc
 50
180.0
 51
253.739487
  0
ARC
  5
1D9
100
AcDbEntity
  8
M1
  6
CONTINUOUS
370
25
100
AcDbCircle
 10
358.854975
 20
747.145568
 40
2.999978
100
AcDbArc
 50
64.223724
 51
157.49939
  0
ARC
  5
1DA
100
AcDbEntity
  8
M1
  6
CONTINUOUS
370
25
100
AcDbCircle
 10
313.195551
 20
652.592834
 40
107.999968
100
AcDbArc
 50
55.425304
 51
64.224136
  0
ARC
  5
1DB
100
AcDbEntity
  8
M1
  6
CONTINUOUS
370
25
100
AcDbCircle
 10
372.781001
 20
739.0484
 40
3.000026
100
AcDbArc
 50
315.0
 51
415.42664
  0
ARC
  5
1DC
100
AcDbEntity
  8
M1
  6
CONTINUOUS
370
25
100
AcDbCircle
 10
349.257929
 20
718.35382
 40
4.99998
100
AcDbArc
 50
241.259933
 51
315.0
  0
ARC
  5
1DD
100
AcDbEntity
  8
M1
  6
CONTINUOUS
370
25
100
AcDbCircle
 10
234.827997
 20
722.475096
 40
10.000038
100
AcDbArc
 50
138.276001
 51
225.0
  0
ARC
  5
1DE
100
AcDbEntity
  8
M1
  6
CONTINUOUS
370
25
100
AcDbCircle
 10
313.195551
 20
652.592834
 40
115.000016
100
AcDbArc
 50
131.724167
 51
138.275864
  0
ARC
  5
1DF
100
AcDbEntity
  8
M1
  6
CONTINUOUS
370
25
100
AcDbCircle
 10
243.313349
 20
730.960388
 40
9.999968
100
AcDbArc
 50
45.0
 51
131.724503
  0
ARC
  5
1E0
100
AcDbEntity
  8
M1
  6
CONTINUOUS
370
25
100
AcDbCircle
 10
253.609981
 20
739.0484
 40
2.999968
100
AcDbArc
 50
124.57402
 51
225.0
  0
ARC
  5
1E1
100
AcDbEntity
  8
M1
  6
CONTINUOUS
370
25
100
AcDbCircle
 10
313.195551
 20
652.592834
 40
107.999992
100
AcDbArc
 50
115.775787
 51
124.574768
  0
ARC
  5
1E2
100
AcDbEntity
  8
M1
  6
CONTINUOUS
370
25
100
AcDbCircle
 10
267.536249
 20
747.145568
 40
2.999978
100
AcDbArc
 50
22.500605
 51
115.776276
  0
ARC
  5
1E3
100
AcDbEntity
  8
M1
  6
CONTINUOUS
370
25
100
AcDbCircle
 10
277.133051
 20
718.35376
 40
4.999984
100
AcDbArc
 50
225.0
 51
298.739746
  0
ARC
  5
1E4
100
AcDbEntity
  8
M1
  6
CONTINUOUS
370
25
100
AcDbCircle
 10
278.622797
 20
751.737792
 40
2.99999
100
AcDbArc
 50
109.224197
 51
202.499527
  0
ARC
  5
1E5
100
AcDbEntity
  8
M1
  6
CONTINUOUS
370
25
100
AcDbCircle
 10
313.195551
 20
652.592834
 40
108.0
100
AcDbArc
 50
100.425301
 51
109.224129
  0
ARC
  5
1E6
100
AcDbEntity
  8
M1
  6
CONTINUOUS
370
25
100
AcDbCircle
 10
294.195551
 20
755.859436
 40
3.0
100
AcDbArc
 50
0.0
 51
100.42746
  0
ARC
  5
1E7
100
AcDbEntity
  8
M1
  6
CONTINUOUS
370
25
100
AcDbCircle
 10
292.195429
 20
724.592834
 40
4.999996
100
AcDbArc
 50
286.260498
 51
360.0
  0
ARC
  5
1E8
100
AcDbEntity
  8
M1
  6
CONTINUOUS
370
25
100
AcDbCircle
 10
208.367061
 20
646.592834
 40
9.999982
100
AcDbArc
 50
183.275742
 51
270.0
  0
ARC
  5
1E9
100
AcDbEntity
  8
M1
  6
CONTINUOUS
370
25
100
AcDbCircle
 10
313.195551
 20
652.592834
 40
115.000038
100
AcDbArc
 50
176.724182
 51
183.275818
  0
ARC
  5
1EA
100
AcDbEntity
  8
M1
  6
CONTINUOUS
370
25
100
AcDbCircle
 10
208.367183
 20
658.592896
 40
10.0
100
AcDbArc
 50
90.0
 51
176.724258
  0
ARC
  5
1EB
100
AcDbEntity
  8
M1
  6
CONTINUOUS
370
25
100
AcDbCircle
 10
209.928827
 20
671.592774
 40
2.999964
100
AcDbArc
 50
169.574829
 51
270.0
  0
ARC
  5
1EC
100
AcDbEntity
  8
M1
  6
CONTINUOUS
370
25
100
AcDbCircle
 10
313.195551
 20
652.592834
 40
108.000022
100
AcDbArc
 50
160.775803
 51
169.574768
  0
ARC
  5
1ED
100
AcDbEntity
  8
M1
  6
CONTINUOUS
370
25
100
AcDbCircle
 10
214.050655
 20
687.16571
 40
3.000036
100
AcDbArc
 50
67.49984
 51
160.776184
  0
ARC
  5
1EE
100
AcDbEntity
  8
M1
  6
CONTINUOUS
370
25
100
AcDbCircle
 10
241.195551
 20
673.592774
 40
5.0
100
AcDbArc
 50
270.0
 51
343.739685
  0
ARC
  5
1EF
100
AcDbEntity
  8
M1
  6
CONTINUOUS
370
25
100
AcDbCircle
 10
218.642817
 20
698.252258
 40
3.000034
100
AcDbArc
 50
154.224228
 51
247.49939
  0
ARC
  5
1F0
100
AcDbEntity
  8
M1
  6
CONTINUOUS
370
25
100
AcDbCircle
 10
313.195551
 20
652.592834
 40
107.999968
100
AcDbArc
 50
145.425308
 51
154.224152
  0
ARC
  5
1F1
100
AcDbEntity
  8
M1
  6
CONTINUOUS
370
25
100
AcDbCircle
 10
226.739985
 20
712.178344
 40
3.000026
100
AcDbArc
 50
45.0
 51
145.426636
  0
ARC
  5
1F2
100
AcDbEntity
  8
M1
  6
CONTINUOUS
370
25
100
AcDbCircle
 10
247.434565
 20
688.655212
 40
4.99998
100
AcDbArc
 50
331.259918
 51
405.0
  0
ARC
  5
1F3
100
AcDbEntity
  8
M1
  6
CONTINUOUS
370
25
100
AcDbCircle
 10
243.313227
 20
574.22525
 40
10.000032
100
AcDbArc
 50
228.275497
 51
314.999878
  0
ARC
  5
1F4
100
AcDbEntity
  8
M1
  6
CONTINUOUS
370
25
100
AcDbCircle
 10
313.195551
 20
652.592834
 40
114.999968
100
AcDbArc
 50
221.724197
 51
228.275833
  0
ARC
  5
1F5
100
AcDbEntity
  8
M1
  6
CONTINUOUS
370
25
100
AcDbCircle
 10
234.827997
 20
582.710662
 40
9.99999
100
AcDbArc
 50
134.999878
 51
221.723999
  0
ARC
  5
1F6
100
AcDbEntity
  8
M1
  6
CONTINUOUS
370
25
100
AcDbCircle
 10
226.739985
 20
593.007232
 40
2.999952
100
AcDbArc
 50
214.575638
 51
315.000427
  0
ARC
  5
1F7
100
AcDbEntity
  8
M1
  6
CONTINUOUS
370
25
100
AcDbCircle
 10
313.195551
 20
652.592834
 40
108.000008
100
AcDbArc
 50
205.775803
 51
214.574799
  0
ARC
  5
1F8
100
AcDbEntity
  8
M1
  6
CONTINUOUS
370
25
100
AcDbCircle
 10
218.642817
 20
606.933532
 40
3.000006
100
AcDbArc
 50
112.500381
 51
205.775772
  0
ARC
  5
1F9
100
AcDbEntity
  8
M1
  6
CONTINUOUS
370
25
100
AcDbCircle
 10
247.434687
 20
616.530334
 40
4.999984
100
AcDbArc
 50
315.0
 51
388.739458
  0
ARC
  5
1FA
100
AcDbEntity
  8
M1
  6
CONTINUOUS
370
25
100
AcDbCircle
 10
214.050531
 20
618.02005
 40
3.000038
100
AcDbArc
 50
199.223267
 51
292.500397
  0
ARC
  5
1FB
100
AcDbEntity
  8
M1
  6
CONTINUOUS
370
25
100
AcDbCircle
 10
313.195551
 20
652.592834
 40
107.999938
100
AcDbArc
 50
190.425308
 51
199.224152
  0
ARC
  5
1FC
100
AcDbEntity
  8
M1
  6
CONTINUOUS
370
25
100
AcDbCircle
 10
209.928949
 20
633.592834
 40
3.0
100
AcDbArc
 50
90.0
 51
190.426315
  0
ARC
  5
1FD
100
AcDbEntity
  8
M1
  6
CONTINUOUS
370
25
100
AcDbCircle
 10
241.195551
 20
631.592774
 40
5.000038
100
AcDbArc
 50
16.259645
 51
90.0
  0
ARC
  5
1FE
100
AcDbEntity
  8
M1
  6
CONTINUOUS
370
25
100
AcDbCircle
 10
319.195551
 20
547.764312
 40
10.000012
100
AcDbArc
 50
273.275726
 51
360.0
  0
ARC
  5
1FF
100
AcDbEntity
  8
M1
  6
CONTINUOUS
370
25
100
AcDbCircle
 10
313.195551
 20
652.592834
 40
115.000008
100
AcDbArc
 50
266.724182
 51
273.275818
  0
ARC
  5
200
100
AcDbEntity
  8
M1
  6
CONTINUOUS
370
25
100
AcDbCircle
 10
307.195429
 20
547.764434
 40
10.0
100
AcDbArc
 50
180.0
 51
266.724274
  0
ARC
  5
201
100
AcDbEntity
  8
M1
  6
CONTINUOUS
370
25
100
AcDbCircle
 10
294.195673
 20
549.32614
 40
2.999994
100
AcDbArc
 50
259.574951
 51
360.0
  0
ARC
  5
202
100
AcDbEntity
  8
M1
  6
CONTINUOUS
370
25
100
AcDbCircle
 10
313.195551
 20
652.592834
 40
107.999992
100
AcDbArc
 50
250.775803
 51
259.574768
  0
ARC
  5
203
100
AcDbEntity
  8
M1
  6
CONTINUOUS
370
25
100
AcDbCircle
 10
278.622675
 20
553.447936
 40
2.999968
100
AcDbArc
 50
157.499939
 51
250.775803
  0
ARC
  5
204
100
AcDbEntity
  8
M1
  6
CONTINUOUS
370
25
100
AcDbCircle
 10
292.195673
 20
580.592834
 40
5.0
100
AcDbArc
 50
0.0
 51
73.739487
  0
ARC
  5
205
100
AcDbEntity
  8
M1
  6
CONTINUOUS
370
25
100
AcDbCircle
 10
267.536127
 20
558.040068
 40
3.000006
100
AcDbArc
 50
244.223969
 51
337.49939
  0
ARC
  5
206
100
AcDbEntity
  8
M1
  6
CONTINUOUS
370
25
100
AcDbCircle
 10
313.195551
 20
652.592834
 40
108.0
100
AcDbArc
 50
235.425308
 51
244.224136
  0
ARC
  5
207
100
AcDbEntity
  8
M1
  6
CONTINUOUS
370
25
100
AcDbCircle
 10
253.610103
 20
566.137298
 40
3.000004
100
AcDbArc
 50
135.000412
 51
235.426315
  0
ARC
  5
208
100
AcDbEntity
  8
M1
  6
CONTINUOUS
370
25
100
AcDbCircle
 10
277.133173
 20
586.831848
 40
5.000008
100
AcDbArc
 50
61.260098
 51
134.999756
  0
ARC
  5
209
100
AcDbEntity
  8
M1
  6
CONTINUOUS
370
25
100
AcDbCircle
 10
391.563105
 20
582.71051
 40
10.000038
100
AcDbArc
 50
318.276001
 51
405.000122
  0
ARC
  5
20A
100
AcDbEntity
  8
M1
  6
CONTINUOUS
370
25
100
AcDbCircle
 10
313.195551
 20
652.592834
 40
114.999992
100
AcDbArc
 50
311.724182
 51
318.275848
  0
ARC
  5
20B
100
AcDbEntity
  8
M1
  6
CONTINUOUS
370
25
100
AcDbCircle
 10
383.077753
 20
574.225218
 40
9.99999
100
AcDbArc
 50
225.000122
 51
311.724487
  0
ARC
  5
20C
100
AcDbEntity
  8
M1
  6
CONTINUOUS
370
25
100
AcDbCircle
 10
372.781245
 20
566.137298
 40
2.999968
100
AcDbArc
 50
304.574036
 51
404.999588
  0
ARC
  5
20D
100
AcDbEntity
  8
M1
  6
CONTINUOUS
370
25
100
AcDbCircle
 10
313.195551
 20
652.592834
 40
107.999992
100
AcDbArc
 50
295.775787
 51
304.574768
  0
ARC
  5
20E
100
AcDbEntity
  8
M1
  6
CONTINUOUS
370
25
100
AcDbCircle
 10
358.854853
 20
558.0401
 40
2.999968
100
AcDbArc
 50
202.500061
 51
295.776031
  0
ARC
  5
20F
100
AcDbEntity
  8
M1
  6
CONTINUOUS
370
25
100
AcDbCircle
 10
349.258051
 20
586.83197
 40
4.999984
100
AcDbArc
 50
45.0
 51
118.739906
  0
ARC
  5
210
100
AcDbEntity
  8
M1
  6
CONTINUOUS
370
25
100
AcDbCircle
 10
347.768305
 20
553.447844
 40
3.00002
100
AcDbArc
 50
289.223999
 51
382.499529
  0
ARC
  5
211
100
AcDbEntity
  8
M1
  6
CONTINUOUS
370
25
100
AcDbCircle
 10
313.195551
 20
652.592834
 40
108.0
100
AcDbArc
 50
280.425293
 51
289.224121
  0
ARC
  5
212
100
AcDbEntity
  8
M1
  6
CONTINUOUS
370
25
100
AcDbCircle
 10
332.195551
 20
549.326262
 40
3.0
100
AcDbArc
 50
180.0
 51
280.427368
  0
ARC
  5
213
100
AcDbEntity
  8
M1
  6
CONTINUOUS
370
25
100
AcDbCircle
 10
334.195673
 20
580.592834
 40
5.000024
100
AcDbArc
 50
106.260414
 51
180.0
  0
ARC
  5
214
100
AcDbEntity
  8
M1
  6
CONTINUOUS
370
25
100
AcDbCircle
 10
418.024043
 20
658.592774
 40
9.999982
100
AcDbArc
 50
3.275735
 51
90.0
  0
ARC
  5
215
100
AcDbEntity
  8
M1
  6
CONTINUOUS
370
25
100
AcDbCircle
 10
313.195551
 20
652.592834
 40
115.000038
100
AcDbArc
 50
356.724182
 51
363.275819
  0
ARC
  5
216
100
AcDbEntity
  8
M1
  6
CONTINUOUS
370
25
100
AcDbCircle
 10
418.024043
 20
646.592712
 40
10.0
100
AcDbArc
 50
270.0
 51
356.724274
  0
ARC
  5
217
100
AcDbEntity
  8
M1
  6
CONTINUOUS
370
25
100
AcDbCircle
 10
416.462275
 20
633.592956
 40
2.999964
100
AcDbArc
 50
349.574829
 51
450.0
  0
ARC
  5
218
100
AcDbEntity
  8
M1
  6
CONTINUOUS
370
25
100
AcDbCircle
 10
313.195551
 20
652.592834
 40
108.000022
100
AcDbArc
 50
340.775818
 51
349.574768
  0
ARC
  5
219
100
AcDbEntity
  8
M1
  6
CONTINUOUS
370
25
100
AcDbCircle
 10
412.340449
 20
618.019958
 40
3.000006
100
AcDbArc
 50
247.499619
 51
340.776184
  0
ARC
  5
21A
100
AcDbEntity
  8
M1
  6
CONTINUOUS
370
25
100
AcDbCircle
 10
385.195551
 20
631.592896
 40
5.0
100
AcDbArc
 50
90.0
 51
163.739685
  0
ARC
  5
21B
100
AcDbEntity
  8
M1
  6
CONTINUOUS
370
25
100
AcDbCircle
 10
407.748285
 20
606.933348
 40
3.000034
100
AcDbArc
 50
334.224243
 51
427.499619
  0
ARC
  5
21C
100
AcDbEntity
  8
M1
  6
CONTINUOUS
370
25
100
AcDbCircle
 10
313.195551
 20
652.592834
 40
107.999992
100
AcDbArc
 50
325.425293
 51
334.224152
  0
ARC
  5
21D
100
AcDbEntity
  8
M1
  6
CONTINUOUS
370
25
100
AcDbCircle
 10
399.651117
 20
593.007354
 40
3.000004
100
AcDbArc
 50
224.999588
 51
325.426636
  0
ARC
  5
21E
100
AcDbEntity
  8
M1
  6
CONTINUOUS
370
25
100
AcDbCircle
 10
378.956537
 20
616.530456
 40
4.99998
100
AcDbArc
 50
151.259933
 51
225.0
  0
ARC
  5
21F
100
AcDbEntity
  8
M1
  6
CONTINUOUS
370
25
100
AcDbCircle
 10
313.195551
 20
652.592834
 40
69.999976
100
AcDbArc
 50
106.260292
 51
118.739838
  0
ARC
  5
220
100
AcDbEntity
  8
M1
  6
CONTINUOUS
370
25
100
AcDbCircle
 10
313.195551
 20
652.592834
 40
69.999984
100
AcDbArc
 50
61.260273
 51
73.739815
  0
ARC
  5
221
100
AcDbEntity
  8
M1
  6
CONTINUOUS
370
25
100
AcDbCircle
 10
313.195551
 20
652.592834
 40
70.000008
100
AcDbArc
 50
151.260345
 51
163.739883
  0
ARC
  5
222
100
AcDbEntity
  8
M1
  6
CONTINUOUS
370
25
100
AcDbCircle
 10
313.195551
 20
652.592834
 40
69.999962
100
AcDbArc
 50
196.260239
 51
208.739838
  0
ARC
  5
223
100
AcDbEntity
  8
M1
  6
CONTINUOUS
370
25
100
AcDbCircle
 10
313.195551
 20
652.592834
 40
69.999984
100
AcDbArc
 50
241.260269
 51
253.739914
  0
ARC
  5
224
100
AcDbEntity
  8
M1
  6
CONTINUOUS
370
25
100
AcDbCircle
 10
313.195551
 20
652.592834
 40
70.000008
100
AcDbArc
 50
286.260284
 51
298.739838
  0
ARC
  5
225
100
AcDbEntity
  8
M1
  6
CONTINUOUS
370
25
100
AcDbCircle
 10
313.195551
 20
652.592834
 40
125.000008
100
AcDbArc
 50
295.610565
 51
306.080902
  0
ARC
  5
226
100
AcDbEntity
  8
M1
  6
CONTINUOUS
370
25
100
AcDbCircle
 10
368.956171
 20
536.266846
 40
4.00001
100
AcDbArc
 50
115.610428
 51
202.499359
  0
ARC
  5
227
100
AcDbEntity
  8
M1
  6
CONTINUOUS
370
25
100
AcDbCircle
 10
372.596675
 20
527.477844
 40
4.000022
100
AcDbArc
 50
202.499359
 51
295.397491
  0
ARC
  5
228
100
AcDbEntity
  8
M1
  6
CONTINUOUS
370
25
100
AcDbCircle
 10
395.961177
 20
541.542846
 40
4.000018
100
AcDbArc
 50
306.697662
 51
404.999073
  0
ARC
  5
229
100
AcDbEntity
  8
M1
  6
CONTINUOUS
370
25
100
AcDbCircle
 10
389.167231
 20
548.336852
 40
3.999962
100
AcDbArc
 50
45.000618
 51
126.080849
  0
ARC
  5
22A
100
AcDbEntity
  8
M1
  6
CONTINUOUS
370
25
100
AcDbCircle
 10
313.195551
 20
652.592834
 40
125.000008
100
AcDbArc
 50
115.610558
 51
126.08094
  0
ARC
  5
22B
100
AcDbEntity
  8
M1
  6
CONTINUOUS
370
25
100
AcDbCircle
 10
257.434931
 20
768.918824
 40
3.999984
100
AcDbArc
 50
295.610626
 51
382.499352
  0
ARC
  5
22C
100
AcDbEntity
  8
M1
  6
CONTINUOUS
370
25
100
AcDbCircle
 10
253.794429
 20
777.707824
 40
4.000022
100
AcDbArc
 50
22.499352
 51
115.397491
  0
ARC
  5
22D
100
AcDbEntity
  8
M1
  6
CONTINUOUS
370
25
100
AcDbCircle
 10
230.429927
 20
763.642822
 40
4.000018
100
AcDbArc
 50
126.69767
 51
224.998764
  0
ARC
  5
22E
100
AcDbEntity
  8
M1
  6
CONTINUOUS
370
25
100
AcDbCircle
 10
237.223871
 20
756.848816
 40
3.999962
100
AcDbArc
 50
225.000626
 51
306.081116
  0
ARC
  5
22F
100
AcDbEntity
  8
M1
  6
CONTINUOUS
370
25
100
AcDbCircle
 10
313.195551
 20
652.592834
 40
125.000032
100
AcDbArc
 50
233.919052
 51
244.389389
  0
ARC
  5
230
100
AcDbEntity
  8
M1
  6
CONTINUOUS
370
25
100
AcDbCircle
 10
257.434931
 20
536.266846
 40
4.000022
100
AcDbArc
 50
337.500641
 51
424.389572
  0
ARC
  5
231
100
AcDbEntity
  8
M1
  6
CONTINUOUS
370
25
100
AcDbCircle
 10
253.794429
 20
527.477844
 40
3.999986
100
AcDbArc
 50
244.602509
 51
337.500641
  0
ARC
  5
232
100
AcDbEntity
  8
M1
  6
CONTINUOUS
370
25
100
AcDbCircle
 10
230.429927
 20
541.542846
 40
4.000026
100
AcDbArc
 50
135.000931
 51
233.302338
  0
ARC
  5
233
100
AcDbEntity
  8
M1
  6
CONTINUOUS
370
25
100
AcDbCircle
 10
237.223871
 20
548.336852
 40
4.000014
100
AcDbArc
 50
53.919147
 51
134.999374
  0
ARC
  5
234
100
AcDbEntity
  8
M1
  6
CONTINUOUS
370
25
100
AcDbCircle
 10
313.195551
 20
652.592834
 40
124.999948
100
AcDbArc
 50
357.761292
 51
362.238827
  0
ARC
  5
235
100
AcDbEntity
  8
M1
  6
CONTINUOUS
370
25
100
AcDbCircle
 10
452.605951
 20
657.59314
 40
2.999976
100
AcDbArc
 50
2.054395
 51
90.0
  0
ARC
  5
236
100
AcDbEntity
  8
M1
  6
CONTINUOUS
370
25
100
AcDbCircle
 10
441.097895
 20
657.59314
 40
3.0
100
AcDbArc
 50
90.0
 51
182.238708
  0
ARC
  5
237
100
AcDbEntity
  8
M1
  6
CONTINUOUS
370
25
100
AcDbCircle
 10
452.605951
 20
647.592774
 40
3.0
100
AcDbArc
 50
270.0
 51
357.945618
  0
ARC
  5
238
100
AcDbEntity
  8
M1
  6
CONTINUOUS
370
25
100
AcDbCircle
 10
441.097895
 20
647.592774
 40
2.99997
100
AcDbArc
 50
177.761292
 51
270.0
  0
ARC
  5
239
100
AcDbEntity
  8
M1
  6
CONTINUOUS
370
25
100
AcDbCircle
 10
185.293207
 20
657.59314
 40
2.99997
100
AcDbArc
 50
357.761292
 51
450.0
  0
ARC
  5
23A
100
AcDbEntity
  8
M1
  6
CONTINUOUS
370
25
100
AcDbCircle
 10
313.195551
 20
652.592834
 40
124.999962
100
AcDbArc
 50
177.761139
 51
182.238693
  0
ARC
  5
23B
100
AcDbEntity
  8
M1
  6
CONTINUOUS
370
25
100
AcDbCircle
 10
185.293207
 20
647.592774
 40
3.0
100
AcDbArc
 50
270.0
 51
362.238708
  0
ARC
  5
23C
100
AcDbEntity
  8
M1
  6
CONTINUOUS
370
25
100
AcDbCircle
 10
173.785151
 20
647.592774
 40
2.999976
100
AcDbArc
 50
182.054398
 51
270.0
  0
ARC
  5
23D
100
AcDbEntity
  8
M1
  6
CONTINUOUS
370
25
100
AcDbCircle
 10
173.785151
 20
657.59314
 40
3.0
100
AcDbArc
 50
90.0
 51
177.945602
  0
CIRCLE
  5
23E
100
AcDbEntity
  8
M1
  6
CONTINUOUS
370
25
100
AcDbCircle
 10
1162.093927
 20
730.592834
 40
9.5
  0
CIRCLE
  5
23F
100
AcDbEntity
  8
M1
  6
CONTINUOUS
370
25
100
AcDbCircle
 10
1297.193905
 20
808.592834
 40
9.5
  0
CIRCLE
  5
240
100
AcDbEntity
  8
M1
  6
CONTINUOUS
370
25
100
AcDbCircle
 10
1432.293881
 20
730.592834
 40
9.5
  0
CIRCLE
  5
241
100
AcDbEntity
  8
M1
  6
CONTINUOUS
370
25
100
AcDbCircle
 10
1432.293881
 20
574.592834
 40
9.5
  0
CIRCLE
  5
242
100
AcDbEntity
  8
M1
  6
CONTINUOUS
370
25
100
AcDbCircle
 10
1297.193905
 20
496.592834
 40
9.5
  0
CIRCLE
  5
243
100
AcDbEntity
  8
M1
  6
CONTINUOUS
370
25
100
AcDbCircle
 10
1162.093927
 20
574.592834
 40
9.5
  0
CIRCLE
  5
244
100
AcDbEntity
  8
M1
  6
CONTINUOUS
370
25
100
AcDbCircle
 10
1297.193905
 20
652.592834
 40
197.5
  0
ARC
  5
245
100
AcDbEntity
  8
M1
  6
CONTINUOUS
370
25
100
AcDbCircle
 10
313.195551
 20
652.592834
 40
70.000038
100
AcDbArc
 50
331.260284
 51
343.739807
  0
CIRCLE
  5
246
100
AcDbEntity
  8
M1
  6
CONTINUOUS
370
25
100
AcDbCircle
 10
313.195551
 20
652.592834
 40
197.5
  0
ARC
  5
247
100
AcDbEntity
  8
M1
  6
CONTINUOUS
370
25
100
AcDbCircle
 10
946.722469
 20
737.084656
 40
5.0
100
AcDbArc
 50
0.0
 51
11.604842
  0
CIRCLE
  5
248
100
AcDbEntity
  8
M1
  6
CONTINUOUS
370
25
100
AcDbCircle
 10
1297.193905
 20
652.592834
 40
176.0
  0
CIRCLE
  5
249
100
AcDbEntity
  8
M1
  6
CONTINUOUS
370
25
100
AcDbCircle
 10
1297.193905
 20
652.592834
 40
141.0
  0
CIRCLE
  5
24A
100
AcDbEntity
  8
M1
  6
CONTINUOUS
370
25
100
AcDbCircle
 10
1342.193905
 20
652.592834
 40
15.0
  0
CIRCLE
  5
24B
100
AcDbEntity
  8
M1
  6
CONTINUOUS
370
25
100
AcDbCircle
 10
1297.193905
 20
697.592834
 40
15.0
  0
CIRCLE
  5
24C
100
AcDbEntity
  8
M1
  6
CONTINUOUS
370
25
100
AcDbCircle
 10
1252.193905
 20
652.592834
 40
15.0
  0
CIRCLE
  5
24D
100
AcDbEntity
  8
M1
  6
CONTINUOUS
370
25
100
AcDbCircle
 10
1297.193905
 20
607.592834
 40
15.0
  0
ARC
  5
24E
100
AcDbEntity
  8
M1
  6
CONTINUOUS
370
25
100
AcDbCircle
 10
945.246027
 20
818.124328
 40
5.999968
100
AcDbArc
 50
323.881989
 51
354.920868
  0
ARC
  5
24F
100
AcDbEntity
  8
M1
  6
CONTINUOUS
370
25
100
AcDbCircle
 10
945.246027
 20
799.06134
 40
6.0
100
AcDbArc
 50
5.079131
 51
36.117661
  0
ARC
  5
250
100
AcDbEntity
  8
M1
  6
CONTINUOUS
370
25
100
AcDbCircle
 10
945.246027
 20
740.124328
 40
5.999968
100
AcDbArc
 50
323.881989
 51
354.920868
  0
ARC
  5
251
100
AcDbEntity
  8
M1
  6
CONTINUOUS
370
25
100
AcDbCircle
 10
945.246027
 20
721.06134
 40
6.0
100
AcDbArc
 50
5.079131
 51
36.117661
  0
CIRCLE
  5
252
100
AcDbEntity
  8
M1
  6
CONTINUOUS
370
25
100
AcDbCircle
 10
1297.193905
 20
652.592834
 40
85.0
  0
CIRCLE
  5
253
100
AcDbEntity
  8
M1
  6
CONTINUOUS
370
25
100
AcDbCircle
 10
1297.193905
 20
652.592834
 40
74.0
  0
ARC
  5
254
100
AcDbEntity
  8
M1
  6
CONTINUOUS
370
25
100
AcDbCircle
 10
946.375911
 20
668.12567
 40
9.999988
100
AcDbArc
 50
326.407806
 51
354.072052
  0
ARC
  5
255
100
AcDbEntity
  8
M1
  6
CONTINUOUS
370
25
100
AcDbCircle
 10
946.375911
 20
637.059998
 40
10.000008
100
AcDbArc
 50
5.927936
 51
33.592205
  0
ARC
  5
256
100
AcDbEntity
  8
M1
  6
CONTINUOUS
370
25
100
AcDbCircle
 10
946.375911
 20
592.059998
 40
10.000008
100
AcDbArc
 50
5.927936
 51
33.592205
  0
ARC
  5
257
100
AcDbEntity
  8
M1
  6
CONTINUOUS
370
25
100
AcDbCircle
 10
946.375911
 20
623.12567
 40
9.999988
100
AcDbArc
 50
326.407806
 51
354.072052
  0
ARC
  5
258
100
AcDbEntity
  8
M1
  6
CONTINUOUS
370
25
100
AcDbCircle
 10
946.375911
 20
713.12567
 40
9.999988
100
AcDbArc
 50
326.407806
 51
354.072052
  0
ARC
  5
259
100
AcDbEntity
  8
M1
  6
CONTINUOUS
370
25
100
AcDbCircle
 10
946.375911
 20
682.059998
 40
10.000008
100
AcDbArc
 50
5.927936
 51
33.592205
  0
ARC
  5
25A
100
AcDbEntity
  8
M1
  6
CONTINUOUS
370
25
100
AcDbCircle
 10
1326.873409
 20
866.983642
 40
7.000024
100
AcDbArc
 50
79.999962
 51
170.000168
  0
ARC
  5
25B
100
AcDbEntity
  8
M1
  6
CONTINUOUS
370
25
100
AcDbCircle
 10
1342.630305
 20
864.205262
 40
6.999988
100
AcDbArc
 50
350.000153
 51
439.999962
  0
ARC
  5
25C
100
AcDbEntity
  8
M1
  6
CONTINUOUS
370
25
100
AcDbCircle
 10
1267.514401
 20
866.983642
 40
6.999988
100
AcDbArc
 50
9.999833
 51
100.000038
  0
ARC
  5
25D
100
AcDbEntity
  8
M1
  6
CONTINUOUS
370
25
100
AcDbCircle
 10
1251.757503
 20
864.205262
 40
7.000024
100
AcDbArc
 50
100.000038
 51
189.999832
  0
ARC
  5
25E
100
AcDbEntity
  8
M1
  6
CONTINUOUS
370
25
100
AcDbCircle
 10
267.759151
 20
864.205262
 40
7.000028
100
AcDbArc
 50
100.000282
 51
189.999786
  0
ARC
  5
25F
100
AcDbEntity
  8
M1
  6
CONTINUOUS
370
25
100
AcDbCircle
 10
283.516109
 20
866.983704
 40
7.000018
100
AcDbArc
 50
9.99979
 51
100.000282
  0
ARC
  5
260
100
AcDbEntity
  8
M1
  6
CONTINUOUS
370
25
100
AcDbCircle
 10
342.875117
 20
866.983642
 40
7.000028
100
AcDbArc
 50
79.999718
 51
170.000214
  0
ARC
  5
261
100
AcDbEntity
  8
M1
  6
CONTINUOUS
370
25
100
AcDbCircle
 10
358.631953
 20
864.205262
 40
7.000018
100
AcDbArc
 50
350.000214
 51
439.999718
  0
LINE
  5
262
100
AcDbEntity
  8
M1
  6
CONTINUOUS
370
25
100
AcDbLine
 10
766.428665
 20
765.566938
 11
766.428665
 21
540.077404
  0
LINE
  5
263
100
AcDbEntity
  8
M1
  6
CONTINUOUS
370
25
100
AcDbLine
 10
716.722529
 20
692.688538
 11
716.722529
 21
612.497132
  0
LINE
  5
264
100
AcDbEntity
  8
M1
  6
CONTINUOUS
370
25
100
AcDbLine
 10
716.722529
 20
628.592834
 11
714.722529
 21
628.592834
  0
LINE
  5
265
100
AcDbEntity
  8
M1
  6
CONTINUOUS
370
25
100
AcDbLine
 10
716.722529
 20
676.592834
 11
714.722529
 21
676.592834
  0
CIRCLE
  5
266
100
AcDbEntity
  8
M1
  6
CONTINUOUS
370
25
100
AcDbCircle
 10
1109.193905
 20
652.592834
 40
8.0
  0
CIRCLE
  5
267
100
AcDbEntity
  8
M1
  6
CONTINUOUS
370
25
100
AcDbCircle
 10
1203.193905
 20
489.780058
 40
8.0
  0
CIRCLE
  5
268
100
AcDbEntity
  8
M1
  6
CONTINUOUS
370
25
100
AcDbCircle
 10
1391.193905
 20
489.780058
 40
8.0
  0
CIRCLE
  5
269
100
AcDbEntity
  8
M1
  6
CONTINUOUS
370
25
100
AcDbCircle
 10
1485.193905
 20
652.592834
 40
8.0
  0
CIRCLE
  5
26A
100
AcDbEntity
  8
M1
  6
CONTINUOUS
370
25
100
AcDbCircle
 10
1391.193905
 20
815.40561
 40
8.0
  0
CIRCLE
  5
26B
100
AcDbEntity
  8
M1
  6
CONTINUOUS
370
25
100
AcDbCircle
 10
1203.193905
 20
815.40561
 40
8.0
  0
LINE
  5
26C
100
AcDbEntity
  8
M1
  6
CONTINUOUS
370
25
100
AcDbLine
 10
920.722469
 20
824.643216
 11
920.722469
 21
806.168006
  0
LINE
  5
26D
100
AcDbEntity
  8
M1
  6
CONTINUOUS
370
25
100
AcDbLine
 10
920.722469
 20
806.20561
 11
918.222469
 21
806.20561
  0
LINE
  5
26E
100
AcDbEntity
  8
M1
  6
CONTINUOUS
370
25
100
AcDbLine
 10
920.722469
 20
824.60561
 11
918.222469
 21
824.60561
  0
ARC
  5
26F
100
AcDbEntity
  8
M1
  6
CONTINUOUS
370
25
100
AcDbCircle
 10
922.884865
 20
822.524412
 40
4.237604
100
AcDbArc
 50
329.999999
 51
390.000001
  0
ARC
  5
270
100
AcDbEntity
  8
M1
  6
CONTINUOUS
370
25
100
AcDbCircle
 10
904.821147
 20
815.40561
 40
22.301322
100
AcDbArc
 50
347.044045
 51
372.955955
  0
ARC
  5
271
100
AcDbEntity
  8
M1
  6
CONTINUOUS
370
25
100
AcDbCircle
 10
922.884865
 20
808.286808
 40
4.237604
100
AcDbArc
 50
329.999999
 51
390.000001
  0
LINE
  5
272
100
AcDbEntity
  8
M1
  6
CONTINUOUS
370
25
100
AcDbLine
 10
927.122469
 20
822.524412
 11
927.122469
 21
808.286808
  0
LINE
  5
273
100
AcDbEntity
  8
M1
  6
CONTINUOUS
370
25
100
AcDbLine
 10
920.722469
 20
824.643216
 11
926.554737
 21
824.643216
  0
LINE
  5
274
100
AcDbEntity
  8
M1
  6
CONTINUOUS
370
25
100
AcDbLine
 10
926.554737
 20
806.168006
 11
920.722469
 21
806.168006
  0
LINE
  5
275
100
AcDbEntity
  8
M1
  6
CONTINUOUS
370
25
100
AcDbLine
 10
920.722469
 20
815.40561
 11
918.222469
 21
812.855534
  0
LINE
  5
276
100
AcDbEntity
  8
M1
  6
CONTINUOUS
370
25
100
AcDbLine
 10
918.222469
 20
815.40561
 11
920.722469
 21
818.022184
  0
LINE
  5
277
100
AcDbEntity
  8
M1
  6
CONTINUOUS
370
25
100
AcDbLine
 10
918.222469
 20
652.592834
 11
920.722469
 21
655.209408
  0
LINE
  5
278
100
AcDbEntity
  8
M1
  6
CONTINUOUS
370
25
100
AcDbLine
 10
920.722469
 20
652.592834
 11
918.222469
 21
650.042758
  0
LINE
  5
279
100
AcDbEntity
  8
M1
  6
CONTINUOUS
370
25
100
AcDbLine
 10
926.554737
 20
643.35523
 11
920.722469
 21
643.35523
  0
LINE
  5
27A
100
AcDbEntity
  8
M1
  6
CONTINUOUS
370
25
100
AcDbLine
 10
920.722469
 20
661.83044
 11
926.554737
 21
661.83044
  0
LINE
  5
27B
100
AcDbEntity
  8
M1
  6
CONTINUOUS
370
25
100
AcDbLine
 10
927.122469
 20
659.711636
 11
927.122469
 21
645.474032
  0
ARC
  5
27C
100
AcDbEntity
  8
M1
  6
CONTINUOUS
370
25
100
AcDbCircle
 10
922.884865
 20
645.474032
 40
4.237604
100
AcDbArc
 50
329.999999
 51
390.000001
  0
ARC
  5
27D
100
AcDbEntity
  8
M1
  6
CONTINUOUS
370
25
100
AcDbCircle
 10
904.821147
 20
652.592834
 40
22.301322
100
AcDbArc
 50
347.044045
 51
372.955955
  0
ARC
  5
27E
100
AcDbEntity
  8
M1
  6
CONTINUOUS
370
25
100
AcDbCircle
 10
922.884865
 20
659.711636
 40
4.237604
100
AcDbArc
 50
329.999999
 51
390.000001
  0
LINE
  5
27F
100
AcDbEntity
  8
M1
  6
CONTINUOUS
370
25
100
AcDbLine
 10
920.722469
 20
661.792834
 11
918.222469
 21
661.792834
  0
LINE
  5
280
100
AcDbEntity
  8
M1
  6
CONTINUOUS
370
25
100
AcDbLine
 10
920.722469
 20
643.392834
 11
918.222469
 21
643.392834
  0
LINE
  5
281
100
AcDbEntity
  8
M1
  6
CONTINUOUS
370
25
100
AcDbLine
 10
920.722469
 20
661.83044
 11
920.722469
 21
643.35523
  0
LINE
  5
282
100
AcDbEntity
  8
M1
  6
CONTINUOUS
370
25
100
AcDbLine
 10
920.722469
 20
499.017664
 11
920.722469
 21
480.542454
  0
LINE
  5
283
100
AcDbEntity
  8
M1
  6
CONTINUOUS
370
25
100
AcDbLine
 10
920.722469
 20
480.580058
 11
918.222469
 21
480.580058
  0
LINE
  5
284
100
AcDbEntity
  8
M1
  6
CONTINUOUS
370
25
100
AcDbLine
 10
920.722469
 20
498.980058
 11
918.222469
 21
498.980058
  0
ARC
  5
285
100
AcDbEntity
  8
M1
  6
CONTINUOUS
370
25
100
AcDbCircle
 10
922.884865
 20
496.898862
 40
4.237604
100
AcDbArc
 50
329.999999
 51
390.000001
  0
ARC
  5
286
100
AcDbEntity
  8
M1
  6
CONTINUOUS
370
25
100
AcDbCircle
 10
904.821147
 20
489.780058
 40
22.301322
100
AcDbArc
 50
347.044045
 51
372.955955
  0
ARC
  5
287
100
AcDbEntity
  8
M1
  6
CONTINUOUS
370
25
100
AcDbCircle
 10
922.884865
 20
482.661256
 40
4.237604
100
AcDbArc
 50
329.999999
 51
390.000001
  0
LINE
  5
288
100
AcDbEntity
  8
M1
  6
CONTINUOUS
370
25
100
AcDbLine
 10
927.122469
 20
496.898862
 11
927.122469
 21
482.661256
  0
LINE
  5
289
100
AcDbEntity
  8
M1
  6
CONTINUOUS
370
25
100
AcDbLine
 10
920.722469
 20
499.017664
 11
926.554737
 21
499.017664
  0
LINE
  5
28A
100
AcDbEntity
  8
M1
  6
CONTINUOUS
370
25
100
AcDbLine
 10
926.554737
 20
480.542454
 11
920.722469
 21
480.542454
  0
LINE
  5
28B
100
AcDbEntity
  8
M1
  6
CONTINUOUS
370
25
100
AcDbLine
 10
920.722469
 20
489.780058
 11
918.222469
 21
487.229984
  0
LINE
  5
28C
100
AcDbEntity
  8
M1
  6
CONTINUOUS
370
25
100
AcDbLine
 10
918.222469
 20
489.780058
 11
920.722469
 21
492.396632
  0
CIRCLE
  5
28D
100
AcDbEntity
  8
M1
  6
CONTINUOUS
370
25
100
AcDbCircle
 10
313.195551
 20
652.592834
 40
142.500038
  0
ARC
  5
28E
100
AcDbEntity
  8
M1
  6
CONTINUOUS
370
25
100
AcDbCircle
 10
883.722469
 20
868.092834
 40
7.0
100
AcDbArc
 50
0.0
 51
90.0
  0
ARC
  5
28F
100
AcDbEntity
  8
M1
  6
CONTINUOUS
370
25
100
AcDbCircle
 10
851.722469
 20
868.092834
 40
7.0
100
AcDbArc
 50
90.0
 51
180.0
  0
TEXT
  5
290
100
AcDbEntity
  8
M1
100
AcDbText
 10
1303.614863
 20
240.68683
 40
18.0
  1
ＰＯＢ－４０
 41
1.052632
  7
STANDARD
100
AcDbText
  0
TEXT
  5
291
100
AcDbEntity
  8
M1
100
AcDbText
 10
1295.997675
 20
204.247591
 40
16.0
  1
（ＳＤＫ６１１８）
 41
1.0
  7
STANDARD
100
AcDbText
  0
LINE
  5
292
100
AcDbEntity
  8
M1
  6
CONTINUOUS
370
25
100
AcDbLine
 10
785.348261
 20
736.592834
 11
785.060785
 21
735.768066
  0
LINE
  5
293
100
AcDbEntity
  8
M1
  6
CONTINUOUS
370
25
100
AcDbLine
 10
785.060785
 20
735.768066
 11
784.812373
 21
734.928284
  0
LINE
  5
294
100
AcDbEntity
  8
M1
  6
CONTINUOUS
370
25
100
AcDbLine
 10
784.812373
 20
734.928284
 11
784.605097
 21
734.07617
  0
LINE
  5
295
100
AcDbEntity
  8
M1
  6
CONTINUOUS
370
25
100
AcDbLine
 10
784.605097
 20
734.07617
 11
784.440547
 21
733.21405
  0
LINE
  5
296
100
AcDbEntity
  8
M1
  6
CONTINUOUS
370
25
100
AcDbLine
 10
784.440547
 20
733.21405
 11
784.320673
 21
732.34442
  0
LINE
  5
297
100
AcDbEntity
  8
M1
  6
CONTINUOUS
370
25
100
AcDbLine
 10
784.320673
 20
732.34442
 11
784.247309
 21
731.469908
  0
LINE
  5
298
100
AcDbEntity
  8
M1
  6
CONTINUOUS
370
25
100
AcDbLine
 10
784.247309
 20
731.469908
 11
784.222529
 21
730.592834
  0
LINE
  5
299
100
AcDbEntity
  8
M1
  6
CONTINUOUS
370
25
100
AcDbLine
 10
784.222529
 20
730.592834
 11
784.247309
 21
729.715758
  0
LINE
  5
29A
100
AcDbEntity
  8
M1
  6
CONTINUOUS
370
25
100
AcDbLine
 10
784.247309
 20
729.715758
 11
784.320673
 21
728.841248
  0
LINE
  5
29B
100
AcDbEntity
  8
M1
  6
CONTINUOUS
370
25
100
AcDbLine
 10
784.320673
 20
728.841248
 11
784.440547
 21
727.971618
  0
LINE
  5
29C
100
AcDbEntity
  8
M1
  6
CONTINUOUS
370
25
100
AcDbLine
 10
784.440547
 20
727.971618
 11
784.605097
 21
727.109496
  0
LINE
  5
29D
100
AcDbEntity
  8
M1
  6
CONTINUOUS
370
25
100
AcDbLine
 10
784.605097
 20
727.109496
 11
784.812373
 21
726.257384
  0
LINE
  5
29E
100
AcDbEntity
  8
M1
  6
CONTINUOUS
370
25
100
AcDbLine
 10
784.812373
 20
726.257384
 11
785.060785
 21
725.417602
  0
LINE
  5
29F
100
AcDbEntity
  8
M1
  6
CONTINUOUS
370
25
100
AcDbLine
 10
785.060785
 20
725.417602
 11
785.348261
 21
724.592834
  0
LINE
  5
2A0
100
AcDbEntity
  8
M1
  6
CONTINUOUS
370
25
100
AcDbLine
 10
785.348261
 20
814.592834
 11
785.060785
 21
813.768066
  0
LINE
  5
2A1
100
AcDbEntity
  8
M1
  6
CONTINUOUS
370
25
100
AcDbLine
 10
785.060785
 20
813.768066
 11
784.812373
 21
812.928284
  0
LINE
  5
2A2
100
AcDbEntity
  8
M1
  6
CONTINUOUS
370
25
100
AcDbLine
 10
784.812373
 20
812.928284
 11
784.605097
 21
812.07617
  0
LINE
  5
2A3
100
AcDbEntity
  8
M1
  6
CONTINUOUS
370
25
100
AcDbLine
 10
784.605097
 20
812.07617
 11
784.440547
 21
811.21405
  0
LINE
  5
2A4
100
AcDbEntity
  8
M1
  6
CONTINUOUS
370
25
100
AcDbLine
 10
784.440547
 20
811.21405
 11
784.320673
 21
810.34442
  0
LINE
  5
2A5
100
AcDbEntity
  8
M1
  6
CONTINUOUS
370
25
100
AcDbLine
 10
784.320673
 20
810.34442
 11
784.247309
 21
809.469908
  0
LINE
  5
2A6
100
AcDbEntity
  8
M1
  6
CONTINUOUS
370
25
100
AcDbLine
 10
784.247309
 20
809.469908
 11
784.222529
 21
808.592834
  0
LINE
  5
2A7
100
AcDbEntity
  8
M1
  6
CONTINUOUS
370
25
100
AcDbLine
 10
784.222529
 20
808.592834
 11
784.247309
 21
807.715758
  0
LINE
  5
2A8
100
AcDbEntity
  8
M1
  6
CONTINUOUS
370
25
100
AcDbLine
 10
784.247309
 20
807.715758
 11
784.320673
 21
806.841248
  0
LINE
  5
2A9
100
AcDbEntity
  8
M1
  6
CONTINUOUS
370
25
100
AcDbLine
 10
784.320673
 20
806.841248
 11
784.440547
 21
805.971618
  0
LINE
  5
2AA
100
AcDbEntity
  8
M1
  6
CONTINUOUS
370
25
100
AcDbLine
 10
784.440547
 20
805.971618
 11
784.605097
 21
805.109496
  0
LINE
  5
2AB
100
AcDbEntity
  8
M1
  6
CONTINUOUS
370
25
100
AcDbLine
 10
784.605097
 20
805.109496
 11
784.812373
 21
804.257384
  0
LINE
  5
2AC
100
AcDbEntity
  8
M1
  6
CONTINUOUS
370
25
100
AcDbLine
 10
784.812373
 20
804.257384
 11
785.060785
 21
803.417602
  0
LINE
  5
2AD
100
AcDbEntity
  8
M1
  6
CONTINUOUS
370
25
100
AcDbLine
 10
785.060785
 20
803.417602
 11
785.348261
 21
802.592834
  0
LINE
  5
2AE
100
AcDbEntity
  8
M1
  6
CONTINUOUS
370
25
100
AcDbLine
 10
785.348261
 20
490.592834
 11
785.060785
 21
491.417634
  0
LINE
  5
2AF
100
AcDbEntity
  8
M1
  6
CONTINUOUS
370
25
100
AcDbLine
 10
785.060785
 20
491.417634
 11
784.812373
 21
492.257354
  0
LINE
  5
2B0
100
AcDbEntity
  8
M1
  6
CONTINUOUS
370
25
100
AcDbLine
 10
784.812373
 20
492.257354
 11
784.605097
 21
493.109528
  0
LINE
  5
2B1
100
AcDbEntity
  8
M1
  6
CONTINUOUS
370
25
100
AcDbLine
 10
784.605097
 20
493.109528
 11
784.440547
 21
493.97165
  0
LINE
  5
2B2
100
AcDbEntity
  8
M1
  6
CONTINUOUS
370
25
100
AcDbLine
 10
784.440547
 20
493.97165
 11
784.320673
 21
494.841218
  0
LINE
  5
2B3
100
AcDbEntity
  8
M1
  6
CONTINUOUS
370
25
100
AcDbLine
 10
784.320673
 20
494.841218
 11
784.247309
 21
495.71579
  0
LINE
  5
2B4
100
AcDbEntity
  8
M1
  6
CONTINUOUS
370
25
100
AcDbLine
 10
784.247309
 20
495.71579
 11
784.222529
 21
496.592834
  0
LINE
  5
2B5
100
AcDbEntity
  8
M1
  6
CONTINUOUS
370
25
100
AcDbLine
 10
784.222529
 20
496.592834
 11
784.247309
 21
497.46988
  0
LINE
  5
2B6
100
AcDbEntity
  8
M1
  6
CONTINUOUS
370
25
100
AcDbLine
 10
784.247309
 20
497.46988
 11
784.320673
 21
498.344452
  0
LINE
  5
2B7
100
AcDbEntity
  8
M1
  6
CONTINUOUS
370
25
100
AcDbLine
 10
784.320673
 20
498.344452
 11
784.440547
 21
499.21402
  0
LINE
  5
2B8
100
AcDbEntity
  8
M1
  6
CONTINUOUS
370
25
100
AcDbLine
 10
784.440547
 20
499.21402
 11
784.605097
 21
500.076142
  0
LINE
  5
2B9
100
AcDbEntity
  8
M1
  6
CONTINUOUS
370
25
100
AcDbLine
 10
784.605097
 20
500.076142
 11
784.812373
 21
500.928314
  0
LINE
  5
2BA
100
AcDbEntity
  8
M1
  6
CONTINUOUS
370
25
100
AcDbLine
 10
784.812373
 20
500.928314
 11
785.060785
 21
501.768036
  0
LINE
  5
2BB
100
AcDbEntity
  8
M1
  6
CONTINUOUS
370
25
100
AcDbLine
 10
785.060785
 20
501.768036
 11
785.348261
 21
502.592834
  0
LINE
  5
2BC
100
AcDbEntity
  8
M1
  6
CONTINUOUS
370
25
100
AcDbLine
 10
785.348261
 20
568.592834
 11
785.060785
 21
569.417632
  0
LINE
  5
2BD
100
AcDbEntity
  8
M1
  6
CONTINUOUS
370
25
100
AcDbLine
 10
785.060785
 20
569.417632
 11
784.812373
 21
570.257354
  0
LINE
  5
2BE
100
AcDbEntity
  8
M1
  6
CONTINUOUS
370
25
100
AcDbLine
 10
784.812373
 20
570.257354
 11
784.605097
 21
571.109528
  0
LINE
  5
2BF
100
AcDbEntity
  8
M1
  6
CONTINUOUS
370
25
100
AcDbLine
 10
784.605097
 20
571.109528
 11
784.440547
 21
571.97165
  0
LINE
  5
2C0
100
AcDbEntity
  8
M1
  6
CONTINUOUS
370
25
100
AcDbLine
 10
784.440547
 20
571.97165
 11
784.320673
 21
572.841216
  0
LINE
  5
2C1
100
AcDbEntity
  8
M1
  6
CONTINUOUS
370
25
100
AcDbLine
 10
784.320673
 20
572.841216
 11
784.247309
 21
573.71579
  0
LINE
  5
2C2
100
AcDbEntity
  8
M1
  6
CONTINUOUS
370
25
100
AcDbLine
 10
784.247309
 20
573.71579
 11
784.222529
 21
574.592834
  0
LINE
  5
2C3
100
AcDbEntity
  8
M1
  6
CONTINUOUS
370
25
100
AcDbLine
 10
784.222529
 20
574.592834
 11
784.247309
 21
575.46988
  0
LINE
  5
2C4
100
AcDbEntity
  8
M1
  6
CONTINUOUS
370
25
100
AcDbLine
 10
784.247309
 20
575.46988
 11
784.320673
 21
576.34445
  0
LINE
  5
2C5
100
AcDbEntity
  8
M1
  6
CONTINUOUS
370
25
100
AcDbLine
 10
784.320673
 20
576.34445
 11
784.440547
 21
577.214018
  0
LINE
  5
2C6
100
AcDbEntity
  8
M1
  6
CONTINUOUS
370
25
100
AcDbLine
 10
784.440547
 20
577.214018
 11
784.605097
 21
578.07614
  0
LINE
  5
2C7
100
AcDbEntity
  8
M1
  6
CONTINUOUS
370
25
100
AcDbLine
 10
784.605097
 20
578.07614
 11
784.812373
 21
578.928314
  0
LINE
  5
2C8
100
AcDbEntity
  8
M1
  6
CONTINUOUS
370
25
100
AcDbLine
 10
784.812373
 20
578.928314
 11
785.060785
 21
579.768036
  0
LINE
  5
2C9
100
AcDbEntity
  8
M1
  6
CONTINUOUS
370
25
100
AcDbLine
 10
785.060785
 20
579.768036
 11
785.348261
 21
580.592834
  0
LINE
  5
2CA
100
AcDbEntity
  8
M1
  6
CONTINUOUS
370
25
100
AcDbLine
 10
950.096675
 20
490.592834
 11
950.384151
 21
491.417634
  0
LINE
  5
2CB
100
AcDbEntity
  8
M1
  6
CONTINUOUS
370
25
100
AcDbLine
 10
950.384151
 20
491.417634
 11
950.632503
 21
492.257354
  0
LINE
  5
2CC
100
AcDbEntity
  8
M1
  6
CONTINUOUS
370
25
100
AcDbLine
 10
950.632503
 20
492.257354
 11
950.839899
 21
493.109528
  0
LINE
  5
2CD
100
AcDbEntity
  8
M1
  6
CONTINUOUS
370
25
100
AcDbLine
 10
950.839899
 20
493.109528
 11
951.004511
 21
493.97165
  0
LINE
  5
2CE
100
AcDbEntity
  8
M1
  6
CONTINUOUS
370
25
100
AcDbLine
 10
951.004511
 20
493.97165
 11
951.124323
 21
494.841218
  0
LINE
  5
2CF
100
AcDbEntity
  8
M1
  6
CONTINUOUS
370
25
100
AcDbLine
 10
951.124323
 20
494.841218
 11
951.197627
 21
495.71579
  0
LINE
  5
2D0
100
AcDbEntity
  8
M1
  6
CONTINUOUS
370
25
100
AcDbLine
 10
951.197627
 20
495.71579
 11
951.222469
 21
496.592834
  0
LINE
  5
2D1
100
AcDbEntity
  8
M1
  6
CONTINUOUS
370
25
100
AcDbLine
 10
951.222469
 20
496.592834
 11
951.197627
 21
497.46988
  0
LINE
  5
2D2
100
AcDbEntity
  8
M1
  6
CONTINUOUS
370
25
100
AcDbLine
 10
951.197627
 20
497.46988
 11
951.124323
 21
498.344452
  0
LINE
  5
2D3
100
AcDbEntity
  8
M1
  6
CONTINUOUS
370
25
100
AcDbLine
 10
951.124323
 20
498.344452
 11
951.004511
 21
499.21402
  0
LINE
  5
2D4
100
AcDbEntity
  8
M1
  6
CONTINUOUS
370
25
100
AcDbLine
 10
951.004511
 20
499.21402
 11
950.839899
 21
500.076142
  0
LINE
  5
2D5
100
AcDbEntity
  8
M1
  6
CONTINUOUS
370
25
100
AcDbLine
 10
950.839899
 20
500.076142
 11
950.632503
 21
500.928314
  0
LINE
  5
2D6
100
AcDbEntity
  8
M1
  6
CONTINUOUS
370
25
100
AcDbLine
 10
950.632503
 20
500.928314
 11
950.384151
 21
501.768036
  0
LINE
  5
2D7
100
AcDbEntity
  8
M1
  6
CONTINUOUS
370
25
100
AcDbLine
 10
950.384151
 20
501.768036
 11
950.096675
 21
502.592834
  0
LINE
  5
2D8
100
AcDbEntity
  8
M1
  6
CONTINUOUS
370
25
100
AcDbLine
 10
950.096675
 20
568.592834
 11
950.384151
 21
569.417632
  0
LINE
  5
2D9
100
AcDbEntity
  8
M1
  6
CONTINUOUS
370
25
100
AcDbLine
 10
950.384151
 20
569.417632
 11
950.632503
 21
570.257354
  0
LINE
  5
2DA
100
AcDbEntity
  8
M1
  6
CONTINUOUS
370
25
100
AcDbLine
 10
950.632503
 20
570.257354
 11
950.839899
 21
571.109528
  0
LINE
  5
2DB
100
AcDbEntity
  8
M1
  6
CONTINUOUS
370
25
100
AcDbLine
 10
950.839899
 20
571.109528
 11
951.004511
 21
571.97165
  0
LINE
  5
2DC
100
AcDbEntity
  8
M1
  6
CONTINUOUS
370
25
100
AcDbLine
 10
951.004511
 20
571.97165
 11
951.124323
 21
572.841216
  0
LINE
  5
2DD
100
AcDbEntity
  8
M1
  6
CONTINUOUS
370
25
100
AcDbLine
 10
951.124323
 20
572.841216
 11
951.197627
 21
573.71579
  0
LINE
  5
2DE
100
AcDbEntity
  8
M1
  6
CONTINUOUS
370
25
100
AcDbLine
 10
951.197627
 20
573.71579
 11
951.222469
 21
574.592834
  0
LINE
  5
2DF
100
AcDbEntity
  8
M1
  6
CONTINUOUS
370
25
100
AcDbLine
 10
951.222469
 20
574.592834
 11
951.197627
 21
575.46988
  0
LINE
  5
2E0
100
AcDbEntity
  8
M1
  6
CONTINUOUS
370
25
100
AcDbLine
 10
951.197627
 20
575.46988
 11
951.124323
 21
576.34445
  0
LINE
  5
2E1
100
AcDbEntity
  8
M1
  6
CONTINUOUS
370
25
100
AcDbLine
 10
951.124323
 20
576.34445
 11
951.004511
 21
577.214018
  0
LINE
  5
2E2
100
AcDbEntity
  8
M1
  6
CONTINUOUS
370
25
100
AcDbLine
 10
951.004511
 20
577.214018
 11
950.839899
 21
578.07614
  0
LINE
  5
2E3
100
AcDbEntity
  8
M1
  6
CONTINUOUS
370
25
100
AcDbLine
 10
950.839899
 20
578.07614
 11
950.632503
 21
578.928314
  0
LINE
  5
2E4
100
AcDbEntity
  8
M1
  6
CONTINUOUS
370
25
100
AcDbLine
 10
950.632503
 20
578.928314
 11
950.384151
 21
579.768036
  0
LINE
  5
2E5
100
AcDbEntity
  8
M1
  6
CONTINUOUS
370
25
100
AcDbLine
 10
950.384151
 20
579.768036
 11
950.096675
 21
580.592834
  0
LINE
  5
2E6
100
AcDbEntity
  8
M1
  6
CONTINUOUS
370
25
100
AcDbLine
 10
950.096675
 20
814.592834
 11
950.384151
 21
813.768066
  0
LINE
  5
2E7
100
AcDbEntity
  8
M1
  6
CONTINUOUS
370
25
100
AcDbLine
 10
950.384151
 20
813.768066
 11
950.632503
 21
812.928284
  0
LINE
  5
2E8
100
AcDbEntity
  8
M1
  6
CONTINUOUS
370
25
100
AcDbLine
 10
950.632503
 20
812.928284
 11
950.839899
 21
812.07617
  0
LINE
  5
2E9
100
AcDbEntity
  8
M1
  6
CONTINUOUS
370
25
100
AcDbLine
 10
950.839899
 20
812.07617
 11
951.004511
 21
811.21405
  0
LINE
  5
2EA
100
AcDbEntity
  8
M1
  6
CONTINUOUS
370
25
100
AcDbLine
 10
951.004511
 20
811.21405
 11
951.124323
 21
810.34442
  0
LINE
  5
2EB
100
AcDbEntity
  8
M1
  6
CONTINUOUS
370
25
100
AcDbLine
 10
951.124323
 20
810.34442
 11
951.197627
 21
809.469908
  0
LINE
  5
2EC
100
AcDbEntity
  8
M1
  6
CONTINUOUS
370
25
100
AcDbLine
 10
951.197627
 20
809.469908
 11
951.222469
 21
808.592834
  0
LINE
  5
2ED
100
AcDbEntity
  8
M1
  6
CONTINUOUS
370
25
100
AcDbLine
 10
951.222469
 20
808.592834
 11
951.197627
 21
807.715758
  0
LINE
  5
2EE
100
AcDbEntity
  8
M1
  6
CONTINUOUS
370
25
100
AcDbLine
 10
951.197627
 20
807.715758
 11
951.124323
 21
806.841248
  0
LINE
  5
2EF
100
AcDbEntity
  8
M1
  6
CONTINUOUS
370
25
100
AcDbLine
 10
951.124323
 20
806.841248
 11
951.004511
 21
805.971618
  0
LINE
  5
2F0
100
AcDbEntity
  8
M1
  6
CONTINUOUS
370
25
100
AcDbLine
 10
951.004511
 20
805.971618
 11
950.839899
 21
805.109496
  0
LINE
  5
2F1
100
AcDbEntity
  8
M1
  6
CONTINUOUS
370
25
100
AcDbLine
 10
950.839899
 20
805.109496
 11
950.632503
 21
804.257384
  0
LINE
  5
2F2
100
AcDbEntity
  8
M1
  6
CONTINUOUS
370
25
100
AcDbLine
 10
950.632503
 20
804.257384
 11
950.384151
 21
803.417602
  0
LINE
  5
2F3
100
AcDbEntity
  8
M1
  6
CONTINUOUS
370
25
100
AcDbLine
 10
950.384151
 20
803.417602
 11
950.096675
 21
802.592834
  0
LINE
  5
2F4
100
AcDbEntity
  8
M1
  6
CONTINUOUS
370
25
100
AcDbLine
 10
950.096675
 20
736.592834
 11
950.384151
 21
735.768066
  0
LINE
  5
2F5
100
AcDbEntity
  8
M1
  6
CONTINUOUS
370
25
100
AcDbLine
 10
950.384151
 20
735.768066
 11
950.632503
 21
734.928284
  0
LINE
  5
2F6
100
AcDbEntity
  8
M1
  6
CONTINUOUS
370
25
100
AcDbLine
 10
950.632503
 20
734.928284
 11
950.839899
 21
734.07617
  0
LINE
  5
2F7
100
AcDbEntity
  8
M1
  6
CONTINUOUS
370
25
100
AcDbLine
 10
950.839899
 20
734.07617
 11
951.004511
 21
733.21405
  0
LINE
  5
2F8
100
AcDbEntity
  8
M1
  6
CONTINUOUS
370
25
100
AcDbLine
 10
951.004511
 20
733.21405
 11
951.124323
 21
732.34442
  0
LINE
  5
2F9
100
AcDbEntity
  8
M1
  6
CONTINUOUS
370
25
100
AcDbLine
 10
951.124323
 20
732.34442
 11
951.197627
 21
731.469908
  0
LINE
  5
2FA
100
AcDbEntity
  8
M1
  6
CONTINUOUS
370
25
100
AcDbLine
 10
951.197627
 20
731.469908
 11
951.222469
 21
730.592834
  0
LINE
  5
2FB
100
AcDbEntity
  8
M1
  6
CONTINUOUS
370
25
100
AcDbLine
 10
951.222469
 20
730.592834
 11
951.197627
 21
729.715758
  0
LINE
  5
2FC
100
AcDbEntity
  8
M1
  6
CONTINUOUS
370
25
100
AcDbLine
 10
951.197627
 20
729.715758
 11
951.124323
 21
728.841248
  0
LINE
  5
2FD
100
AcDbEntity
  8
M1
  6
CONTINUOUS
370
25
100
AcDbLine
 10
951.124323
 20
728.841248
 11
951.004511
 21
727.971618
  0
LINE
  5
2FE
100
AcDbEntity
  8
M1
  6
CONTINUOUS
370
25
100
AcDbLine
 10
951.004511
 20
727.971618
 11
950.839899
 21
727.109496
  0
LINE
  5
2FF
100
AcDbEntity
  8
M1
  6
CONTINUOUS
370
25
100
AcDbLine
 10
950.839899
 20
727.109496
 11
950.632503
 21
726.257384
  0
LINE
  5
300
100
AcDbEntity
  8
M1
  6
CONTINUOUS
370
25
100
AcDbLine
 10
950.632503
 20
726.257384
 11
950.384151
 21
725.417602
  0
LINE
  5
301
100
AcDbEntity
  8
M1
  6
CONTINUOUS
370
25
100
AcDbLine
 10
950.384151
 20
725.417602
 11
950.096675
 21
724.592834
  0
LINE
  5
302
100
AcDbEntity
  8
M1
  6
CONTINUOUS
370
25
100
AcDbLine
 10
954.705867
 20
662.592834
 11
954.977657
 21
661.71228
  0
LINE
  5
303
100
AcDbEntity
  8
M1
  6
CONTINUOUS
370
25
100
AcDbLine
 10
954.977657
 20
661.71228
 11
955.226069
 21
660.823548
  0
LINE
  5
304
100
AcDbEntity
  8
M1
  6
CONTINUOUS
370
25
100
AcDbLine
 10
955.226069
 20
660.823548
 11
955.450557
 21
659.92749
  0
LINE
  5
305
100
AcDbEntity
  8
M1
  6
CONTINUOUS
370
25
100
AcDbLine
 10
955.450557
 20
659.92749
 11
955.650569
 21
659.024902
  0
LINE
  5
306
100
AcDbEntity
  8
M1
  6
CONTINUOUS
370
25
100
AcDbLine
 10
955.650569
 20
659.024902
 11
955.825679
 21
658.116638
  0
LINE
  5
307
100
AcDbEntity
  8
M1
  6
CONTINUOUS
370
25
100
AcDbLine
 10
955.825679
 20
658.116638
 11
955.975275
 21
657.20343
  0
LINE
  5
308
100
AcDbEntity
  8
M1
  6
CONTINUOUS
370
25
100
AcDbLine
 10
955.975275
 20
657.20343
 11
956.098871
 21
656.286192
  0
LINE
  5
309
100
AcDbEntity
  8
M1
  6
CONTINUOUS
370
25
100
AcDbLine
 10
956.098871
 20
656.286192
 11
956.195857
 21
655.365722
  0
LINE
  5
30A
100
AcDbEntity
  8
M1
  6
CONTINUOUS
370
25
100
AcDbLine
 10
956.195857
 20
655.365722
 11
956.265865
 21
654.44281
  0
LINE
  5
30B
100
AcDbEntity
  8
M1
  6
CONTINUOUS
370
25
100
AcDbLine
 10
956.265865
 20
654.44281
 11
956.308223
 21
653.518188
  0
LINE
  5
30C
100
AcDbEntity
  8
M1
  6
CONTINUOUS
370
25
100
AcDbLine
 10
956.308223
 20
653.518188
 11
956.322443
 21
652.592834
  0
LINE
  5
30D
100
AcDbEntity
  8
M1
  6
CONTINUOUS
370
25
100
AcDbLine
 10
956.322443
 20
652.592834
 11
956.308223
 21
651.66748
  0
LINE
  5
30E
100
AcDbEntity
  8
M1
  6
CONTINUOUS
370
25
100
AcDbLine
 10
956.308223
 20
651.66748
 11
956.265865
 21
650.742858
  0
LINE
  5
30F
100
AcDbEntity
  8
M1
  6
CONTINUOUS
370
25
100
AcDbLine
 10
956.265865
 20
650.742858
 11
956.195857
 21
649.819946
  0
LINE
  5
310
100
AcDbEntity
  8
M1
  6
CONTINUOUS
370
25
100
AcDbLine
 10
956.195857
 20
649.819946
 11
956.098871
 21
648.899476
  0
LINE
  5
311
100
AcDbEntity
  8
M1
  6
CONTINUOUS
370
25
100
AcDbLine
 10
956.098871
 20
648.899476
 11
955.975275
 21
647.982238
  0
LINE
  5
312
100
AcDbEntity
  8
M1
  6
CONTINUOUS
370
25
100
AcDbLine
 10
955.975275
 20
647.982238
 11
955.825679
 21
647.06903
  0
LINE
  5
313
100
AcDbEntity
  8
M1
  6
CONTINUOUS
370
25
100
AcDbLine
 10
955.825679
 20
647.06903
 11
955.650569
 21
646.160766
  0
LINE
  5
314
100
AcDbEntity
  8
M1
  6
CONTINUOUS
370
25
100
AcDbLine
 10
955.650569
 20
646.160766
 11
955.450557
 21
645.258178
  0
LINE
  5
315
100
AcDbEntity
  8
M1
  6
CONTINUOUS
370
25
100
AcDbLine
 10
955.450557
 20
645.258178
 11
955.226069
 21
644.36212
  0
LINE
  5
316
100
AcDbEntity
  8
M1
  6
CONTINUOUS
370
25
100
AcDbLine
 10
955.226069
 20
644.36212
 11
954.977657
 21
643.473388
  0
LINE
  5
317
100
AcDbEntity
  8
M1
  6
CONTINUOUS
370
25
100
AcDbLine
 10
954.977657
 20
643.473388
 11
954.705867
 21
642.592834
  0
LINE
  5
318
100
AcDbEntity
  8
M1
  6
CONTINUOUS
370
25
100
AcDbLine
 10
954.705867
 20
597.592834
 11
954.977657
 21
598.473418
  0
LINE
  5
319
100
AcDbEntity
  8
M1
  6
CONTINUOUS
370
25
100
AcDbLine
 10
954.977657
 20
598.473418
 11
955.226069
 21
599.362152
  0
LINE
  5
31A
100
AcDbEntity
  8
M1
  6
CONTINUOUS
370
25
100
AcDbLine
 10
955.226069
 20
599.362152
 11
955.450557
 21
600.25821
  0
LINE
  5
31B
100
AcDbEntity
  8
M1
  6
CONTINUOUS
370
25
100
AcDbLine
 10
955.450557
 20
600.25821
 11
955.650569
 21
601.160766
  0
LINE
  5
31C
100
AcDbEntity
  8
M1
  6
CONTINUOUS
370
25
100
AcDbLine
 10
955.650569
 20
601.160766
 11
955.825679
 21
602.06903
  0
LINE
  5
31D
100
AcDbEntity
  8
M1
  6
CONTINUOUS
370
25
100
AcDbLine
 10
955.825679
 20
602.06903
 11
955.975275
 21
602.982208
  0
LINE
  5
31E
100
AcDbEntity
  8
M1
  6
CONTINUOUS
370
25
100
AcDbLine
 10
955.975275
 20
602.982208
 11
956.098871
 21
603.899444
  0
LINE
  5
31F
100
AcDbEntity
  8
M1
  6
CONTINUOUS
370
25
100
AcDbLine
 10
956.098871
 20
603.899444
 11
956.195857
 21
604.819946
  0
LINE
  5
320
100
AcDbEntity
  8
M1
  6
CONTINUOUS
370
25
100
AcDbLine
 10
956.195857
 20
604.819946
 11
956.265865
 21
605.74289
  0
LINE
  5
321
100
AcDbEntity
  8
M1
  6
CONTINUOUS
370
25
100
AcDbLine
 10
956.265865
 20
605.74289
 11
956.308223
 21
606.66745
  0
LINE
  5
322
100
AcDbEntity
  8
M1
  6
CONTINUOUS
370
25
100
AcDbLine
 10
956.308223
 20
606.66745
 11
956.322443
 21
607.592834
  0
LINE
  5
323
100
AcDbEntity
  8
M1
  6
CONTINUOUS
370
25
100
AcDbLine
 10
956.322443
 20
607.592834
 11
956.308223
 21
608.518218
  0
LINE
  5
324
100
AcDbEntity
  8
M1
  6
CONTINUOUS
370
25
100
AcDbLine
 10
956.308223
 20
608.518218
 11
956.265865
 21
609.44278
  0
LINE
  5
325
100
AcDbEntity
  8
M1
  6
CONTINUOUS
370
25
100
AcDbLine
 10
956.265865
 20
609.44278
 11
956.195857
 21
610.365722
  0
LINE
  5
326
100
AcDbEntity
  8
M1
  6
CONTINUOUS
370
25
100
AcDbLine
 10
956.195857
 20
610.365722
 11
956.098871
 21
611.286224
  0
LINE
  5
327
100
AcDbEntity
  8
M1
  6
CONTINUOUS
370
25
100
AcDbLine
 10
956.098871
 20
611.286224
 11
955.975275
 21
612.20346
  0
LINE
  5
328
100
AcDbEntity
  8
M1
  6
CONTINUOUS
370
25
100
AcDbLine
 10
955.975275
 20
612.20346
 11
955.825679
 21
613.116638
  0
LINE
  5
329
100
AcDbEntity
  8
M1
  6
CONTINUOUS
370
25
100
AcDbLine
 10
955.825679
 20
613.116638
 11
955.650569
 21
614.024902
  0
LINE
  5
32A
100
AcDbEntity
  8
M1
  6
CONTINUOUS
370
25
100
AcDbLine
 10
955.650569
 20
614.024902
 11
955.450557
 21
614.927458
  0
LINE
  5
32B
100
AcDbEntity
  8
M1
  6
CONTINUOUS
370
25
100
AcDbLine
 10
955.450557
 20
614.927458
 11
955.226069
 21
615.823516
  0
LINE
  5
32C
100
AcDbEntity
  8
M1
  6
CONTINUOUS
370
25
100
AcDbLine
 10
955.226069
 20
615.823516
 11
954.977657
 21
616.712248
  0
LINE
  5
32D
100
AcDbEntity
  8
M1
  6
CONTINUOUS
370
25
100
AcDbLine
 10
954.977657
 20
616.712248
 11
954.705867
 21
617.592834
  0
LINE
  5
32E
100
AcDbEntity
  8
M1
  6
CONTINUOUS
370
25
100
AcDbLine
 10
954.705867
 20
707.592834
 11
954.977657
 21
706.71228
  0
LINE
  5
32F
100
AcDbEntity
  8
M1
  6
CONTINUOUS
370
25
100
AcDbLine
 10
954.977657
 20
706.71228
 11
955.226069
 21
705.823548
  0
LINE
  5
330
100
AcDbEntity
  8
M1
  6
CONTINUOUS
370
25
100
AcDbLine
 10
955.226069
 20
705.823548
 11
955.450557
 21
704.92749
  0
LINE
  5
331
100
AcDbEntity
  8
M1
  6
CONTINUOUS
370
25
100
AcDbLine
 10
955.450557
 20
704.92749
 11
955.650569
 21
704.024902
  0
LINE
  5
332
100
AcDbEntity
  8
M1
  6
CONTINUOUS
370
25
100
AcDbLine
 10
955.650569
 20
704.024902
 11
955.825679
 21
703.116638
  0
LINE
  5
333
100
AcDbEntity
  8
M1
  6
CONTINUOUS
370
25
100
AcDbLine
 10
955.825679
 20
703.116638
 11
955.975275
 21
702.20343
  0
LINE
  5
334
100
AcDbEntity
  8
M1
  6
CONTINUOUS
370
25
100
AcDbLine
 10
955.975275
 20
702.20343
 11
956.098871
 21
701.286192
  0
LINE
  5
335
100
AcDbEntity
  8
M1
  6
CONTINUOUS
370
25
100
AcDbLine
 10
956.098871
 20
701.286192
 11
956.195857
 21
700.365722
  0
LINE
  5
336
100
AcDbEntity
  8
M1
  6
CONTINUOUS
370
25
100
AcDbLine
 10
956.195857
 20
700.365722
 11
956.265865
 21
699.44281
  0
LINE
  5
337
100
AcDbEntity
  8
M1
  6
CONTINUOUS
370
25
100
AcDbLine
 10
956.265865
 20
699.44281
 11
956.308223
 21
698.518188
  0
LINE
  5
338
100
AcDbEntity
  8
M1
  6
CONTINUOUS
370
25
100
AcDbLine
 10
956.308223
 20
698.518188
 11
956.322443
 21
697.592834
  0
LINE
  5
339
100
AcDbEntity
  8
M1
  6
CONTINUOUS
370
25
100
AcDbLine
 10
956.322443
 20
697.592834
 11
956.308223
 21
696.66748
  0
LINE
  5
33A
100
AcDbEntity
  8
M1
  6
CONTINUOUS
370
25
100
AcDbLine
 10
956.308223
 20
696.66748
 11
956.265865
 21
695.742858
  0
LINE
  5
33B
100
AcDbEntity
  8
M1
  6
CONTINUOUS
370
25
100
AcDbLine
 10
956.265865
 20
695.742858
 11
956.195857
 21
694.819946
  0
LINE
  5
33C
100
AcDbEntity
  8
M1
  6
CONTINUOUS
370
25
100
AcDbLine
 10
956.195857
 20
694.819946
 11
956.098871
 21
693.899476
  0
LINE
  5
33D
100
AcDbEntity
  8
M1
  6
CONTINUOUS
370
25
100
AcDbLine
 10
956.098871
 20
693.899476
 11
955.975275
 21
692.982238
  0
LINE
  5
33E
100
AcDbEntity
  8
M1
  6
CONTINUOUS
370
25
100
AcDbLine
 10
955.975275
 20
692.982238
 11
955.825679
 21
692.06903
  0
LINE
  5
33F
100
AcDbEntity
  8
M1
  6
CONTINUOUS
370
25
100
AcDbLine
 10
955.825679
 20
692.06903
 11
955.650569
 21
691.160766
  0
LINE
  5
340
100
AcDbEntity
  8
M1
  6
CONTINUOUS
370
25
100
AcDbLine
 10
955.650569
 20
691.160766
 11
955.450557
 21
690.258178
  0
LINE
  5
341
100
AcDbEntity
  8
M1
  6
CONTINUOUS
370
25
100
AcDbLine
 10
955.450557
 20
690.258178
 11
955.226069
 21
689.36212
  0
LINE
  5
342
100
AcDbEntity
  8
M1
  6
CONTINUOUS
370
25
100
AcDbLine
 10
955.226069
 20
689.36212
 11
954.977657
 21
688.473388
  0
LINE
  5
343
100
AcDbEntity
  8
M1
  6
CONTINUOUS
370
25
100
AcDbLine
 10
954.977657
 20
688.473388
 11
954.705867
 21
687.592834
  0
LINE
  5
344
100
AcDbEntity
  8
M1
  6
CONTINUOUS
370
25
100
AcDbLine
 10
1113.812707
 20
644.592834
 11
1118.431509
 21
652.592834
  0
LINE
  5
345
100
AcDbEntity
  8
M1
  6
CONTINUOUS
370
25
100
AcDbLine
 10
1118.431509
 20
652.592834
 11
1113.812707
 21
660.592834
  0
LINE
  5
346
100
AcDbEntity
  8
M1
  6
CONTINUOUS
370
25
100
AcDbLine
 10
1113.812707
 20
660.592834
 11
1104.575101
 21
660.592834
  0
LINE
  5
347
100
AcDbEntity
  8
M1
  6
CONTINUOUS
370
25
100
AcDbLine
 10
1104.575101
 20
660.592834
 11
1099.956299
 21
652.592834
  0
LINE
  5
348
100
AcDbEntity
  8
M1
  6
CONTINUOUS
370
25
100
AcDbLine
 10
1099.956299
 20
652.592834
 11
1104.575101
 21
644.592834
  0
LINE
  5
349
100
AcDbEntity
  8
M1
  6
CONTINUOUS
370
25
100
AcDbLine
 10
1104.575101
 20
644.592834
 11
1113.812707
 21
644.592834
  0
LINE
  5
34A
100
AcDbEntity
  8
M1
  6
CONTINUOUS
370
25
100
AcDbLine
 10
1212.431509
 20
489.780058
 11
1207.812707
 21
497.780058
  0
LINE
  5
34B
100
AcDbEntity
  8
M1
  6
CONTINUOUS
370
25
100
AcDbLine
 10
1207.812707
 20
497.780058
 11
1198.575101
 21
497.780058
  0
LINE
  5
34C
100
AcDbEntity
  8
M1
  6
CONTINUOUS
370
25
100
AcDbLine
 10
1198.575101
 20
497.780058
 11
1193.956299
 21
489.780058
  0
LINE
  5
34D
100
AcDbEntity
  8
M1
  6
CONTINUOUS
370
25
100
AcDbLine
 10
1193.956299
 20
489.780058
 11
1198.575101
 21
481.780058
  0
LINE
  5
34E
100
AcDbEntity
  8
M1
  6
CONTINUOUS
370
25
100
AcDbLine
 10
1198.575101
 20
481.780058
 11
1207.812707
 21
481.780058
  0
LINE
  5
34F
100
AcDbEntity
  8
M1
  6
CONTINUOUS
370
25
100
AcDbLine
 10
1207.812707
 20
481.780058
 11
1212.431509
 21
489.780058
  0
LINE
  5
350
100
AcDbEntity
  8
M1
  6
CONTINUOUS
370
25
100
AcDbLine
 10
1395.812707
 20
497.780058
 11
1386.575101
 21
497.780058
  0
LINE
  5
351
100
AcDbEntity
  8
M1
  6
CONTINUOUS
370
25
100
AcDbLine
 10
1386.575101
 20
497.780058
 11
1381.956299
 21
489.780058
  0
LINE
  5
352
100
AcDbEntity
  8
M1
  6
CONTINUOUS
370
25
100
AcDbLine
 10
1381.956299
 20
489.780058
 11
1386.575101
 21
481.780058
  0
LINE
  5
353
100
AcDbEntity
  8
M1
  6
CONTINUOUS
370
25
100
AcDbLine
 10
1386.575101
 20
481.780058
 11
1395.812707
 21
481.780058
  0
LINE
  5
354
100
AcDbEntity
  8
M1
  6
CONTINUOUS
370
25
100
AcDbLine
 10
1395.812707
 20
481.780058
 11
1400.431509
 21
489.780058
  0
LINE
  5
355
100
AcDbEntity
  8
M1
  6
CONTINUOUS
370
25
100
AcDbLine
 10
1400.431509
 20
489.780058
 11
1395.812707
 21
497.780058
  0
LINE
  5
356
100
AcDbEntity
  8
M1
  6
CONTINUOUS
370
25
100
AcDbLine
 10
1480.575101
 20
660.592834
 11
1475.956299
 21
652.592834
  0
LINE
  5
357
100
AcDbEntity
  8
M1
  6
CONTINUOUS
370
25
100
AcDbLine
 10
1475.956299
 20
652.592834
 11
1480.575101
 21
644.592834
  0
LINE
  5
358
100
AcDbEntity
  8
M1
  6
CONTINUOUS
370
25
100
AcDbLine
 10
1480.575101
 20
644.592834
 11
1489.812707
 21
644.592834
  0
LINE
  5
359
100
AcDbEntity
  8
M1
  6
CONTINUOUS
370
25
100
AcDbLine
 10
1489.812707
 20
644.592834
 11
1494.431509
 21
652.592834
  0
LINE
  5
35A
100
AcDbEntity
  8
M1
  6
CONTINUOUS
370
25
100
AcDbLine
 10
1494.431509
 20
652.592834
 11
1489.812707
 21
660.592834
  0
LINE
  5
35B
100
AcDbEntity
  8
M1
  6
CONTINUOUS
370
25
100
AcDbLine
 10
1489.812707
 20
660.592834
 11
1480.575101
 21
660.592834
  0
LINE
  5
35C
100
AcDbEntity
  8
M1
  6
CONTINUOUS
370
25
100
AcDbLine
 10
1381.956299
 20
815.40561
 11
1386.575101
 21
807.40561
  0
LINE
  5
35D
100
AcDbEntity
  8
M1
  6
CONTINUOUS
370
25
100
AcDbLine
 10
1386.575101
 20
807.40561
 11
1395.812707
 21
807.40561
  0
LINE
  5
35E
100
AcDbEntity
  8
M1
  6
CONTINUOUS
370
25
100
AcDbLine
 10
1395.812707
 20
807.40561
 11
1400.431509
 21
815.40561
  0
LINE
  5
35F
100
AcDbEntity
  8
M1
  6
CONTINUOUS
370
25
100
AcDbLine
 10
1400.431509
 20
815.40561
 11
1395.812707
 21
823.40561
  0
LINE
  5
360
100
AcDbEntity
  8
M1
  6
CONTINUOUS
370
25
100
AcDbLine
 10
1395.812707
 20
823.40561
 11
1386.575101
 21
823.40561
  0
LINE
  5
361
100
AcDbEntity
  8
M1
  6
CONTINUOUS
370
25
100
AcDbLine
 10
1386.575101
 20
823.40561
 11
1381.956299
 21
815.40561
  0
LINE
  5
362
100
AcDbEntity
  8
M1
  6
CONTINUOUS
370
25
100
AcDbLine
 10
1198.575101
 20
807.40561
 11
1207.812707
 21
807.40561
  0
LINE
  5
363
100
AcDbEntity
  8
M1
  6
CONTINUOUS
370
25
100
AcDbLine
 10
1207.812707
 20
807.40561
 11
1212.431509
 21
815.40561
  0
LINE
  5
364
100
AcDbEntity
  8
M1
  6
CONTINUOUS
370
25
100
AcDbLine
 10
1212.431509
 20
815.40561
 11
1207.812707
 21
823.40561
  0
LINE
  5
365
100
AcDbEntity
  8
M1
  6
CONTINUOUS
370
25
100
AcDbLine
 10
1207.812707
 20
823.40561
 11
1198.575101
 21
823.40561
  0
LINE
  5
366
100
AcDbEntity
  8
M1
  6
CONTINUOUS
370
25
100
AcDbLine
 10
1198.575101
 20
823.40561
 11
1193.956299
 21
815.40561
  0
LINE
  5
367
100
AcDbEntity
  8
M1
  6
CONTINUOUS
370
25
100
AcDbLine
 10
1193.956299
 20
815.40561
 11
1198.575101
 21
807.40561
  0
LINE
  5
368
100
AcDbEntity
  8
M1
  6
CONTINUOUS
370
25
100
AcDbLine
 10
926.554737
 20
820.40561
 11
920.722469
 21
820.40561
  0
LINE
  5
369
100
AcDbEntity
  8
M1
  6
CONTINUOUS
370
25
100
AcDbLine
 10
920.722469
 20
810.40561
 11
926.554737
 21
810.40561
  0
LINE
  5
36A
100
AcDbEntity
  8
M1
  6
CONTINUOUS
370
25
100
AcDbLine
 10
920.722469
 20
647.592834
 11
926.554737
 21
647.592834
  0
LINE
  5
36B
100
AcDbEntity
  8
M1
  6
CONTINUOUS
370
25
100
AcDbLine
 10
926.554737
 20
657.592834
 11
920.722469
 21
657.592834
  0
LINE
  5
36C
100
AcDbEntity
  8
M1
  6
CONTINUOUS
370
25
100
AcDbLine
 10
926.554737
 20
494.780058
 11
920.722469
 21
494.780058
  0
LINE
  5
36D
100
AcDbEntity
  8
M1
  6
CONTINUOUS
370
25
100
AcDbLine
 10
920.722469
 20
484.780058
 11
926.554737
 21
484.780058
  0
ENDSEC
  0
SECTION
  2
OBJECTS
  0
DICTIONARY
  5
C
100
AcDbDictionary
  3
ACAD_GROUP
350
D
  3
ACAD_MLINESTYLE
350
E
  0
DICTIONARY
  5
D
102
{ACAD_REACTORS
330
C
102
}
100
AcDbDictionary
  0
DICTIONARY
  5
E
102
{ACAD_REACTORS
330
C
102
}
100
AcDbDictionary
  3
STANDARD
350
13
  0
MLINESTYLE
  5
13
102
{ACAD_REACTORS
330
E
102
}
100
AcDbMlineStyle
  2
STANDARD
 70
     0
  3

 62
     0
 51
90.0
 52
90.0
 71
     2
 49
0.5
 62
   256
  6
BYLAYER
 49
-0.5
 62
   256
  6
BYLAYER
  0
ENDSEC
  0
EOF
