  0
SECTION
  2
HEADER
  9
$ACADVER
  1
AC1015
  9
$INSBASE
 10
0.0
 20
0.0
  9
$VIEWCTR
 10
7.531722
 20
4.5
  9
$VIEWSIZE
 40
9.0
  9
$SNAPMODE
 70
     0
  9
$SNAPUNIT
 10
1.0
 20
1.0
  9
$SNAPBASE
 10
0.0
 20
0.0
  9
$SNAPANG
 50
0.0
  9
$SNAPSTYLE
 70
     0
  9
$SNAPISOPAIR
 70
     0
  9
$GRIDMODE
 70
     0
  9
$GRIDUNIT
 10
0.0
 20
0.0
  9
$ORTHOMODE
 70
     0
  9
$REGENMODE
 70
     1
  9
$FILLMODE
 70
     1
  9
$QTEXTMODE
 70
     0
  9
$DRAGMODE
 70
     2
  9
$LTSCALE
 40
1.0
  9
$OSMODE
 70
     0
  9
$ATTMODE
 70
     1
  9
$TEXTSIZE
 40
0.2
  9
$TRACEWID
 40
0.05
  9
$TEXTSTYLE
  7
STANDARD
  9
$CELTYPE
  6
BYLAYER
  9
$CECOLOR
 62
   256
  9
$DIMSCALE
 40
1.0
  9
$DIMASZ
 40
0.18
  9
$DIMEXO
 40
0.0625
  9
$DIMDLI
 40
0.38
  9
$DIMRND
 40
0.0
  9
$DIMDLE
 40
0.0
  9
$DIMEXE
 40
0.18
  9
$DIMTP
 40
0.0
  9
$DIMTM
 40
0.0
  9
$DIMTXT
 40
0.18
  9
$DIMCEN
 40
0.09
  9
$DIMTSZ
 40
0.0
  9
$DIMADEC
 70
     0
  9
$DIMALTRND
 40
0.000000
  9
$DIMAZIN
 70
     0
  9
$DIMDSEP
 70
    46
  9
$DIMATFIT
 70
     3
  9
$DIMFRAC
 70
     0
  9
$DIMLDRBLK
  1

  9
$DIMLUNIT
 70
     2
  9
$DIMLWD
 70
   13
  9
$DIMLWE
 70
   13
  9
$DIMTMOVE
 70
     0
  9
$CELWEIGHT
370
    25
  9
$LWDISPLAY
290
    1
  9
$EXTNAMES
290
    1
  9
$DIMTOL
 70
     0
  9
$DIMLIM
 70
     0
  9
$DIMTIH
 70
     1
  9
$DIMTOH
 70
     1
  9
$DIMSE1
 70
     0
  9
$DIMSE2
 70
     0
  9
$DIMTAD
 70
     0
  9
$DIMZIN
 70
     0
  9
$DIMBLK
  1

  9
$LUNITS
 70
     2
  9
$LUPREC
 70
     4
  9
$AXISMODE
 70
     0
  9
$AXISUNIT
 10
0.0
 20
0.0
  9
$SKETCHINC
 40
0.1
  9
$FILLETRAD
 40
0.0
  9
$AUNITS
 70
     0
  9
$AUPREC
 70
     0
  9
$MENU
  1
ACAD
  9
$ELEVATION
 40
0.0
  9
$THICKNESS
 40
0.0
  9
$VIEWDIR
 10
0.0
 20
0.0
 30
1.0
  9
$LIMCHECK
 70
     0
  9
$BLIPMODE
 70
     1
  9
$CHAMFERA
 40
0.0
  9
$CHAMFERB
 40
0.0
  9
$FASTZOOM
 70
     1
  9
$SKPOLY
 70
     0
  9
$TDCREATE
 40
0000000.0000000000
  9
$TDUPDATE
 40
0000000.0000000000
  9
$TDINDWG
 40
0.0000000000
  9
$TDUSRTIMER
 40
0.0000000000
  9
$USRTIMER
 70
     1
  9
$ANGBASE
 50
0.0
  9
$ANGDIR
 70
     0
  9
$PDMODE
 70
     0
  9
$PDSIZE
 40
0.0
  9
$PLINEWID
 40
0.0
  9
$COORDS
 70
     0
  9
$USERI1
 70
     0
  9
$USERI2
 70
     0
  9
$USERI3
 70
     0
  9
$USERI4
 70
     0
  9
$USERI5
 70
     0
  9
$USERR1
 40
0.0
  9
$USERR2
 40
0.0
  9
$USERR3
 40
0.0
  9
$USERR4
 40
0.0
  9
$USERR5
 40
0.0
  9
$CLAYER
  8
M1
  9
$EXTMIN
 10
178.373886
 20
27.05316
  9
$EXTMAX
 10
1618.736271
 20
1164.915548
  9
$LIMMIN
 10
0.0
 20
0.0
  9
$LIMMAX
 10
841.0
 20
594.0
  9
$HANDSEED
  5
467
  0
ENDSEC
  0
SECTION
  2
CLASSES
  0
ENDSEC
  0
SECTION
  2
TABLES
  0
TABLE
  2
VPORT
  5
8
100
AcDbSymbolTable
 70
     2
  0
VPORT
  5
14
100
AcDbSymbolTableRecord
100
AcDbViewportTableRecord
  2
*ACTIVE
 70
     0
 10
0.0
 20
0.0
 11
1.0
 21
1.0
 12
484.0
 22
297.0
 13
0.0
 23
0.0
 14
1.0
 24
1.0
 15
0.0
 25
0.0
 16
0.0
 26
0.0
 36
1.0
 17
0.0
 27
0.0
 37
0.0
 40
594.0
 41
2.0
 42
50.0
 43
0.0
 44
0.0
 50
0.0
 51
0.0
 71
     0
 72
   100
 73
     1
 74
     1
 75
     0
 76
     0
 77
     0
 78
     0
  0
ENDTAB
  0
TABLE
  2
LTYPE
  5
5
100
AcDbSymbolTable
 70
     5
  0
LTYPE
  5
15
100
AcDbSymbolTableRecord
100
AcDbLinetypeTableRecord
  2
BYBLOCK
 70
     0
  3

 72
    65
 73
     0
 40
0.0
  0
LTYPE
  5
16
100
AcDbSymbolTableRecord
100
AcDbLinetypeTableRecord
  2
BYLAYER
 70
     0
  3

 72
    65
 73
     0
 40
0.0
  0
LTYPE
  5
17
100
AcDbSymbolTableRecord
100
AcDbLinetypeTableRecord
  2
CONTINUOUS
 70
    64
  3
Solid line
 72
    65
 73
     0
 40
0.0
  0
LTYPE
  5
18
100
AcDbSymbolTableRecord
100
AcDbLinetypeTableRecord
  2
DASHED
 70
    64
  3
__ __ __ __ __ __ __ __ __ __ __ __ __ __ __ __
 72
    65
 73
     2
 40
0.75
 49
0.5
 74
     0
 49
-0.25
 74
     0
  0
LTYPE
  5
19
100
AcDbSymbolTableRecord
100
AcDbLinetypeTableRecord
  2
DASHDOT
 70
    64
  3
__ . __ . __ . __ . __ . __ . __ . __ . __ . __
 72
    65
 73
     4
 40
1.0
 49
0.5
 74
     0
 49
-0.25
 74
     0
 49
0.0
 74
     0
 49
-0.25
 74
     0
  0
LTYPE
  5
1A
100
AcDbSymbolTableRecord
100
AcDbLinetypeTableRecord
  2
DIVIDE
 70
    64
  3
____ . . ____ . . ____ . . ____ . . ____ . . __
 72
    65
 73
     6
 40
1.25
 49
0.5
 74
     0
 49
-0.25
 74
     0
 49
0.0
 74
     0
 49
-0.25
 74
     0
 49
0.0
 74
     0
 49
-0.25
 74
     0
  0
LTYPE
  5
1B
100
AcDbSymbolTableRecord
100
AcDbLinetypeTableRecord
  2
DOT
 70
    64
  3
. . . . . . . . . . . . . . . . . . . . . . . .
 72
    65
 73
     2
 40
0.25
 49
0.0
 74
     0
 49
-0.25
 74
     0
  0
ENDTAB
  0
TABLE
  2
LAYER
  5
2
100
AcDbSymbolTable
 70
   102
  0
LAYER
  5
F
100
AcDbSymbolTableRecord
100
AcDbLayerTableRecord
  2
0
 70
     0
 62
     7
  6
CONTINUOUS
370
     -3
390
F
  0
LAYER
  5
1C
100
AcDbSymbolTableRecord
100
AcDbLayerTableRecord
  2
M1
 70
     0
 62
     3
  6
CONTINUOUS
370
     -3
390
F
  0
ENDTAB
  0
TABLE
  2
STYLE
  5
3
100
AcDbSymbolTable
 70
     2
  0
STYLE
  5
10
100
AcDbSymbolTableRecord
100
AcDbTextStyleTableRecord
  2
STANDARD
 70
     0
 40
0.0
 41
1.0
 50
0.0
 71
     0
 42
0.2
  3
txt
  4
BIGFONT
  0
ENDTAB
  0
TABLE
  2
VIEW
  5
6
100
AcDbSymbolTable
 70
     0
  0
ENDTAB
  0
TABLE
  2
UCS
  5
7
100
AcDbSymbolTable
 70
     0
  0
ENDTAB
  0
TABLE
  2
APPID
  5
9
100
AcDbSymbolTable
 70
     1
  0
APPID
  5
11
100
AcDbSymbolTableRecord
100
AcDbRegAppTableRecord
  2
ACAD
 70
     0
  0
ENDTAB
  0
TABLE
  2
DIMSTYLE
  5
A
100
AcDbSymbolTable
 70
     2
100
AcDbDimStyleTable
 71
     1
  0
DIMSTYLE
105
23
100
AcDbSymbolTableRecord
100
AcDbDimStyleTableRecord
  2
STANDARD
 70
     0
  3

  4

  5

  6
_OPEN
  7
_OPEN
 40
1.0
 41
6.0
 42
0.5
 43
8.0
 44
1.5
 45
0.0
 46
0.0
 47
0.0
 48
0.0
140
6.3
141
0.09
142
0.0
143
0.03937
144
1.0
145
0.0
146
1.0
147
1.0
148
0.000000
 71
     0
 72
     0
 73
     0
 74
     0
 75
     0
 76
     0
 77
     3
 78
     8
170
     0
171
     2
172
     0
173
     1
174
     0
175
     0
176
     0
177
     0
178
     0
270
     2
271
     2
272
     4
273
     2
274
     2
340
10
275
     0
278
    46
280
     0
281
     0
282
     0
283
     1
284
     0
285
     0
286
     0
287
     3
288
     0
371
   13
372
   13
  0
DIMSTYLE
105
24
100
AcDbSymbolTableRecord
100
AcDbDimStyleTableRecord
  2
LEADSTYL
 70
     0
  3

  4

  5

  6
_OPEN
  7
_OPEN
 40
1.0
 41
6.0
 42
0.0625
 43
0.38
 44
0.18
 45
0.0
 46
0.0
 47
0.0
 48
0.0
140
6.3
141
0.09
142
0.0
143
25.4
144
1.0
145
0.0
146
1.0
147
1.0
 71
     0
 72
     0
 73
     1
 74
     1
 75
     0
 76
     0
 77
     0
 78
     0
170
     0
171
     2
172
     0
173
     1
174
     0
175
     0
176
     0
177
     0
178
     0
270
     2
271
     4
272
     4
273
     2
274
     2
340
10
275
     0
280
     0
281
     0
282
     0
283
     1
284
     0
285
     0
286
     0
287
     3
288
     0
  0
ENDTAB
  0
TABLE
  2
BLOCK_RECORD
  5
1
100
AcDbSymbolTable
 70
     6
  0
BLOCK_RECORD
  5
1D
100
AcDbSymbolTableRecord
100
AcDbBlockTableRecord
  2
*MODEL_SPACE
  0
BLOCK_RECORD
  5
20
100
AcDbSymbolTableRecord
100
AcDbBlockTableRecord
  2
*PAPER_SPACE
  0
BLOCK_RECORD
  5
25
100
AcDbSymbolTableRecord
100
AcDbBlockTableRecord
  2
_NONE
  0
BLOCK_RECORD
  5
29
100
AcDbSymbolTableRecord
100
AcDbBlockTableRecord
  2
_OPEN
  0
BLOCK_RECORD
  5
2F
100
AcDbSymbolTableRecord
100
AcDbBlockTableRecord
  2
_CLOSED
  0
BLOCK_RECORD
  5
36
100
AcDbSymbolTableRecord
100
AcDbBlockTableRecord
  2
_ORIGIN
  0
BLOCK_RECORD
  5
3B
100
AcDbSymbolTableRecord
100
AcDbBlockTableRecord
  2
_DOT
  0
BLOCK_RECORD
  5
43
100
AcDbSymbolTableRecord
100
AcDbBlockTableRecord
  2
_OBLIQUE
  0
ENDTAB
  0
ENDSEC
  0
SECTION
  2
BLOCKS
  0
BLOCK
  5
1E
100
AcDbEntity
  8
0
100
AcDbBlockBegin
  2
*MODEL_SPACE
 70
     0
 10
0.0
 20
0.0
 30
0.0
  3
*MODEL_SPACE
  1

  0
ENDBLK
  5
1F
100
AcDbEntity
  8
0
100
AcDbBlockEnd
  0
BLOCK
  5
21
100
AcDbEntity
 67
     1
  8
0
100
AcDbBlockBegin
  2
*PAPER_SPACE
 70
     0
 10
0.0
 20
0.0
 30
0.0
  3
*PAPER_SPACE
  1

  0
ENDBLK
  5
22
100
AcDbEntity
 67
     1
  8
0
100
AcDbBlockEnd
  0
BLOCK
  5
26
100
AcDbEntity
  8
0
100
AcDbBlockBegin
  2
_NONE
 70
     0
 10
0.0
 20
0.0
  0
CIRCLE
  5
27
100
AcDbEntity
  8
0
 62
     0
370
13
100
AcDbCircle
 10
0.0
 20
0.0
 40
0.25
  0
ENDBLK
  5
28
100
AcDbEntity
  8
0
100
AcDbBlockEnd
  0
BLOCK
  5
2A
100
AcDbEntity
  8
0
100
AcDbBlockBegin
  2
_OPEN
 70
     0
 10
0.0
 20
0.0
  0
LINE
  5
2B
100
AcDbEntity
  8
0
 62
     0
370
13
100
AcDbLine
 10
-0.965926
 20
0.25882
 11
0.0
 21
0.0
  0
LINE
  5
2C
100
AcDbEntity
  8
0
 62
     0
370
13
100
AcDbLine
 10
0.0
 20
0.0
 11
-0.965926
 21
-0.25882
  0
LINE
  5
2D
100
AcDbEntity
  8
0
 62
     0
370
13
100
AcDbLine
 10
0.0
 20
0.0
 11
-1.0
 21
0.0
  0
ENDBLK
  5
2E
100
AcDbEntity
  8
0
100
AcDbBlockEnd
  0
BLOCK
  5
30
100
AcDbEntity
  8
0
100
AcDbBlockBegin
  2
_CLOSED
 70
     0
 10
0.0
 20
0.0
  0
LINE
  5
31
100
AcDbEntity
  8
0
 62
     0
370
13
100
AcDbLine
 10
-0.965926
 20
0.25882
 11
0.0
 21
0.0
  0
LINE
  5
32
100
AcDbEntity
  8
0
 62
     0
370
13
100
AcDbLine
 10
0.0
 20
0.0
 11
-0.965926
 21
-0.25882
  0
LINE
  5
33
100
AcDbEntity
  8
0
 62
     0
370
13
100
AcDbLine
 10
-0.965926
 20
0.25882
 11
-0.965926
 21
-0.25882
  0
LINE
  5
34
100
AcDbEntity
  8
0
 62
     0
370
13
100
AcDbLine
 10
0.0
 20
0.0
 11
-1.0
 21
0.0
  0
ENDBLK
  5
35
100
AcDbEntity
  8
0
100
AcDbBlockEnd
  0
BLOCK
  5
37
100
AcDbEntity
  8
0
100
AcDbBlockBegin
  2
_ORIGIN
 70
     0
 10
0.0
 20
0.0
  0
CIRCLE
  5
38
100
AcDbEntity
  8
0
 62
     0
370
13
100
AcDbCircle
 10
0.0
 20
0.0
 40
0.5
  0
LINE
  5
39
100
AcDbEntity
  8
0
 62
     0
370
13
100
AcDbLine
 10
0.0
 20
0.0
 11
-1.0
 21
0.0
  0
ENDBLK
  5
3A
100
AcDbEntity
  8
0
100
AcDbBlockEnd
  0
BLOCK
  5
3C
100
AcDbEntity
  8
0
100
AcDbBlockBegin
  2
_DOT
 70
     0
 10
0.0
 20
0.0
  0
POLYLINE
  5
3D
100
AcDbEntity
  8
0
 62
     0
100
AcDb2dPolyline
 66
     1
 70
     1
 40
0.5
 41
0.5
  0
VERTEX
  5
3E
100
AcDbEntity
  8
0
 62
     0
100
AcDbVertex
100
AcDb2dVertex
 10
-0.25
 20
0.0
 42
1.0
  0
VERTEX
  5
3F
100
AcDbEntity
  8
0
 62
     0
100
AcDbVertex
100
AcDb2dVertex
 10
0.25
 20
0.0
 42
1.0
  0
SEQEND
  5
40
100
AcDbEntity
  8
0
 62
     0
  0
LINE
  5
41
100
AcDbEntity
  8
0
 62
     0
370
13
100
AcDbLine
 10
-0.5
 20
0.0
 11
-1.0
 21
0.0
  0
ENDBLK
  5
42
100
AcDbEntity
  8
0
100
AcDbBlockEnd
  0
BLOCK
  5
44
100
AcDbEntity
  8
0
100
AcDbBlockBegin
  2
_OBLIQUE
 70
     0
 10
0.0
 20
0.0
  0
LINE
  5
45
100
AcDbEntity
  8
0
 62
     0
370
13
100
AcDbLine
 10
-0.353553
 20
-0.353553
 11
0.353553
 21
0.353553
  0
ENDBLK
  5
46
100
AcDbEntity
  8
0
100
AcDbBlockEnd
  0
ENDSEC
  0
SECTION
  2
ENTITIES
  0
LINE
  5
47
100
AcDbEntity
  8
M1
  6
CONTINUOUS
370
13
 62
     7
100
AcDbLine
 10
397.630036
 20
326.176046
 11
438.34903
 21
326.176046
  0
LINE
  5
48
100
AcDbEntity
  8
M1
  6
CONTINUOUS
370
13
 62
     7
100
AcDbLine
 10
418.374054
 20
308.273245
 11
418.374054
 21
349.985555
  0
LINE
  5
49
100
AcDbEntity
  8
M1
  6
CONTINUOUS
370
25
 62
     7
100
AcDbLine
 10
223.374054
 20
51.176061
 11
313.374054
 21
51.176061
  0
LINE
  5
4A
100
AcDbEntity
  8
M1
  6
CONTINUOUS
370
25
 62
     7
100
AcDbLine
 10
223.374054
 20
51.176061
 11
223.374054
 21
300.027059
  0
LINE
  5
4B
100
AcDbEntity
  8
M1
  6
CONTINUOUS
370
25
 62
     7
100
AcDbLine
 10
225.374054
 20
76.176061
 11
418.374054
 21
76.176061
  0
LINE
  5
4C
100
AcDbEntity
  8
M1
  6
CONTINUOUS
370
25
 62
     7
100
AcDbLine
 10
313.374054
 20
51.176061
 11
313.374054
 21
74.176061
  0
LINE
  5
4D
100
AcDbEntity
  8
M1
  6
CONTINUOUS
370
25
 62
     7
100
AcDbLine
 10
330.666046
 20
64.173956
 11
418.374054
 21
64.173956
  0
LINE
  5
4E
100
AcDbEntity
  8
M1
  6
CONTINUOUS
370
25
 62
     7
100
AcDbLine
 10
324.758087
 20
84.468053
 11
374.28299
 21
236.891073
  0
LINE
  5
4F
100
AcDbEntity
  8
M1
  6
CONTINUOUS
370
25
 62
     7
100
AcDbLine
 10
336.809967
 20
82.720754
 11
386.802033
 21
236.584768
  0
LINE
  5
50
100
AcDbEntity
  8
M1
  6
CONTINUOUS
370
25
 62
     7
100
AcDbLine
 10
238.374054
 20
81.176061
 11
238.374054
 21
247.272054
  0
LINE
  5
51
100
AcDbEntity
  8
M1
  6
CONTINUOUS
370
25
 62
     7
100
AcDbLine
 10
613.374054
 20
51.176061
 11
613.374054
 21
300.027059
  0
LINE
  5
52
100
AcDbEntity
  8
M1
  6
CONTINUOUS
370
25
 62
     7
100
AcDbLine
 10
598.374054
 20
81.176061
 11
598.374054
 21
247.271047
  0
LINE
  5
53
100
AcDbEntity
  8
M1
  6
CONTINUOUS
370
25
 62
     7
100
AcDbLine
 10
611.374054
 20
76.176061
 11
418.374054
 21
76.176061
  0
LINE
  5
54
100
AcDbEntity
  8
M1
  6
CONTINUOUS
370
25
 62
     7
100
AcDbLine
 10
613.374054
 20
51.176061
 11
523.374054
 21
51.176061
  0
LINE
  5
55
100
AcDbEntity
  8
M1
  6
CONTINUOUS
370
25
 62
     7
100
AcDbLine
 10
523.374054
 20
51.176061
 11
523.374054
 21
74.176061
  0
LINE
  5
56
100
AcDbEntity
  8
M1
  6
CONTINUOUS
370
25
 62
     7
100
AcDbLine
 10
506.083039
 20
64.176061
 11
419.083039
 21
64.176061
  0
LINE
  5
57
100
AcDbEntity
  8
M1
  6
CONTINUOUS
370
25
 62
     7
100
AcDbLine
 10
499.938996
 20
82.721059
 11
449.946076
 21
236.585073
  0
LINE
  5
58
100
AcDbEntity
  8
M1
  6
CONTINUOUS
370
25
 62
     7
100
AcDbLine
 10
511.989044
 20
84.46816
 11
462.46402
 21
236.891164
  0
LINE
  5
59
100
AcDbEntity
  8
M1
  6
CONTINUOUS
370
25
 62
     7
100
AcDbLine
 10
402.374054
 20
588.676046
 11
434.374054
 21
588.676046
  0
LINE
  5
5A
100
AcDbEntity
  8
M1
  6
CONTINUOUS
370
25
 62
     7
100
AcDbLine
 10
402.374054
 20
588.676046
 11
402.374054
 21
565.642049
  0
LINE
  5
5B
100
AcDbEntity
  8
M1
  6
CONTINUOUS
370
25
 62
     7
100
AcDbLine
 10
434.374054
 20
588.676046
 11
434.374054
 21
565.642049
  0
LINE
  5
5C
100
AcDbEntity
  8
M1
  6
CONTINUOUS
370
25
 62
     7
100
AcDbLine
 10
408.873078
 20
531.660177
 11
418.373078
 21
537.144186
  0
LINE
  5
5D
100
AcDbEntity
  8
M1
  6
CONTINUOUS
370
25
 62
     7
100
AcDbLine
 10
408.873078
 20
520.691061
 11
408.873078
 21
531.661031
  0
LINE
  5
5E
100
AcDbEntity
  8
M1
  6
CONTINUOUS
370
25
 62
     7
100
AcDbLine
 10
418.373078
 20
515.206075
 11
408.873078
 21
520.690939
  0
LINE
  5
5F
100
AcDbEntity
  8
M1
  6
CONTINUOUS
370
25
 62
     7
100
AcDbLine
 10
427.873078
 20
520.691488
 11
418.373078
 21
515.206442
  0
LINE
  5
60
100
AcDbEntity
  8
M1
  6
CONTINUOUS
370
25
 62
     7
100
AcDbLine
 10
427.873078
 20
531.661031
 11
427.873078
 21
520.691061
  0
LINE
  5
61
100
AcDbEntity
  8
M1
  6
CONTINUOUS
370
25
 62
     7
100
AcDbLine
 10
418.373078
 20
537.14504
 11
427.873078
 21
531.661031
  0
LINE
  5
62
100
AcDbEntity
  8
M1
  6
CONTINUOUS
370
25
 62
     7
100
AcDbLine
 10
266.355988
 20
464.758077
 11
269.194977
 21
475.353964
  0
LINE
  5
63
100
AcDbEntity
  8
M1
  6
CONTINUOUS
370
25
 62
     7
100
AcDbLine
 10
274.113068
 20
457.001241
 11
266.355988
 21
464.75826
  0
LINE
  5
64
100
AcDbEntity
  8
M1
  6
CONTINUOUS
370
25
 62
     7
100
AcDbLine
 10
284.709015
 20
459.839071
 11
274.113068
 21
457.000082
  0
LINE
  5
65
100
AcDbEntity
  8
M1
  6
CONTINUOUS
370
25
 62
     7
100
AcDbLine
 10
287.548004
 20
470.435934
 11
284.709015
 21
459.839986
  0
LINE
  5
66
100
AcDbEntity
  8
M1
  6
CONTINUOUS
370
25
 62
     7
100
AcDbLine
 10
279.791046
 20
478.193075
 11
287.548004
 21
470.435873
  0
LINE
  5
67
100
AcDbEntity
  8
M1
  6
CONTINUOUS
370
25
 62
     7
100
AcDbLine
 10
269.194977
 20
475.353475
 11
279.791046
 21
478.192342
  0
LINE
  5
68
100
AcDbEntity
  8
M1
  6
CONTINUOUS
370
25
 62
     7
100
AcDbLine
 10
212.890045
 20
316.676656
 11
207.40506
 21
326.176565
  0
LINE
  5
69
100
AcDbEntity
  8
M1
  6
CONTINUOUS
370
25
 62
     7
100
AcDbLine
 10
223.85904
 20
316.676046
 11
212.889069
 21
316.676046
  0
LINE
  5
6A
100
AcDbEntity
  8
M1
  6
CONTINUOUS
370
25
 62
     7
100
AcDbLine
 10
229.344025
 20
326.176351
 11
223.85904
 21
316.676351
  0
LINE
  5
6B
100
AcDbEntity
  8
M1
  6
CONTINUOUS
370
25
 62
     7
100
AcDbLine
 10
223.85904
 20
335.675863
 11
229.344025
 21
326.175863
  0
LINE
  5
6C
100
AcDbEntity
  8
M1
  6
CONTINUOUS
370
25
 62
     7
100
AcDbLine
 10
212.889069
 20
335.676046
 11
223.85904
 21
335.676046
  0
LINE
  5
6D
100
AcDbEntity
  8
M1
  6
CONTINUOUS
370
25
 62
     7
100
AcDbLine
 10
207.40506
 20
326.175558
 11
212.890045
 21
335.675558
  0
LINE
  5
6E
100
AcDbEntity
  8
M1
  6
CONTINUOUS
370
25
 62
     7
100
AcDbLine
 10
279.792023
 20
174.159048
 11
269.196076
 21
176.998068
  0
LINE
  5
6F
100
AcDbEntity
  8
M1
  6
CONTINUOUS
370
25
 62
     7
100
AcDbLine
 10
287.55008
 20
181.91567
 11
279.793
 21
174.158651
  0
LINE
  5
70
100
AcDbEntity
  8
M1
  6
CONTINUOUS
370
25
 62
     7
100
AcDbLine
 10
284.709992
 20
192.511953
 11
287.548981
 21
181.915945
  0
LINE
  5
71
100
AcDbEntity
  8
M1
  6
CONTINUOUS
370
25
 62
     7
100
AcDbLine
 10
274.114044
 20
195.351064
 11
284.709992
 21
192.512045
  0
LINE
  5
72
100
AcDbEntity
  8
M1
  6
CONTINUOUS
370
25
 62
     7
100
AcDbLine
 10
266.35904
 20
187.592855
 11
274.115998
 21
195.349874
  0
LINE
  5
73
100
AcDbEntity
  8
M1
  6
CONTINUOUS
370
25
 62
     7
100
AcDbLine
 10
269.197052
 20
176.998373
 11
266.358063
 21
187.59435
  0
LINE
  5
74
100
AcDbEntity
  8
M1
  6
CONTINUOUS
370
25
 62
     7
100
AcDbLine
 10
427.874054
 20
120.691656
 11
418.374054
 21
115.206655
  0
LINE
  5
75
100
AcDbEntity
  8
M1
  6
CONTINUOUS
370
25
 62
     7
100
AcDbLine
 10
427.874054
 20
131.662069
 11
427.874054
 21
120.692052
  0
LINE
  5
76
100
AcDbEntity
  8
M1
  6
CONTINUOUS
370
25
 62
     7
100
AcDbLine
 10
418.374054
 20
137.146261
 11
427.874054
 21
131.662374
  0
LINE
  5
77
100
AcDbEntity
  8
M1
  6
CONTINUOUS
370
25
 62
     7
100
AcDbLine
 10
408.875031
 20
131.661153
 11
418.375031
 21
137.145162
  0
LINE
  5
78
100
AcDbEntity
  8
M1
  6
CONTINUOUS
370
25
 62
     7
100
AcDbLine
 10
408.874054
 20
120.692052
 11
408.874054
 21
131.662069
  0
LINE
  5
79
100
AcDbEntity
  8
M1
  6
CONTINUOUS
370
25
 62
     7
100
AcDbLine
 10
418.374054
 20
115.207159
 11
408.874054
 21
120.692159
  0
LINE
  5
7A
100
AcDbEntity
  8
M1
  6
CONTINUOUS
370
25
 62
     7
100
AcDbLine
 10
570.391999
 20
187.594747
 11
567.553009
 21
176.998769
  0
LINE
  5
7B
100
AcDbEntity
  8
M1
  6
CONTINUOUS
370
25
 62
     7
100
AcDbLine
 10
562.633087
 20
195.350454
 11
570.390045
 21
187.594473
  0
LINE
  5
7C
100
AcDbEntity
  8
M1
  6
CONTINUOUS
370
25
 62
     7
100
AcDbLine
 10
552.037995
 20
192.512472
 11
562.634064
 21
195.351461
  0
LINE
  5
7D
100
AcDbEntity
  8
M1
  6
CONTINUOUS
370
25
 62
     7
100
AcDbLine
 10
549.198029
 20
181.916464
 11
552.037018
 21
192.512472
  0
LINE
  5
7E
100
AcDbEntity
  8
M1
  6
CONTINUOUS
370
25
 62
     7
100
AcDbLine
 10
556.954987
 20
174.159353
 11
549.198029
 21
181.915456
  0
LINE
  5
7F
100
AcDbEntity
  8
M1
  6
CONTINUOUS
370
25
 62
     7
100
AcDbLine
 10
567.552033
 20
176.998556
 11
556.956086
 21
174.159567
  0
LINE
  5
80
100
AcDbEntity
  8
M1
  6
CONTINUOUS
370
25
 62
     7
100
AcDbLine
 10
623.858063
 20
335.677145
 11
629.343048
 21
326.177053
  0
LINE
  5
81
100
AcDbEntity
  8
M1
  6
CONTINUOUS
370
25
 62
     7
100
AcDbLine
 10
612.88797
 20
335.677053
 11
623.858063
 21
335.677053
  0
LINE
  5
82
100
AcDbEntity
  8
M1
  6
CONTINUOUS
370
25
 62
     7
100
AcDbLine
 10
607.402985
 20
326.177145
 11
612.88797
 21
335.677267
  0
LINE
  5
83
100
AcDbEntity
  8
M1
  6
CONTINUOUS
370
25
 62
     7
100
AcDbLine
 10
612.88797
 20
316.677053
 11
607.402985
 21
326.177053
  0
LINE
  5
84
100
AcDbEntity
  8
M1
  6
CONTINUOUS
370
25
 62
     7
100
AcDbLine
 10
623.858063
 20
316.677053
 11
612.88797
 21
316.677053
  0
LINE
  5
85
100
AcDbEntity
  8
M1
  6
CONTINUOUS
370
25
 62
     7
100
AcDbLine
 10
629.344025
 20
326.17687
 11
623.85904
 21
316.676748
  0
LINE
  5
86
100
AcDbEntity
  8
M1
  6
CONTINUOUS
370
25
 62
     7
100
AcDbLine
 10
556.954987
 20
478.192648
 11
567.551056
 21
475.35378
  0
LINE
  5
87
100
AcDbEntity
  8
M1
  6
CONTINUOUS
370
25
 62
     7
100
AcDbLine
 10
549.197052
 20
470.437643
 11
556.95401
 21
478.193685
  0
LINE
  5
88
100
AcDbEntity
  8
M1
  6
CONTINUOUS
370
25
 62
     7
100
AcDbLine
 10
552.037018
 20
459.841146
 11
549.198029
 21
470.437154
  0
LINE
  5
89
100
AcDbEntity
  8
M1
  6
CONTINUOUS
370
25
 62
     7
100
AcDbLine
 10
562.633087
 20
457.00234
 11
552.037018
 21
459.841451
  0
LINE
  5
8A
100
AcDbEntity
  8
M1
  6
CONTINUOUS
370
25
 62
     7
100
AcDbLine
 10
570.389069
 20
464.758443
 11
562.631989
 21
457.002462
  0
LINE
  5
8B
100
AcDbEntity
  8
M1
  6
CONTINUOUS
370
25
 62
     7
100
AcDbLine
 10
567.552033
 20
475.354269
 11
570.391022
 21
464.75826
  0
LINE
  5
8C
100
AcDbEntity
  8
M1
  6
CONTINUOUS
370
25
 62
     7
100
AcDbLine
 10
394.191071
 20
417.227071
 11
384.493073
 21
440.641073
  0
LINE
  5
8D
100
AcDbEntity
  8
M1
  6
CONTINUOUS
370
25
 62
     7
100
AcDbLine
 10
442.555085
 20
417.227255
 11
452.253083
 21
440.641378
  0
LINE
  5
8E
100
AcDbEntity
  8
M1
  6
CONTINUOUS
370
25
 62
     7
100
AcDbLine
 10
336.891022
 20
373.459066
 11
313.478058
 21
383.157156
  0
LINE
  5
8F
100
AcDbEntity
  8
M1
  6
CONTINUOUS
370
25
 62
     7
100
AcDbLine
 10
371.090973
 20
407.658041
 11
361.391999
 21
431.072042
  0
LINE
  5
90
100
AcDbEntity
  8
M1
  6
CONTINUOUS
370
25
 62
     7
100
AcDbLine
 10
327.323029
 20
301.993856
 11
303.90799
 21
292.296774
  0
LINE
  5
91
100
AcDbEntity
  8
M1
  6
CONTINUOUS
370
25
 62
     7
100
AcDbLine
 10
327.323029
 20
350.358968
 11
303.909088
 21
360.057058
  0
LINE
  5
92
100
AcDbEntity
  8
M1
  6
CONTINUOUS
370
25
 62
     7
100
AcDbLine
 10
371.090973
 20
244.694173
 11
361.391999
 21
221.280172
  0
LINE
  5
93
100
AcDbEntity
  8
M1
  6
CONTINUOUS
370
25
 62
     7
100
AcDbLine
 10
336.891022
 20
278.895071
 11
313.478058
 21
269.196066
  0
LINE
  5
94
100
AcDbEntity
  8
M1
  6
CONTINUOUS
370
25
 62
     7
100
AcDbLine
 10
442.557038
 20
235.125967
 11
452.255036
 21
211.711874
  0
LINE
  5
95
100
AcDbEntity
  8
M1
  6
CONTINUOUS
370
25
 62
     7
100
AcDbLine
 10
394.191071
 20
235.126272
 11
384.493073
 21
211.712362
  0
LINE
  5
96
100
AcDbEntity
  8
M1
  6
CONTINUOUS
370
25
 62
     7
100
AcDbLine
 10
499.855988
 20
278.894064
 11
523.269074
 21
269.195058
  0
LINE
  5
97
100
AcDbEntity
  8
M1
  6
CONTINUOUS
370
25
 62
     7
100
AcDbLine
 10
465.657013
 20
244.694357
 11
475.355988
 21
221.281454
  0
LINE
  5
98
100
AcDbEntity
  8
M1
  6
CONTINUOUS
370
25
 62
     7
100
AcDbLine
 10
509.423981
 20
350.36086
 11
532.838044
 21
360.057974
  0
LINE
  5
99
100
AcDbEntity
  8
M1
  6
CONTINUOUS
370
25
 62
     7
100
AcDbLine
 10
509.423981
 20
301.99407
 11
532.838044
 21
292.296163
  0
LINE
  5
9A
100
AcDbEntity
  8
M1
  6
CONTINUOUS
370
25
 62
     7
100
AcDbLine
 10
465.657013
 20
407.658529
 11
475.355988
 21
431.071554
  0
LINE
  5
9B
100
AcDbEntity
  8
M1
  6
CONTINUOUS
370
25
 62
     7
100
AcDbLine
 10
499.855988
 20
373.457845
 11
523.269074
 21
383.156759
  0
LINE
  5
9C
100
AcDbEntity
  8
M1
  6
CONTINUOUS
370
25
 62
     7
100
AcDbLine
 10
312.062043
 20
546.243856
 11
313.593048
 21
542.548849
  0
LINE
  5
9D
100
AcDbEntity
  8
M1
  6
CONTINUOUS
370
25
 62
     7
100
AcDbLine
 10
313.593048
 20
542.549764
 11
339.462067
 21
553.26473
  0
LINE
  5
9E
100
AcDbEntity
  8
M1
  6
CONTINUOUS
370
25
 62
     7
100
AcDbLine
 10
339.462067
 20
553.263937
 11
337.931061
 21
556.959066
  0
LINE
  5
9F
100
AcDbEntity
  8
M1
  6
CONTINUOUS
370
25
 62
     7
100
AcDbLine
 10
337.930085
 20
556.959737
 11
312.061066
 21
546.244772
  0
LINE
  5
A0
100
AcDbEntity
  8
M1
  6
CONTINUOUS
370
25
 62
     7
100
AcDbLine
 10
324.996979
 20
551.602132
 11
330.223053
 21
549.437032
  0
LINE
  5
A1
100
AcDbEntity
  8
M1
  6
CONTINUOUS
370
25
 62
     7
100
AcDbLine
 10
321.301056
 20
550.070943
 11
326.527008
 21
547.905965
  0
LINE
  5
A2
100
AcDbEntity
  8
M1
  6
CONTINUOUS
370
25
 62
     7
100
AcDbLine
 10
311.139069
 20
545.861349
 11
317.51297
 21
548.501485
  0
LINE
  5
A3
100
AcDbEntity
  8
M1
  6
CONTINUOUS
370
25
 62
     7
100
AcDbLine
 10
309.366974
 20
557.032186
 11
332.207062
 21
566.493185
  0
LINE
  5
A4
100
AcDbEntity
  8
M1
  6
CONTINUOUS
370
25
 62
     7
100
AcDbLine
 10
338.854035
 20
557.340231
 11
333.493073
 21
565.754354
  0
LINE
  5
A5
100
AcDbEntity
  8
M1
  6
CONTINUOUS
370
25
 62
     7
100
AcDbLine
 10
311.139069
 20
545.861044
 11
308.979035
 21
555.60024
  0
LINE
  5
A6
100
AcDbEntity
  8
M1
  6
CONTINUOUS
370
25
 62
     7
100
AcDbLine
 10
309.764069
 20
557.346883
 11
320.212067
 21
563.151876
  0
LINE
  5
A7
100
AcDbEntity
  8
M1
  6
CONTINUOUS
370
25
 62
     7
100
AcDbLine
 10
331.706086
 20
566.433736
 11
320.213044
 21
563.14974
  0
LINE
  5
A8
100
AcDbEntity
  8
M1
  6
CONTINUOUS
370
25
 62
     7
100
AcDbLine
 10
317.511017
 20
548.504171
 11
332.478058
 21
554.704183
  0
LINE
  5
A9
100
AcDbEntity
  8
M1
  6
CONTINUOUS
370
25
 62
     7
100
AcDbLine
 10
332.480011
 20
554.700033
 11
338.855011
 21
557.340047
  0
LINE
  5
AA
100
AcDbEntity
  8
M1
  6
CONTINUOUS
370
25
 62
     7
100
AcDbLine
 10
525.60904
 20
545.860433
 11
519.23404
 21
548.501485
  0
LINE
  5
AB
100
AcDbEntity
  8
M1
  6
CONTINUOUS
370
25
 62
     7
100
AcDbLine
 10
527.380036
 20
557.033346
 11
504.54007
 21
566.494283
  0
LINE
  5
AC
100
AcDbEntity
  8
M1
  6
CONTINUOUS
370
25
 62
     7
100
AcDbLine
 10
497.892975
 20
557.340536
 11
503.253083
 21
565.754476
  0
LINE
  5
AD
100
AcDbEntity
  8
M1
  6
CONTINUOUS
370
25
 62
     7
100
AcDbLine
 10
525.610016
 20
545.859945
 11
527.769074
 21
555.599935
  0
LINE
  5
AE
100
AcDbEntity
  8
M1
  6
CONTINUOUS
370
25
 62
     7
100
AcDbLine
 10
526.983063
 20
557.34548
 11
516.534088
 21
563.149374
  0
LINE
  5
AF
100
AcDbEntity
  8
M1
  6
CONTINUOUS
370
25
 62
     7
100
AcDbLine
 10
505.041046
 20
566.432943
 11
516.534088
 21
563.148885
  0
LINE
  5
B0
100
AcDbEntity
  8
M1
  6
CONTINUOUS
370
25
 62
     7
100
AcDbLine
 10
519.23404
 20
548.501241
 11
504.266999
 21
554.700277
  0
LINE
  5
B1
100
AcDbEntity
  8
M1
  6
CONTINUOUS
370
25
 62
     7
100
AcDbLine
 10
504.266999
 20
554.699789
 11
497.891999
 21
557.34078
  0
LINE
  5
B2
100
AcDbEntity
  8
M1
  6
CONTINUOUS
370
25
 62
     7
100
AcDbLine
 10
524.684967
 20
546.243978
 11
523.154084
 21
542.547933
  0
LINE
  5
B3
100
AcDbEntity
  8
M1
  6
CONTINUOUS
370
25
 62
     7
100
AcDbLine
 10
523.154084
 20
542.547933
 11
497.285065
 21
553.26296
  0
LINE
  5
B4
100
AcDbEntity
  8
M1
  6
CONTINUOUS
370
25
 62
     7
100
AcDbLine
 10
497.285065
 20
553.263082
 11
498.816071
 21
556.959066
  0
LINE
  5
B5
100
AcDbEntity
  8
M1
  6
CONTINUOUS
370
25
 62
     7
100
AcDbLine
 10
498.816071
 20
556.959066
 11
524.684967
 21
546.244039
  0
LINE
  5
B6
100
AcDbEntity
  8
M1
  6
CONTINUOUS
370
13
 62
     7
100
AcDbLine
 10
273.374054
 20
81.176061
 11
273.373078
 21
46.176061
  0
LINE
  5
B7
100
AcDbEntity
  8
M1
  6
CONTINUOUS
370
13
 62
     7
100
AcDbLine
 10
563.373078
 20
81.176061
 11
563.373078
 21
46.176061
  0
LINE
  5
B8
100
AcDbEntity
  8
M1
  6
DASHED
370
25
 62
     7
100
AcDbLine
 10
262.874054
 20
76.176061
 11
262.874054
 21
51.176061
  0
LINE
  5
B9
100
AcDbEntity
  8
M1
  6
DASHED
370
25
 62
     7
100
AcDbLine
 10
283.874054
 20
76.176061
 11
283.874054
 21
51.176061
  0
LINE
  5
BA
100
AcDbEntity
  8
M1
  6
DASHED
370
25
 62
     7
100
AcDbLine
 10
552.873078
 20
76.176061
 11
552.873078
 21
51.176061
  0
LINE
  5
BB
100
AcDbEntity
  8
M1
  6
DASHED
370
25
 62
     7
100
AcDbLine
 10
573.873078
 20
76.176061
 11
573.873078
 21
51.176061
  0
LINE
  5
BC
100
AcDbEntity
  8
M1
  6
CONTINUOUS
370
25
 62
     7
100
AcDbLine
 10
444.873078
 20
317.177053
 11
444.873078
 21
335.177053
  0
LINE
  5
BD
100
AcDbEntity
  8
M1
  6
CONTINUOUS
370
25
 62
     7
100
AcDbLine
 10
456.873078
 20
317.177053
 11
456.873078
 21
335.177053
  0
LINE
  5
BE
100
AcDbEntity
  8
M1
  6
CONTINUOUS
370
25
 62
     7
100
AcDbLine
 10
444.873078
 20
335.177053
 11
456.873078
 21
335.177053
  0
LINE
  5
BF
100
AcDbEntity
  8
M1
  6
CONTINUOUS
370
25
 62
     7
100
AcDbLine
 10
456.873078
 20
317.177053
 11
444.873078
 21
317.177053
  0
LINE
  5
C0
100
AcDbEntity
  8
M1
  6
CONTINUOUS
370
25
 62
     7
100
AcDbLine
 10
984.964349
 20
290.675741
 11
984.964349
 21
360.675741
  0
LINE
  5
C1
100
AcDbEntity
  8
M1
  6
CONTINUOUS
370
25
 62
     7
100
AcDbLine
 10
1042.808343
 20
231.936758
 11
1042.808343
 21
419.415731
  0
LINE
  5
C2
100
AcDbEntity
  8
M1
  6
CONTINUOUS
370
25
 62
     7
100
AcDbLine
 10
1103.064385
 20
497.429769
 11
1114.064385
 21
497.429769
  0
LINE
  5
C3
100
AcDbEntity
  8
M1
  6
CONTINUOUS
370
25
 62
     7
100
AcDbLine
 10
1103.064385
 20
535.675741
 11
1114.064385
 21
535.675741
  0
LINE
  5
C4
100
AcDbEntity
  8
M1
  6
CONTINUOUS
370
25
 62
     7
100
AcDbLine
 10
1100.064385
 20
500.429769
 11
1100.064385
 21
532.675741
  0
LINE
  5
C5
100
AcDbEntity
  8
M1
  6
CONTINUOUS
370
25
 62
     7
100
AcDbLine
 10
1110.065484
 20
535.675741
 11
1110.065484
 21
497.429769
  0
LINE
  5
C6
100
AcDbEntity
  8
M1
  6
CONTINUOUS
370
25
 62
     7
100
AcDbLine
 10
1110.065484
 20
455.002767
 11
1110.065484
 21
355.675741
  0
LINE
  5
C7
100
AcDbEntity
  8
M1
  6
CONTINUOUS
370
25
 62
     7
100
AcDbLine
 10
1295.066369
 20
500.429769
 11
1295.066369
 21
532.675741
  0
LINE
  5
C8
100
AcDbEntity
  8
M1
  6
CONTINUOUS
370
25
 62
     7
100
AcDbLine
 10
1292.066369
 20
535.675741
 11
1281.066369
 21
535.675741
  0
LINE
  5
C9
100
AcDbEntity
  8
M1
  6
CONTINUOUS
370
25
 62
     7
100
AcDbLine
 10
1285.065454
 20
535.675741
 11
1285.065454
 21
497.429769
  0
LINE
  5
CA
100
AcDbEntity
  8
M1
  6
CONTINUOUS
370
25
 62
     7
100
AcDbLine
 10
1292.066369
 20
497.429769
 11
1281.066369
 21
497.429769
  0
LINE
  5
CB
100
AcDbEntity
  8
M1
  6
CONTINUOUS
370
25
 62
     7
100
AcDbLine
 10
1285.065454
 20
455.002767
 11
1285.065454
 21
355.675741
  0
LINE
  5
CC
100
AcDbEntity
  8
M1
  6
CONTINUOUS
370
25
 62
     7
100
AcDbLine
 10
1352.32235
 20
231.936758
 11
1352.32235
 21
419.414755
  0
LINE
  5
CD
100
AcDbEntity
  8
M1
  6
CONTINUOUS
370
25
 62
     7
100
AcDbLine
 10
974.964349
 20
316.675741
 11
874.964349
 21
316.675741
  0
LINE
  5
CE
100
AcDbEntity
  8
M1
  6
CONTINUOUS
370
25
 62
     7
100
AcDbLine
 10
1188.814355
 20
588.175741
 11
1220.924249
 21
588.175741
  0
LINE
  5
CF
100
AcDbEntity
  8
M1
  6
CONTINUOUS
370
25
 62
     7
100
AcDbLine
 10
1220.924249
 20
588.175741
 11
1220.924249
 21
565.675741
  0
LINE
  5
D0
100
AcDbEntity
  8
M1
  6
CONTINUOUS
370
25
 62
     7
100
AcDbLine
 10
1165.459374
 20
588.175741
 11
1165.459374
 21
565.675741
  0
LINE
  5
D1
100
AcDbEntity
  8
M1
  6
CONTINUOUS
370
25
 62
     7
100
AcDbLine
 10
1165.459374
 20
588.175741
 11
1176.314355
 21
588.175741
  0
LINE
  5
D2
100
AcDbEntity
  8
M1
  6
CONTINUOUS
370
25
 62
     7
100
AcDbLine
 10
1058.626336
 20
287.19576
 11
1073.064385
 21
287.19576
  0
LINE
  5
D3
100
AcDbEntity
  8
M1
  6
CONTINUOUS
370
25
 62
     7
100
AcDbLine
 10
1058.626336
 20
269.508749
 11
1073.064385
 21
269.508749
  0
LINE
  5
D4
100
AcDbEntity
  8
M1
  6
CONTINUOUS
370
25
 62
     7
100
AcDbLine
 10
1058.626336
 20
218.402761
 11
1070.441339
 21
218.402761
  0
LINE
  5
D5
100
AcDbEntity
  8
M1
  6
CONTINUOUS
370
25
 62
     7
100
AcDbLine
 10
1076.064385
 20
314.70574
 11
1076.064385
 21
290.19576
  0
LINE
  5
D6
100
AcDbEntity
  8
M1
  6
CONTINUOUS
370
25
 62
     7
100
AcDbLine
 10
1055.626336
 20
325.675741
 11
1055.626336
 21
290.19576
  0
LINE
  5
D7
100
AcDbEntity
  8
M1
  6
CONTINUOUS
370
25
 62
     7
100
AcDbLine
 10
1055.626336
 20
266.508749
 11
1055.626336
 21
221.402761
  0
LINE
  5
D8
100
AcDbEntity
  8
M1
  6
CONTINUOUS
370
25
 62
     7
100
AcDbLine
 10
1076.064385
 20
266.508749
 11
1076.064385
 21
235.707754
  0
LINE
  5
D9
100
AcDbEntity
  8
M1
  6
CONTINUOUS
370
25
 62
     7
100
AcDbLine
 10
1339.504357
 20
325.675741
 11
1339.504357
 21
290.19576
  0
LINE
  5
DA
100
AcDbEntity
  8
M1
  6
CONTINUOUS
370
25
 62
     7
100
AcDbLine
 10
1336.504357
 20
287.19576
 11
1322.066369
 21
287.19576
  0
LINE
  5
DB
100
AcDbEntity
  8
M1
  6
CONTINUOUS
370
25
 62
     7
100
AcDbLine
 10
1319.066552
 20
314.70574
 11
1319.065576
 21
290.195669
  0
LINE
  5
DC
100
AcDbEntity
  8
M1
  6
CONTINUOUS
370
25
 62
     7
100
AcDbLine
 10
1336.504357
 20
269.508749
 11
1322.066369
 21
269.508749
  0
LINE
  5
DD
100
AcDbEntity
  8
M1
  6
CONTINUOUS
370
25
 62
     7
100
AcDbLine
 10
1339.504357
 20
266.507742
 11
1339.504357
 21
221.402761
  0
LINE
  5
DE
100
AcDbEntity
  8
M1
  6
CONTINUOUS
370
25
 62
     7
100
AcDbLine
 10
1319.066369
 20
266.507742
 11
1319.066369
 21
235.707754
  0
LINE
  5
DF
100
AcDbEntity
  8
M1
  6
CONTINUOUS
370
25
 62
     7
100
AcDbLine
 10
1336.504357
 20
218.402761
 11
1324.689355
 21
218.402761
  0
LINE
  5
E0
100
AcDbEntity
  8
M1
  6
CONTINUOUS
370
25
 62
     7
100
AcDbLine
 10
974.964349
 20
334.675741
 11
974.964349
 21
316.675741
  0
LINE
  5
E1
100
AcDbEntity
  8
M1
  6
CONTINUOUS
370
25
 62
     7
100
AcDbLine
 10
995.534478
 20
276.675741
 11
995.534478
 21
374.675741
  0
LINE
  5
E2
100
AcDbEntity
  8
M1
  6
CONTINUOUS
370
25
 62
     7
100
AcDbLine
 10
1281.065454
 20
50.676748
 11
1371.065454
 21
50.676748
  0
LINE
  5
E3
100
AcDbEntity
  8
M1
  6
CONTINUOUS
370
25
 62
     7
100
AcDbLine
 10
1304.065454
 20
540.676778
 11
1281.065454
 21
540.676778
  0
LINE
  5
E4
100
AcDbEntity
  8
M1
  6
CONTINUOUS
370
25
 62
     7
100
AcDbLine
 10
1307.852166
 20
510.677328
 11
1307.065148
 21
510.676229
  0
LINE
  5
E5
100
AcDbEntity
  8
M1
  6
CONTINUOUS
370
25
 62
     7
100
AcDbLine
 10
1307.065454
 20
537.676778
 11
1307.065454
 21
272.636739
  0
LINE
  5
E6
100
AcDbEntity
  8
M1
  6
CONTINUOUS
370
25
 62
     7
100
AcDbLine
 10
1281.065454
 20
540.675741
 11
1281.065454
 21
153.92275
  0
LINE
  5
E7
100
AcDbEntity
  8
M1
  6
CONTINUOUS
370
25
 62
     7
100
AcDbLine
 10
1371.065454
 20
75.20075
 11
1371.065454
 21
50.676748
  0
LINE
  5
E8
100
AcDbEntity
  8
M1
  6
CONTINUOUS
370
25
 62
     7
100
AcDbLine
 10
1370.918359
 20
76.127752
 11
1307.065362
 21
272.636861
  0
LINE
  5
E9
100
AcDbEntity
  8
M1
  6
CONTINUOUS
370
25
 62
     7
100
AcDbLine
 10
1281.065454
 20
75.676748
 11
1281.065454
 21
50.676748
  0
LINE
  5
EA
100
AcDbEntity
  8
M1
  6
CONTINUOUS
370
25
 62
     7
100
AcDbLine
 10
1281.065454
 20
153.92275
 11
1292.065454
 21
153.92275
  0
LINE
  5
EB
100
AcDbEntity
  8
M1
  6
CONTINUOUS
370
25
 62
     7
100
AcDbLine
 10
1281.065454
 20
196.348745
 11
1292.065454
 21
196.348745
  0
LINE
  5
EC
100
AcDbEntity
  8
M1
  6
CONTINUOUS
370
25
 62
     7
100
AcDbLine
 10
1281.065454
 20
295.676748
 11
1292.065454
 21
295.676748
  0
LINE
  5
ED
100
AcDbEntity
  8
M1
  6
CONTINUOUS
370
25
 62
     7
100
AcDbLine
 10
1285.065454
 20
214.940756
 11
1292.065454
 21
214.940756
  0
LINE
  5
EE
100
AcDbEntity
  8
M1
  6
CONTINUOUS
370
25
 62
     7
100
AcDbLine
 10
1284.065454
 20
139.072744
 11
1292.065454
 21
139.072744
  0
LINE
  5
EF
100
AcDbEntity
  8
M1
  6
CONTINUOUS
370
25
 62
     7
100
AcDbLine
 10
1284.065454
 20
112.77976
 11
1292.065454
 21
112.77976
  0
LINE
  5
F0
100
AcDbEntity
  8
M1
  6
CONTINUOUS
370
25
 62
     7
100
AcDbLine
 10
1295.065454
 20
292.676748
 11
1295.065454
 21
199.348745
  0
LINE
  5
F1
100
AcDbEntity
  8
M1
  6
CONTINUOUS
370
25
 62
     7
100
AcDbLine
 10
1285.065454
 20
295.676748
 11
1285.065454
 21
196.348745
  0
LINE
  5
F2
100
AcDbEntity
  8
M1
  6
CONTINUOUS
370
25
 62
     7
100
AcDbLine
 10
1295.065454
 20
150.92275
 11
1295.065454
 21
115.77976
  0
LINE
  5
F3
100
AcDbEntity
  8
M1
  6
CONTINUOUS
370
25
 62
     7
100
AcDbLine
 10
1284.065454
 20
150.92275
 11
1284.065454
 21
78.676748
  0
LINE
  5
F4
100
AcDbEntity
  8
M1
  6
CONTINUOUS
370
25
 62
     7
100
AcDbLine
 10
1197.565454
 20
565.675741
 11
1277.065454
 21
565.675741
  0
LINE
  5
F5
100
AcDbEntity
  8
M1
  6
CONTINUOUS
370
25
 62
     7
100
AcDbLine
 10
1281.065454
 20
535.675741
 11
1280.065454
 21
535.675741
  0
LINE
  5
F6
100
AcDbEntity
  8
M1
  6
CONTINUOUS
370
25
 62
     7
100
AcDbLine
 10
1280.065454
 20
564.425741
 11
1280.065454
 21
535.675741
  0
LINE
  5
F7
100
AcDbEntity
  8
M1
  6
CONTINUOUS
370
25
 62
     7
100
AcDbLine
 10
1280.06585
 20
562.676473
 11
1277.065972
 21
565.676351
  0
LINE
  5
F8
100
AcDbEntity
  8
M1
  6
CONTINUOUS
370
25
 62
     7
100
AcDbLine
 10
1118.065484
 20
565.675741
 11
1197.565454
 21
565.675741
  0
LINE
  5
F9
100
AcDbEntity
  8
M1
  6
CONTINUOUS
370
25
 62
     7
100
AcDbLine
 10
1115.065484
 20
535.675741
 11
1114.064385
 21
535.675741
  0
LINE
  5
FA
100
AcDbEntity
  8
M1
  6
CONTINUOUS
370
25
 62
     7
100
AcDbLine
 10
1115.065484
 20
562.675741
 11
1115.065484
 21
535.675741
  0
LINE
  5
FB
100
AcDbEntity
  8
M1
  6
CONTINUOUS
370
25
 62
     7
100
AcDbLine
 10
1115.064446
 20
562.676534
 11
1118.064446
 21
565.676534
  0
LINE
  5
FC
100
AcDbEntity
  8
M1
  6
CONTINUOUS
370
25
 62
     7
100
AcDbLine
 10
1114.063348
 20
50.676748
 11
1024.063348
 21
50.676748
  0
LINE
  5
FD
100
AcDbEntity
  8
M1
  6
CONTINUOUS
370
25
 62
     7
100
AcDbLine
 10
1000.064385
 20
238.425741
 11
1000.064385
 21
412.926778
  0
LINE
  5
FE
100
AcDbEntity
  8
M1
  6
CONTINUOUS
370
25
 62
     7
100
AcDbLine
 10
1091.064385
 20
540.675741
 11
1114.064385
 21
540.675741
  0
LINE
  5
FF
100
AcDbEntity
  8
M1
  6
CONTINUOUS
370
25
 62
     7
100
AcDbLine
 10
1087.277337
 20
510.675741
 11
1088.064385
 21
510.675741
  0
LINE
  5
100
100
AcDbEntity
  8
M1
  6
CONTINUOUS
370
25
 62
     7
100
AcDbLine
 10
1088.064385
 20
537.675741
 11
1088.064385
 21
272.637746
  0
LINE
  5
101
100
AcDbEntity
  8
M1
  6
CONTINUOUS
370
25
 62
     7
100
AcDbLine
 10
1029.580255
 20
418.258138
 11
1002.803277
 21
415.915182
  0
LINE
  5
102
100
AcDbEntity
  8
M1
  6
CONTINUOUS
370
25
 62
     7
100
AcDbLine
 10
1048.419976
 20
431.450826
 11
1084.557977
 21
508.943868
  0
LINE
  5
103
100
AcDbEntity
  8
M1
  6
CONTINUOUS
370
25
 62
     7
100
AcDbLine
 10
1029.581353
 20
233.094961
 11
1002.803155
 21
235.438039
  0
LINE
  5
104
100
AcDbEntity
  8
M1
  6
CONTINUOUS
370
25
 62
     7
100
AcDbLine
 10
1048.420648
 20
219.902761
 11
1061.686639
 21
191.456747
  0
LINE
  5
105
100
AcDbEntity
  8
M1
  6
CONTINUOUS
370
25
 62
     7
100
AcDbLine
 10
1004.848382
 20
235.258749
 11
1046.733392
 21
145.43984
  0
LINE
  5
106
100
AcDbEntity
  8
M1
  6
CONTINUOUS
370
25
 62
     7
100
AcDbLine
 10
1114.062371
 20
540.675741
 11
1114.062371
 21
153.92275
  0
LINE
  5
107
100
AcDbEntity
  8
M1
  6
CONTINUOUS
370
25
 62
     7
100
AcDbLine
 10
1024.063348
 20
75.20075
 11
1024.063348
 21
50.676748
  0
LINE
  5
108
100
AcDbEntity
  8
M1
  6
CONTINUOUS
370
25
 62
     7
100
AcDbLine
 10
1024.210443
 20
76.127752
 11
1088.064446
 21
272.637655
  0
LINE
  5
109
100
AcDbEntity
  8
M1
  6
CONTINUOUS
370
25
 62
     7
100
AcDbLine
 10
1114.063348
 20
75.676748
 11
1114.063348
 21
50.676748
  0
LINE
  5
10A
100
AcDbEntity
  8
M1
  6
CONTINUOUS
370
25
 62
     7
100
AcDbLine
 10
1114.063348
 20
153.92275
 11
1103.063348
 21
153.92275
  0
LINE
  5
10B
100
AcDbEntity
  8
M1
  6
CONTINUOUS
370
25
 62
     7
100
AcDbLine
 10
1114.064385
 20
196.348745
 11
1103.064385
 21
196.348745
  0
LINE
  5
10C
100
AcDbEntity
  8
M1
  6
CONTINUOUS
370
25
 62
     7
100
AcDbLine
 10
1114.064385
 20
295.675741
 11
1103.064385
 21
295.675741
  0
LINE
  5
10D
100
AcDbEntity
  8
M1
  6
CONTINUOUS
370
25
 62
     7
100
AcDbLine
 10
1110.064385
 20
214.940756
 11
1103.064385
 21
214.940756
  0
LINE
  5
10E
100
AcDbEntity
  8
M1
  6
CONTINUOUS
370
25
 62
     7
100
AcDbLine
 10
1111.063348
 20
139.072744
 11
1103.063348
 21
139.072744
  0
LINE
  5
10F
100
AcDbEntity
  8
M1
  6
CONTINUOUS
370
25
 62
     7
100
AcDbLine
 10
1111.063348
 20
112.77976
 11
1103.063348
 21
112.77976
  0
LINE
  5
110
100
AcDbEntity
  8
M1
  6
CONTINUOUS
370
25
 62
     7
100
AcDbLine
 10
1100.064385
 20
292.675741
 11
1100.064385
 21
199.348745
  0
LINE
  5
111
100
AcDbEntity
  8
M1
  6
CONTINUOUS
370
25
 62
     7
100
AcDbLine
 10
1110.064385
 20
295.675741
 11
1110.064385
 21
196.348745
  0
LINE
  5
112
100
AcDbEntity
  8
M1
  6
CONTINUOUS
370
25
 62
     7
100
AcDbLine
 10
1100.063348
 20
150.92275
 11
1100.063348
 21
115.77976
  0
LINE
  5
113
100
AcDbEntity
  8
M1
  6
CONTINUOUS
370
25
 62
     7
100
AcDbLine
 10
1111.063348
 20
150.92275
 11
1111.063348
 21
78.676748
  0
LINE
  5
114
100
AcDbEntity
  8
M1
  6
CONTINUOUS
370
13
 62
     7
100
AcDbLine
 10
827.517144
 20
325.675741
 11
888.437188
 21
325.675741
  0
LINE
  5
115
100
AcDbEntity
  8
M1
  6
CONTINUOUS
370
25
 62
     7
100
AcDbLine
 10
874.964349
 20
293.175741
 11
874.964349
 21
358.175741
  0
LINE
  5
116
100
AcDbEntity
  8
M1
  6
CONTINUOUS
370
25
 62
     7
100
AcDbLine
 10
874.964349
 20
293.175741
 11
982.964349
 21
293.175741
  0
LINE
  5
117
100
AcDbEntity
  8
M1
  6
CONTINUOUS
370
25
 62
     7
100
AcDbLine
 10
984.964349
 20
290.675741
 11
986.565484
 21
290.675741
  0
LINE
  5
118
100
AcDbEntity
  8
M1
  6
CONTINUOUS
370
25
 62
     7
100
AcDbLine
 10
1088.066339
 20
536.425741
 11
1088.066339
 21
514.925741
  0
LINE
  5
119
100
AcDbEntity
  8
M1
  6
CONTINUOUS
370
25
 62
     7
100
AcDbLine
 10
1115.064385
 20
542.925741
 11
1115.064385
 21
562.676168
  0
LINE
  5
11A
100
AcDbEntity
  8
M1
  6
CONTINUOUS
370
25
 62
     7
100
AcDbLine
 10
986.565484
 20
371.675741
 11
986.565484
 21
279.675741
  0
LINE
  5
11B
100
AcDbEntity
  8
M1
  6
CONTINUOUS
370
25
 62
     7
100
AcDbLine
 10
986.565484
 20
279.675741
 11
995.534478
 21
279.675741
  0
LINE
  5
11C
100
AcDbEntity
  8
M1
  6
CONTINUOUS
370
25
 62
     7
100
AcDbLine
 10
995.534478
 20
276.675741
 11
997.189385
 21
276.675741
  0
LINE
  5
11D
100
AcDbEntity
  8
M1
  6
CONTINUOUS
370
25
 62
     7
100
AcDbLine
 10
997.188775
 20
276.675954
 11
1000.064874
 21
282.842947
  0
LINE
  5
11E
100
AcDbEntity
  8
M1
  6
CONTINUOUS
370
25
 62
     7
100
AcDbLine
 10
1118.065545
 20
85.676656
 11
1197.565576
 21
85.675649
  0
LINE
  5
11F
100
AcDbEntity
  8
M1
  6
CONTINUOUS
370
25
 62
     7
100
AcDbLine
 10
1115.065484
 20
115.675756
 11
1111.063348
 21
115.675756
  0
LINE
  5
120
100
AcDbEntity
  8
M1
  6
CONTINUOUS
370
25
 62
     7
100
AcDbLine
 10
1115.065484
 20
88.676748
 11
1115.065484
 21
115.675756
  0
LINE
  5
121
100
AcDbEntity
  8
M1
  6
CONTINUOUS
370
25
 62
     7
100
AcDbLine
 10
1115.065484
 20
88.676855
 11
1118.065484
 21
85.676855
  0
LINE
  5
122
100
AcDbEntity
  8
M1
  6
CONTINUOUS
370
25
 62
     7
100
AcDbLine
 10
1197.565454
 20
85.676748
 11
1277.065454
 21
85.676748
  0
LINE
  5
123
100
AcDbEntity
  8
M1
  6
CONTINUOUS
370
25
 62
     7
100
AcDbLine
 10
1284.06527
 20
115.676061
 11
1280.06527
 21
115.677053
  0
LINE
  5
124
100
AcDbEntity
  8
M1
  6
CONTINUOUS
370
25
 62
     7
100
AcDbLine
 10
1280.065454
 20
88.676748
 11
1280.065454
 21
115.676748
  0
LINE
  5
125
100
AcDbEntity
  8
M1
  6
CONTINUOUS
370
25
 62
     7
100
AcDbLine
 10
1280.06527
 20
88.676962
 11
1277.065454
 21
85.677053
  0
LINE
  5
126
100
AcDbEntity
  8
M1
  6
DASHED
370
25
 62
     7
100
AcDbLine
 10
1114.063348
 20
75.676748
 11
1024.063348
 21
75.676748
  0
LINE
  5
127
100
AcDbEntity
  8
M1
  6
DASHED
370
25
 62
     7
100
AcDbLine
 10
1281.065454
 20
75.676748
 11
1371.065454
 21
75.676748
  0
LINE
  5
128
100
AcDbEntity
  8
M1
  6
CONTINUOUS
370
13
 62
     7
100
AcDbLine
 10
1057.565484
 20
80.675756
 11
1057.565484
 21
45.675756
  0
LINE
  5
129
100
AcDbEntity
  8
M1
  6
DASHED
370
25
 62
     7
100
AcDbLine
 10
1068.065484
 20
75.675756
 11
1068.065484
 21
50.675756
  0
LINE
  5
12A
100
AcDbEntity
  8
M1
  6
DASHED
370
25
 62
     7
100
AcDbLine
 10
1047.065484
 20
75.675756
 11
1047.065484
 21
50.675756
  0
LINE
  5
12B
100
AcDbEntity
  8
M1
  6
CONTINUOUS
370
13
 62
     7
100
AcDbLine
 10
1337.565454
 20
80.676748
 11
1337.565454
 21
45.676748
  0
LINE
  5
12C
100
AcDbEntity
  8
M1
  6
DASHED
370
25
 62
     7
100
AcDbLine
 10
1327.065454
 20
75.676748
 11
1327.065454
 21
50.676748
  0
LINE
  5
12D
100
AcDbEntity
  8
M1
  6
DASHED
370
25
 62
     7
100
AcDbLine
 10
1348.065454
 20
75.676748
 11
1348.065454
 21
50.676748
  0
LINE
  5
12E
100
AcDbEntity
  8
M1
  6
CONTINUOUS
370
25
 62
     7
100
AcDbLine
 10
1188.814355
 20
588.175741
 11
1188.814355
 21
602.566732
  0
LINE
  5
12F
100
AcDbEntity
  8
M1
  6
CONTINUOUS
370
25
 62
     7
100
AcDbLine
 10
1176.314355
 20
602.566732
 11
1176.314355
 21
588.175741
  0
LINE
  5
130
100
AcDbEntity
  8
M1
  6
CONTINUOUS
370
25
 62
     7
100
AcDbLine
 10
1168.564355
 20
569.674764
 11
1168.564355
 21
565.674764
  0
LINE
  5
131
100
AcDbEntity
  8
M1
  6
CONTINUOUS
370
25
 62
     7
100
AcDbLine
 10
1168.564355
 20
565.674764
 11
1196.564355
 21
565.674764
  0
LINE
  5
132
100
AcDbEntity
  8
M1
  6
CONTINUOUS
370
25
 62
     7
100
AcDbLine
 10
1196.564355
 20
565.674764
 11
1196.564355
 21
569.674764
  0
LINE
  5
133
100
AcDbEntity
  8
M1
  6
CONTINUOUS
370
25
 62
     7
100
AcDbLine
 10
1196.564355
 20
569.674764
 11
1168.564355
 21
569.674764
  0
LINE
  5
134
100
AcDbEntity
  8
M1
  6
CONTINUOUS
370
25
 62
     7
100
AcDbLine
 10
1182.564477
 20
569.674581
 11
1186.564355
 21
565.674581
  0
LINE
  5
135
100
AcDbEntity
  8
M1
  6
CONTINUOUS
370
25
 62
     7
100
AcDbLine
 10
1178.564355
 20
569.674581
 11
1182.564355
 21
565.674642
  0
LINE
  5
136
100
AcDbEntity
  8
M1
  6
CONTINUOUS
370
25
 62
     7
100
AcDbLine
 10
1188.814355
 20
576.193746
 11
1188.814355
 21
623.423727
  0
LINE
  5
137
100
AcDbEntity
  8
M1
  6
CONTINUOUS
370
25
 62
     7
100
AcDbLine
 10
1176.314355
 20
623.423727
 11
1176.314355
 21
576.193746
  0
LINE
  5
138
100
AcDbEntity
  8
M1
  6
CONTINUOUS
370
25
 62
     7
100
AcDbLine
 10
1174.564355
 20
564.674764
 11
1174.464349
 21
564.674764
  0
LINE
  5
139
100
AcDbEntity
  8
M1
  6
CONTINUOUS
370
25
 62
     7
100
AcDbLine
 10
1167.564355
 20
569.674764
 11
1197.564355
 21
569.674764
  0
LINE
  5
13A
100
AcDbEntity
  8
M1
  6
CONTINUOUS
370
25
 62
     7
100
AcDbLine
 10
1190.664453
 20
564.674764
 11
1190.564355
 21
564.674764
  0
LINE
  5
13B
100
AcDbEntity
  8
M1
  6
CONTINUOUS
370
25
 62
     7
100
AcDbLine
 10
1197.564263
 20
569.674642
 11
1195.832269
 21
579.498678
  0
LINE
  5
13C
100
AcDbEntity
  8
M1
  6
CONTINUOUS
370
25
 62
     7
100
AcDbLine
 10
1167.563775
 20
569.674825
 11
1169.295861
 21
579.498739
  0
LINE
  5
13D
100
AcDbEntity
  8
M1
  6
CONTINUOUS
370
25
 62
     7
100
AcDbLine
 10
1170.689477
 20
580.81014
 11
1176.314477
 21
581.456136
  0
LINE
  5
13E
100
AcDbEntity
  8
M1
  6
CONTINUOUS
370
25
 62
     7
100
AcDbLine
 10
1194.43847
 20
580.810934
 11
1188.814477
 21
581.45693
  0
LINE
  5
13F
100
AcDbEntity
  8
M1
  6
CONTINUOUS
370
25
 62
     7
100
AcDbLine
 10
874.964349
 20
358.175741
 11
982.964349
 21
358.175741
  0
LINE
  5
140
100
AcDbEntity
  8
M1
  6
CONTINUOUS
370
25
 62
     7
100
AcDbLine
 10
984.964349
 20
360.675741
 11
986.565484
 21
360.675741
  0
LINE
  5
141
100
AcDbEntity
  8
M1
  6
CONTINUOUS
370
25
 62
     7
100
AcDbLine
 10
986.565484
 20
371.675741
 11
995.534478
 21
371.675741
  0
LINE
  5
142
100
AcDbEntity
  8
M1
  6
CONTINUOUS
370
25
 62
     7
100
AcDbLine
 10
995.534478
 20
374.675741
 11
997.189385
 21
374.675741
  0
LINE
  5
143
100
AcDbEntity
  8
M1
  6
CONTINUOUS
370
25
 62
     7
100
AcDbLine
 10
997.189263
 20
374.675741
 11
1000.065362
 21
368.508749
  0
LINE
  5
144
100
AcDbEntity
  8
M1
  6
CONTINUOUS
370
25
 62
     7
100
AcDbLine
 10
974.964349
 20
334.675741
 11
874.964349
 21
334.675741
  0
LINE
  5
145
100
AcDbEntity
  8
M1
  6
CONTINUOUS
370
25
 62
     7
100
AcDbLine
 10
1055.626336
 20
325.675741
 11
1055.626336
 21
361.156759
  0
LINE
  5
146
100
AcDbEntity
  8
M1
  6
CONTINUOUS
370
25
 62
     7
100
AcDbLine
 10
1076.064385
 20
336.644766
 11
1076.064385
 21
361.156759
  0
LINE
  5
147
100
AcDbEntity
  8
M1
  6
CONTINUOUS
370
25
 62
     7
100
AcDbLine
 10
1058.626336
 20
364.156759
 11
1073.064385
 21
364.156759
  0
LINE
  5
148
100
AcDbEntity
  8
M1
  6
CONTINUOUS
370
25
 62
     7
100
AcDbLine
 10
1058.626336
 20
381.84374
 11
1073.064385
 21
381.84374
  0
LINE
  5
149
100
AcDbEntity
  8
M1
  6
CONTINUOUS
370
25
 62
     7
100
AcDbLine
 10
1055.626336
 20
384.84374
 11
1055.626336
 21
429.948751
  0
LINE
  5
14A
100
AcDbEntity
  8
M1
  6
CONTINUOUS
370
25
 62
     7
100
AcDbLine
 10
1076.064385
 20
384.84374
 11
1076.064385
 21
429.948751
  0
LINE
  5
14B
100
AcDbEntity
  8
M1
  6
CONTINUOUS
370
25
 62
     7
100
AcDbLine
 10
1058.626336
 20
432.948751
 11
1073.064385
 21
432.948751
  0
LINE
  5
14C
100
AcDbEntity
  8
M1
  6
CONTINUOUS
370
25
 62
     7
100
AcDbLine
 10
1114.064385
 20
355.675741
 11
1103.064385
 21
355.675741
  0
LINE
  5
14D
100
AcDbEntity
  8
M1
  6
CONTINUOUS
370
25
 62
     7
100
AcDbLine
 10
1100.064385
 20
358.675741
 11
1100.064385
 21
452.003744
  0
LINE
  5
14E
100
AcDbEntity
  8
M1
  6
CONTINUOUS
370
25
 62
     7
100
AcDbLine
 10
1114.064385
 20
455.003744
 11
1103.064385
 21
455.003744
  0
LINE
  5
14F
100
AcDbEntity
  8
M1
  6
CONTINUOUS
370
25
 62
     7
100
AcDbLine
 10
1281.066369
 20
455.002767
 11
1292.066369
 21
455.002767
  0
LINE
  5
150
100
AcDbEntity
  8
M1
  6
CONTINUOUS
370
25
 62
     7
100
AcDbLine
 10
1295.066369
 20
358.675741
 11
1295.066369
 21
452.002767
  0
LINE
  5
151
100
AcDbEntity
  8
M1
  6
CONTINUOUS
370
25
 62
     7
100
AcDbLine
 10
1281.066369
 20
355.675741
 11
1292.066369
 21
355.675741
  0
LINE
  5
152
100
AcDbEntity
  8
M1
  6
CONTINUOUS
370
25
 62
     7
100
AcDbLine
 10
1319.066369
 20
384.84374
 11
1319.066369
 21
429.948751
  0
LINE
  5
153
100
AcDbEntity
  8
M1
  6
CONTINUOUS
370
25
 62
     7
100
AcDbLine
 10
1336.504357
 20
381.842764
 11
1322.066369
 21
381.842764
  0
LINE
  5
154
100
AcDbEntity
  8
M1
  6
CONTINUOUS
370
25
 62
     7
100
AcDbLine
 10
1339.504357
 20
384.84374
 11
1339.504357
 21
429.948751
  0
LINE
  5
155
100
AcDbEntity
  8
M1
  6
CONTINUOUS
370
25
 62
     7
100
AcDbLine
 10
1336.504357
 20
432.948751
 11
1322.066369
 21
432.948751
  0
LINE
  5
156
100
AcDbEntity
  8
M1
  6
CONTINUOUS
370
25
 62
     7
100
AcDbLine
 10
1336.504357
 20
364.155752
 11
1322.066369
 21
364.155752
  0
LINE
  5
157
100
AcDbEntity
  8
M1
  6
CONTINUOUS
370
25
 62
     7
100
AcDbLine
 10
1339.504357
 20
325.675741
 11
1339.504357
 21
361.155752
  0
LINE
  5
158
100
AcDbEntity
  8
M1
  6
CONTINUOUS
370
25
 62
     7
100
AcDbLine
 10
1319.066369
 20
336.644766
 11
1319.066369
 21
361.155752
  0
LINE
  5
159
100
AcDbEntity
  8
M1
  6
CONTINUOUS
370
25
 62
     7
100
AcDbLine
 10
1176.314355
 20
996.149557
 11
1176.314355
 21
1043.499532
  0
LINE
  5
15A
100
AcDbEntity
  8
M1
  6
CONTINUOUS
370
25
 62
     7
100
AcDbLine
 10
1188.814355
 20
996.149557
 11
1188.814355
 21
1043.499532
  0
LINE
  5
15B
100
AcDbEntity
  8
M1
  6
CONTINUOUS
370
25
 62
     7
100
AcDbLine
 10
1165.459374
 20
908.915548
 11
1165.459374
 21
940.915548
  0
LINE
  5
15C
100
AcDbEntity
  8
M1
  6
CONTINUOUS
370
25
 62
     7
100
AcDbLine
 10
1220.924249
 20
908.915548
 11
1220.924249
 21
940.915548
  0
LINE
  5
15D
100
AcDbEntity
  8
M1
  6
CONTINUOUS
370
25
 62
     7
100
AcDbLine
 10
1165.459374
 20
940.915548
 11
1220.924249
 21
940.915548
  0
LINE
  5
15E
100
AcDbEntity
  8
M1
  6
CONTINUOUS
370
25
 62
     7
100
AcDbLine
 10
1165.459374
 20
908.915548
 11
1220.924249
 21
908.915548
  0
LINE
  5
15F
100
AcDbEntity
  8
M1
  6
CONTINUOUS
370
25
 62
     7
100
AcDbLine
 10
1176.314355
 20
853.681539
 11
1176.314355
 21
806.331564
  0
LINE
  5
160
100
AcDbEntity
  8
M1
  6
CONTINUOUS
370
25
 62
     7
100
AcDbLine
 10
1188.813378
 20
853.681539
 11
1188.813378
 21
806.331564
  0
LINE
  5
161
100
AcDbEntity
  8
M1
  6
CONTINUOUS
370
25
 62
     7
100
AcDbLine
 10
1026.063348
 20
1119.915548
 11
1075.067376
 21
1119.915548
  0
LINE
  5
162
100
AcDbEntity
  8
M1
  6
CONTINUOUS
370
25
 62
     7
100
AcDbLine
 10
1026.063348
 20
1104.915548
 11
1083.03338
 21
1104.915548
  0
LINE
  5
163
100
AcDbEntity
  8
M1
  6
CONTINUOUS
370
25
 62
     7
100
AcDbLine
 10
1024.063348
 20
1017.015524
 11
1024.063348
 21
1117.915548
  0
LINE
  5
164
100
AcDbEntity
  8
M1
  6
CONTINUOUS
370
25
 62
     7
100
AcDbLine
 10
1320.062371
 20
1119.915548
 11
1369.065454
 21
1119.915548
  0
LINE
  5
165
100
AcDbEntity
  8
M1
  6
CONTINUOUS
370
25
 62
     7
100
AcDbLine
 10
1312.095361
 20
1104.915548
 11
1369.065454
 21
1104.915548
  0
LINE
  5
166
100
AcDbEntity
  8
M1
  6
CONTINUOUS
370
13
 62
     7
100
AcDbLine
 10
1057.565484
 20
1055.511495
 11
1057.565484
 21
1084.877584
  0
LINE
  5
167
100
AcDbEntity
  8
M1
  6
CONTINUOUS
370
13
 62
     7
100
AcDbLine
 10
1042.390374
 20
1069.915548
 11
1071.394341
 21
1069.915548
  0
LINE
  5
168
100
AcDbEntity
  8
M1
  6
CONTINUOUS
370
13
 62
     7
100
AcDbLine
 10
1042.390374
 20
779.915548
 11
1071.394341
 21
779.915548
  0
LINE
  5
169
100
AcDbEntity
  8
M1
  6
CONTINUOUS
370
13
 62
     7
100
AcDbLine
 10
1057.564385
 20
794.319601
 11
1057.564385
 21
764.953512
  0
LINE
  5
16A
100
AcDbEntity
  8
M1
  6
CONTINUOUS
370
25
 62
     7
100
AcDbLine
 10
1024.063348
 20
832.815572
 11
1024.063348
 21
731.915548
  0
LINE
  5
16B
100
AcDbEntity
  8
M1
  6
CONTINUOUS
370
25
 62
     7
100
AcDbLine
 10
1026.063348
 20
744.915548
 11
1083.03338
 21
744.915548
  0
LINE
  5
16C
100
AcDbEntity
  8
M1
  6
CONTINUOUS
370
25
 62
     7
100
AcDbLine
 10
1026.063348
 20
729.915548
 11
1075.066339
 21
729.915548
  0
LINE
  5
16D
100
AcDbEntity
  8
M1
  6
CONTINUOUS
370
25
 62
     7
100
AcDbLine
 10
1320.062371
 20
729.915548
 11
1369.065454
 21
729.915548
  0
LINE
  5
16E
100
AcDbEntity
  8
M1
  6
CONTINUOUS
370
25
 62
     7
100
AcDbLine
 10
1312.095361
 20
744.915548
 11
1369.065454
 21
744.915548
  0
LINE
  5
16F
100
AcDbEntity
  8
M1
  6
CONTINUOUS
370
25
 62
     7
100
AcDbLine
 10
1371.068566
 20
1117.946554
 11
1371.068566
 21
731.915548
  0
LINE
  5
170
100
AcDbEntity
  8
M1
  6
CONTINUOUS
370
13
 62
     7
100
AcDbLine
 10
1352.738366
 20
779.915548
 11
1323.735375
 21
779.915548
  0
LINE
  5
171
100
AcDbEntity
  8
M1
  6
CONTINUOUS
370
13
 62
     7
100
AcDbLine
 10
1337.564355
 20
794.319601
 11
1337.564355
 21
764.952535
  0
LINE
  5
172
100
AcDbEntity
  8
M1
  6
CONTINUOUS
370
13
 62
     7
100
AcDbLine
 10
1352.739373
 20
1069.915548
 11
1323.735375
 21
1069.915548
  0
LINE
  5
173
100
AcDbEntity
  8
M1
  6
CONTINUOUS
370
13
 62
     7
100
AcDbLine
 10
1337.564355
 20
1055.511495
 11
1337.564355
 21
1084.877584
  0
LINE
  5
174
100
AcDbEntity
  8
M1
  6
CONTINUOUS
370
25
 62
     7
100
AcDbLine
 10
874.964349
 20
886.415548
 11
974.964349
 21
886.415548
  0
LINE
  5
175
100
AcDbEntity
  8
M1
  6
CONTINUOUS
370
25
 62
     7
100
AcDbLine
 10
984.964349
 20
889.915548
 11
984.964349
 21
959.915548
  0
LINE
  5
176
100
AcDbEntity
  8
M1
  6
CONTINUOUS
370
25
 62
     7
100
AcDbLine
 10
1042.808343
 20
831.176534
 11
1042.808343
 21
1018.654562
  0
LINE
  5
177
100
AcDbEntity
  8
M1
  6
CONTINUOUS
370
25
 62
     7
100
AcDbLine
 10
1103.063348
 20
1096.669576
 11
1114.064385
 21
1096.669576
  0
LINE
  5
178
100
AcDbEntity
  8
M1
  6
CONTINUOUS
370
25
 62
     7
100
AcDbLine
 10
1103.063348
 20
1134.915548
 11
1114.064385
 21
1134.915548
  0
LINE
  5
179
100
AcDbEntity
  8
M1
  6
CONTINUOUS
370
25
 62
     7
100
AcDbLine
 10
1100.063348
 20
1099.669576
 11
1100.063348
 21
1131.915548
  0
LINE
  5
17A
100
AcDbEntity
  8
M1
  6
CONTINUOUS
370
25
 62
     7
100
AcDbLine
 10
1110.065484
 20
1134.915548
 11
1110.065484
 21
1096.669576
  0
LINE
  5
17B
100
AcDbEntity
  8
M1
  6
CONTINUOUS
370
25
 62
     7
100
AcDbLine
 10
1110.065484
 20
1054.242574
 11
1110.065484
 21
954.915548
  0
LINE
  5
17C
100
AcDbEntity
  8
M1
  6
CONTINUOUS
370
25
 62
     7
100
AcDbLine
 10
1295.066369
 20
1099.669576
 11
1295.066369
 21
1131.915548
  0
LINE
  5
17D
100
AcDbEntity
  8
M1
  6
CONTINUOUS
370
25
 62
     7
100
AcDbLine
 10
1292.066369
 20
1134.915548
 11
1281.065454
 21
1134.915548
  0
LINE
  5
17E
100
AcDbEntity
  8
M1
  6
CONTINUOUS
370
25
 62
     7
100
AcDbLine
 10
1285.065454
 20
1134.915548
 11
1285.065454
 21
1096.669576
  0
LINE
  5
17F
100
AcDbEntity
  8
M1
  6
CONTINUOUS
370
25
 62
     7
100
AcDbLine
 10
1292.066369
 20
1096.669576
 11
1281.066369
 21
1096.669576
  0
LINE
  5
180
100
AcDbEntity
  8
M1
  6
CONTINUOUS
370
25
 62
     7
100
AcDbLine
 10
1285.065454
 20
1054.242574
 11
1285.065454
 21
954.914571
  0
LINE
  5
181
100
AcDbEntity
  8
M1
  6
CONTINUOUS
370
25
 62
     7
100
AcDbLine
 10
1352.321374
 20
831.176534
 11
1352.321374
 21
1018.654562
  0
LINE
  5
182
100
AcDbEntity
  8
M1
  6
CONTINUOUS
370
25
 62
     7
100
AcDbLine
 10
1058.626336
 20
886.435568
 11
1073.064385
 21
886.435568
  0
LINE
  5
183
100
AcDbEntity
  8
M1
  6
CONTINUOUS
370
25
 62
     7
100
AcDbLine
 10
1058.626336
 20
868.748556
 11
1073.064385
 21
868.748556
  0
LINE
  5
184
100
AcDbEntity
  8
M1
  6
CONTINUOUS
370
25
 62
     7
100
AcDbLine
 10
1058.626336
 20
817.642599
 11
1073.064385
 21
817.642599
  0
LINE
  5
185
100
AcDbEntity
  8
M1
  6
CONTINUOUS
370
25
 62
     7
100
AcDbLine
 10
1076.064385
 20
913.944601
 11
1076.064385
 21
889.435568
  0
LINE
  5
186
100
AcDbEntity
  8
M1
  6
CONTINUOUS
370
25
 62
     7
100
AcDbLine
 10
1055.62658
 20
924.915548
 11
1055.625543
 21
889.435568
  0
LINE
  5
187
100
AcDbEntity
  8
M1
  6
CONTINUOUS
370
25
 62
     7
100
AcDbLine
 10
1055.626336
 20
865.747579
 11
1055.626336
 21
820.642599
  0
LINE
  5
188
100
AcDbEntity
  8
M1
  6
CONTINUOUS
370
25
 62
     7
100
AcDbLine
 10
1076.064385
 20
865.747579
 11
1076.064385
 21
820.642599
  0
LINE
  5
189
100
AcDbEntity
  8
M1
  6
CONTINUOUS
370
25
 62
     7
100
AcDbLine
 10
1339.504357
 20
924.915548
 11
1339.50335
 21
889.434591
  0
LINE
  5
18A
100
AcDbEntity
  8
M1
  6
CONTINUOUS
370
25
 62
     7
100
AcDbLine
 10
1336.504357
 20
886.434591
 11
1322.065454
 21
886.434591
  0
LINE
  5
18B
100
AcDbEntity
  8
M1
  6
CONTINUOUS
370
25
 62
     7
100
AcDbLine
 10
1319.065454
 20
913.945577
 11
1319.065454
 21
889.434591
  0
LINE
  5
18C
100
AcDbEntity
  8
M1
  6
CONTINUOUS
370
25
 62
     7
100
AcDbLine
 10
1336.504357
 20
868.747579
 11
1322.065454
 21
868.747579
  0
LINE
  5
18D
100
AcDbEntity
  8
M1
  6
CONTINUOUS
370
25
 62
     7
100
AcDbLine
 10
1339.504357
 20
865.747579
 11
1339.504357
 21
820.642599
  0
LINE
  5
18E
100
AcDbEntity
  8
M1
  6
CONTINUOUS
370
25
 62
     7
100
AcDbLine
 10
1319.065454
 20
865.747579
 11
1319.065454
 21
820.6415
  0
LINE
  5
18F
100
AcDbEntity
  8
M1
  6
CONTINUOUS
370
25
 62
     7
100
AcDbLine
 10
1336.504357
 20
817.642599
 11
1322.065454
 21
817.642599
  0
LINE
  5
190
100
AcDbEntity
  8
M1
  6
CONTINUOUS
370
25
 62
     7
100
AcDbLine
 10
974.964349
 20
892.415548
 11
974.964349
 21
886.415548
  0
LINE
  5
191
100
AcDbEntity
  8
M1
  6
CONTINUOUS
370
25
 62
     7
100
AcDbLine
 10
995.534478
 20
875.915548
 11
995.534478
 21
973.915548
  0
LINE
  5
192
100
AcDbEntity
  8
M1
  6
CONTINUOUS
370
25
 62
     7
100
AcDbLine
 10
1304.065454
 20
1139.915548
 11
1281.065454
 21
1139.915548
  0
LINE
  5
193
100
AcDbEntity
  8
M1
  6
CONTINUOUS
370
25
 62
     7
100
AcDbLine
 10
1307.065454
 20
1136.915548
 11
1307.065454
 21
712.915548
  0
LINE
  5
194
100
AcDbEntity
  8
M1
  6
CONTINUOUS
370
25
 62
     7
100
AcDbLine
 10
1351.371453
 20
829.142599
 11
1310.546472
 21
741.596517
  0
LINE
  5
195
100
AcDbEntity
  8
M1
  6
CONTINUOUS
370
25
 62
     7
100
AcDbLine
 10
1281.065454
 20
1139.915548
 11
1281.065454
 21
684.730428
  0
LINE
  5
196
100
AcDbEntity
  8
M1
  6
CONTINUOUS
370
25
 62
     7
100
AcDbLine
 10
1281.065454
 20
795.588522
 11
1292.065454
 21
795.588522
  0
LINE
  5
197
100
AcDbEntity
  8
M1
  6
CONTINUOUS
370
25
 62
     7
100
AcDbLine
 10
1281.065454
 20
894.915548
 11
1292.065454
 21
894.915548
  0
LINE
  5
198
100
AcDbEntity
  8
M1
  6
CONTINUOUS
370
25
 62
     7
100
AcDbLine
 10
1285.065454
 20
814.180563
 11
1292.065454
 21
814.180563
  0
LINE
  5
199
100
AcDbEntity
  8
M1
  6
CONTINUOUS
370
25
 62
     7
100
AcDbLine
 10
1295.065454
 20
891.915548
 11
1295.065454
 21
798.588522
  0
LINE
  5
19A
100
AcDbEntity
  8
M1
  6
CONTINUOUS
370
25
 62
     7
100
AcDbLine
 10
1285.065454
 20
894.915548
 11
1285.065454
 21
795.588522
  0
LINE
  5
19B
100
AcDbEntity
  8
M1
  6
CONTINUOUS
370
25
 62
     7
100
AcDbLine
 10
1197.565454
 20
1164.915548
 11
1277.065454
 21
1164.914571
  0
LINE
  5
19C
100
AcDbEntity
  8
M1
  6
CONTINUOUS
370
25
 62
     7
100
AcDbLine
 10
1281.065454
 20
1134.915548
 11
1280.064355
 21
1134.915548
  0
LINE
  5
19D
100
AcDbEntity
  8
M1
  6
CONTINUOUS
370
25
 62
     7
100
AcDbLine
 10
1280.065576
 20
1163.667501
 11
1280.064355
 21
1134.915548
  0
LINE
  5
19E
100
AcDbEntity
  8
M1
  6
CONTINUOUS
370
25
 62
     7
100
AcDbLine
 10
1280.066552
 20
1161.916525
 11
1277.066552
 21
1164.915548
  0
LINE
  5
19F
100
AcDbEntity
  8
M1
  6
CONTINUOUS
370
25
 62
     7
100
AcDbLine
 10
1118.064385
 20
1164.914571
 11
1197.564355
 21
1164.915548
  0
LINE
  5
1A0
100
AcDbEntity
  8
M1
  6
CONTINUOUS
370
25
 62
     7
100
AcDbLine
 10
1115.064385
 20
1134.915548
 11
1114.064385
 21
1134.915548
  0
LINE
  5
1A1
100
AcDbEntity
  8
M1
  6
CONTINUOUS
370
25
 62
     7
100
AcDbLine
 10
1115.065484
 20
1161.915548
 11
1115.065484
 21
1134.915548
  0
LINE
  5
1A2
100
AcDbEntity
  8
M1
  6
CONTINUOUS
370
25
 62
     7
100
AcDbLine
 10
1115.064752
 20
1161.916525
 11
1118.063775
 21
1164.915548
  0
LINE
  5
1A3
100
AcDbEntity
  8
M1
  6
CONTINUOUS
370
25
 62
     7
100
AcDbLine
 10
1000.063348
 20
837.665548
 11
1000.063348
 21
1012.166525
  0
LINE
  5
1A4
100
AcDbEntity
  8
M1
  6
CONTINUOUS
370
25
 62
     7
100
AcDbLine
 10
1091.064385
 20
1139.915548
 11
1114.064385
 21
1139.915548
  0
LINE
  5
1A5
100
AcDbEntity
  8
M1
  6
CONTINUOUS
370
25
 62
     7
100
AcDbLine
 10
1087.277337
 20
1109.915548
 11
1088.064385
 21
1109.915548
  0
LINE
  5
1A6
100
AcDbEntity
  8
M1
  6
CONTINUOUS
370
25
 62
     7
100
AcDbLine
 10
1088.064385
 20
1136.915548
 11
1088.064385
 21
712.915548
  0
LINE
  5
1A7
100
AcDbEntity
  8
M1
  6
CONTINUOUS
370
25
 62
     7
100
AcDbLine
 10
1029.580438
 20
1017.497579
 11
1002.802545
 21
1015.155538
  0
LINE
  5
1A8
100
AcDbEntity
  8
M1
  6
CONTINUOUS
370
25
 62
     7
100
AcDbLine
 10
1048.420281
 20
1030.689596
 11
1084.557183
 21
1108.183492
  0
LINE
  5
1A9
100
AcDbEntity
  8
M1
  6
CONTINUOUS
370
25
 62
     7
100
AcDbLine
 10
1029.580377
 20
832.331564
 11
1002.802239
 21
834.674581
  0
LINE
  5
1AA
100
AcDbEntity
  8
M1
  6
CONTINUOUS
370
25
 62
     7
100
AcDbLine
 10
1048.420648
 20
819.142599
 11
1084.537652
 21
741.693624
  0
LINE
  5
1AB
100
AcDbEntity
  8
M1
  6
CONTINUOUS
370
25
 62
     7
100
AcDbLine
 10
1114.064385
 20
1139.915548
 11
1114.064385
 21
688.916525
  0
LINE
  5
1AC
100
AcDbEntity
  8
M1
  6
CONTINUOUS
370
25
 62
     7
100
AcDbLine
 10
1114.063348
 20
795.588522
 11
1103.063348
 21
795.588522
  0
LINE
  5
1AD
100
AcDbEntity
  8
M1
  6
CONTINUOUS
370
25
 62
     7
100
AcDbLine
 10
1114.063348
 20
894.915548
 11
1103.063348
 21
894.915548
  0
LINE
  5
1AE
100
AcDbEntity
  8
M1
  6
CONTINUOUS
370
25
 62
     7
100
AcDbLine
 10
1110.063348
 20
814.179586
 11
1103.063348
 21
814.179586
  0
LINE
  5
1AF
100
AcDbEntity
  8
M1
  6
CONTINUOUS
370
25
 62
     7
100
AcDbLine
 10
1100.063348
 20
891.915548
 11
1100.063348
 21
798.588522
  0
LINE
  5
1B0
100
AcDbEntity
  8
M1
  6
CONTINUOUS
370
25
 62
     7
100
AcDbLine
 10
1110.063348
 20
894.915548
 11
1110.063348
 21
795.588522
  0
LINE
  5
1B1
100
AcDbEntity
  8
M1
  6
CONTINUOUS
370
13
 62
     7
100
AcDbLine
 10
834.684136
 20
924.915548
 11
890.826043
 21
924.915548
  0
LINE
  5
1B2
100
AcDbEntity
  8
M1
  6
CONTINUOUS
370
25
 62
     7
100
AcDbLine
 10
874.964349
 20
886.415548
 11
874.964349
 21
957.415548
  0
LINE
  5
1B3
100
AcDbEntity
  8
M1
  6
CONTINUOUS
370
25
 62
     7
100
AcDbLine
 10
874.964349
 20
892.415548
 11
982.964349
 21
892.415548
  0
LINE
  5
1B4
100
AcDbEntity
  8
M1
  6
CONTINUOUS
370
25
 62
     7
100
AcDbLine
 10
984.964349
 20
889.915548
 11
986.565484
 21
889.915548
  0
LINE
  5
1B5
100
AcDbEntity
  8
M1
  6
CONTINUOUS
370
25
 62
     7
100
AcDbLine
 10
1307.063378
 20
1135.665548
 11
1307.063378
 21
1114.165548
  0
LINE
  5
1B6
100
AcDbEntity
  8
M1
  6
CONTINUOUS
370
25
 62
     7
100
AcDbLine
 10
1088.066339
 20
1135.665548
 11
1088.066339
 21
1114.165548
  0
LINE
  5
1B7
100
AcDbEntity
  8
M1
  6
CONTINUOUS
370
25
 62
     7
100
AcDbLine
 10
1115.064385
 20
1142.165548
 11
1115.064385
 21
1161.915548
  0
LINE
  5
1B8
100
AcDbEntity
  8
M1
  6
CONTINUOUS
370
13
 62
     7
100
AcDbLine
 10
1410.06437
 20
924.915548
 11
1364.824151
 21
924.915548
  0
LINE
  5
1B9
100
AcDbEntity
  8
M1
  6
CONTINUOUS
370
25
 62
     7
100
AcDbLine
 10
986.565484
 20
970.915548
 11
986.565484
 21
878.915548
  0
LINE
  5
1BA
100
AcDbEntity
  8
M1
  6
CONTINUOUS
370
25
 62
     7
100
AcDbLine
 10
986.565484
 20
878.915548
 11
995.534478
 21
878.915548
  0
LINE
  5
1BB
100
AcDbEntity
  8
M1
  6
CONTINUOUS
370
25
 62
     7
100
AcDbLine
 10
995.534478
 20
875.915548
 11
997.189385
 21
875.915548
  0
LINE
  5
1BC
100
AcDbEntity
  8
M1
  6
CONTINUOUS
370
25
 62
     7
100
AcDbLine
 10
997.18908
 20
875.915548
 11
1000.065179
 21
882.08254
  0
LINE
  5
1BD
100
AcDbEntity
  8
M1
  6
CONTINUOUS
370
25
 62
     7
100
AcDbLine
 10
1118.064446
 20
684.916525
 11
1197.564477
 21
684.91567
  0
LINE
  5
1BE
100
AcDbEntity
  8
M1
  6
CONTINUOUS
370
25
 62
     7
100
AcDbLine
 10
1114.064385
 20
688.916525
 11
1118.064385
 21
684.916525
  0
LINE
  5
1BF
100
AcDbEntity
  8
M1
  6
CONTINUOUS
370
25
 62
     7
100
AcDbLine
 10
1197.56527
 20
684.915426
 11
1277.06527
 21
684.916464
  0
LINE
  5
1C0
100
AcDbEntity
  8
M1
  6
CONTINUOUS
370
25
 62
     7
100
AcDbLine
 10
1281.064752
 20
688.916341
 11
1277.064752
 21
684.917318
  0
LINE
  5
1C1
100
AcDbEntity
  8
M1
  6
CONTINUOUS
370
25
 62
     7
100
AcDbLine
 10
1168.564355
 20
1164.914571
 11
1196.564355
 21
1164.914571
  0
LINE
  5
1C2
100
AcDbEntity
  8
M1
  6
CONTINUOUS
370
25
 62
     7
100
AcDbLine
 10
874.964349
 20
957.415548
 11
982.964349
 21
957.415548
  0
LINE
  5
1C3
100
AcDbEntity
  8
M1
  6
CONTINUOUS
370
25
 62
     7
100
AcDbLine
 10
984.964349
 20
959.915548
 11
986.565484
 21
959.915548
  0
LINE
  5
1C4
100
AcDbEntity
  8
M1
  6
CONTINUOUS
370
25
 62
     7
100
AcDbLine
 10
986.565484
 20
970.915548
 11
995.534478
 21
970.915548
  0
LINE
  5
1C5
100
AcDbEntity
  8
M1
  6
CONTINUOUS
370
25
 62
     7
100
AcDbLine
 10
995.534478
 20
973.915548
 11
997.189385
 21
973.915548
  0
LINE
  5
1C6
100
AcDbEntity
  8
M1
  6
CONTINUOUS
370
25
 62
     7
100
AcDbLine
 10
997.189385
 20
973.915548
 11
1000.065484
 21
967.748556
  0
LINE
  5
1C7
100
AcDbEntity
  8
M1
  6
CONTINUOUS
370
25
 62
     7
100
AcDbLine
 10
1055.626153
 20
924.915548
 11
1055.625176
 21
960.395528
  0
LINE
  5
1C8
100
AcDbEntity
  8
M1
  6
CONTINUOUS
370
25
 62
     7
100
AcDbLine
 10
1076.064385
 20
935.884542
 11
1076.064385
 21
960.395528
  0
LINE
  5
1C9
100
AcDbEntity
  8
M1
  6
CONTINUOUS
370
25
 62
     7
100
AcDbLine
 10
1058.626336
 20
963.395528
 11
1073.064385
 21
963.395528
  0
LINE
  5
1CA
100
AcDbEntity
  8
M1
  6
CONTINUOUS
370
25
 62
     7
100
AcDbLine
 10
1058.626336
 20
981.08254
 11
1073.064385
 21
981.08254
  0
LINE
  5
1CB
100
AcDbEntity
  8
M1
  6
CONTINUOUS
370
25
 62
     7
100
AcDbLine
 10
1055.626336
 20
984.08254
 11
1055.626336
 21
1029.188497
  0
LINE
  5
1CC
100
AcDbEntity
  8
M1
  6
CONTINUOUS
370
25
 62
     7
100
AcDbLine
 10
1076.064385
 20
984.08254
 11
1076.064385
 21
1029.188497
  0
LINE
  5
1CD
100
AcDbEntity
  8
M1
  6
CONTINUOUS
370
25
 62
     7
100
AcDbLine
 10
1058.626336
 20
1032.188497
 11
1073.064385
 21
1032.188497
  0
LINE
  5
1CE
100
AcDbEntity
  8
M1
  6
CONTINUOUS
370
25
 62
     7
100
AcDbLine
 10
1114.063348
 20
954.915548
 11
1103.063348
 21
954.915548
  0
LINE
  5
1CF
100
AcDbEntity
  8
M1
  6
CONTINUOUS
370
25
 62
     7
100
AcDbLine
 10
1100.063348
 20
957.915548
 11
1100.063348
 21
1051.242574
  0
LINE
  5
1D0
100
AcDbEntity
  8
M1
  6
CONTINUOUS
370
25
 62
     7
100
AcDbLine
 10
1114.063348
 20
1054.242574
 11
1103.063348
 21
1054.242574
  0
LINE
  5
1D1
100
AcDbEntity
  8
M1
  6
CONTINUOUS
370
25
 62
     7
100
AcDbLine
 10
1281.066369
 20
1054.242574
 11
1292.066369
 21
1054.242574
  0
LINE
  5
1D2
100
AcDbEntity
  8
M1
  6
CONTINUOUS
370
25
 62
     7
100
AcDbLine
 10
1295.066369
 20
957.915548
 11
1295.066369
 21
1051.242574
  0
LINE
  5
1D3
100
AcDbEntity
  8
M1
  6
CONTINUOUS
370
25
 62
     7
100
AcDbLine
 10
1281.066369
 20
954.915548
 11
1292.066369
 21
954.915548
  0
LINE
  5
1D4
100
AcDbEntity
  8
M1
  6
CONTINUOUS
370
25
 62
     7
100
AcDbLine
 10
1319.065454
 20
984.08254
 11
1319.065454
 21
1029.188497
  0
LINE
  5
1D5
100
AcDbEntity
  8
M1
  6
CONTINUOUS
370
25
 62
     7
100
AcDbLine
 10
1336.504357
 20
981.08254
 11
1322.065454
 21
981.08254
  0
LINE
  5
1D6
100
AcDbEntity
  8
M1
  6
CONTINUOUS
370
25
 62
     7
100
AcDbLine
 10
1339.504357
 20
984.08254
 11
1339.504357
 21
1029.188497
  0
LINE
  5
1D7
100
AcDbEntity
  8
M1
  6
CONTINUOUS
370
25
 62
     7
100
AcDbLine
 10
1336.504357
 20
1032.188497
 11
1322.065454
 21
1032.188497
  0
LINE
  5
1D8
100
AcDbEntity
  8
M1
  6
CONTINUOUS
370
25
 62
     7
100
AcDbLine
 10
1336.504357
 20
963.395528
 11
1322.065454
 21
963.395528
  0
LINE
  5
1D9
100
AcDbEntity
  8
M1
  6
CONTINUOUS
370
25
 62
     7
100
AcDbLine
 10
1339.504357
 20
924.915548
 11
1339.504357
 21
960.395528
  0
LINE
  5
1DA
100
AcDbEntity
  8
M1
  6
CONTINUOUS
370
25
 62
     7
100
AcDbLine
 10
1319.065362
 20
935.884542
 11
1319.066277
 21
960.395528
  0
LINE
  5
1DB
100
AcDbEntity
  8
M1
  6
CONTINUOUS
370
25
 62
     7
100
AcDbLine
 10
1091.064385
 20
709.915548
 11
1114.064385
 21
709.915548
  0
LINE
  5
1DC
100
AcDbEntity
  8
M1
  6
CONTINUOUS
370
25
 62
     7
100
AcDbLine
 10
1103.063348
 20
714.915548
 11
1114.064385
 21
714.915548
  0
LINE
  5
1DD
100
AcDbEntity
  8
M1
  6
CONTINUOUS
370
25
 62
     7
100
AcDbLine
 10
1295.066369
 20
750.16152
 11
1295.066369
 21
717.915548
  0
LINE
  5
1DE
100
AcDbEntity
  8
M1
  6
CONTINUOUS
370
25
 62
     7
100
AcDbLine
 10
1110.064385
 20
714.915548
 11
1110.064385
 21
753.16152
  0
LINE
  5
1DF
100
AcDbEntity
  8
M1
  6
CONTINUOUS
370
25
 62
     7
100
AcDbLine
 10
1304.064355
 20
709.915548
 11
1281.065454
 21
709.915548
  0
LINE
  5
1E0
100
AcDbEntity
  8
M1
  6
CONTINUOUS
370
25
 62
     7
100
AcDbLine
 10
1100.063348
 20
750.16152
 11
1100.063348
 21
717.915548
  0
LINE
  5
1E1
100
AcDbEntity
  8
M1
  6
CONTINUOUS
370
25
 62
     7
100
AcDbLine
 10
1292.066369
 20
714.915548
 11
1281.065454
 21
714.915548
  0
LINE
  5
1E2
100
AcDbEntity
  8
M1
  6
CONTINUOUS
370
25
 62
     7
100
AcDbLine
 10
1285.064355
 20
714.915548
 11
1285.064355
 21
753.16152
  0
LINE
  5
1E3
100
AcDbEntity
  8
M1
  6
CONTINUOUS
370
25
 62
     7
100
AcDbLine
 10
1114.064385
 20
753.16152
 11
1103.063348
 21
753.16152
  0
LINE
  5
1E4
100
AcDbEntity
  8
M1
  6
CONTINUOUS
370
25
 62
     7
100
AcDbLine
 10
1087.277337
 20
739.915548
 11
1088.064385
 21
739.915548
  0
LINE
  5
1E5
100
AcDbEntity
  8
M1
  6
CONTINUOUS
370
25
 62
     7
100
AcDbLine
 10
1307.852349
 20
739.915548
 11
1307.064355
 21
739.915548
  0
LINE
  5
1E6
100
AcDbEntity
  8
M1
  6
CONTINUOUS
370
25
 62
     7
100
AcDbLine
 10
1076.199334
 20
1135.884542
 11
1084.067376
 21
1135.884542
  0
LINE
  5
1E7
100
AcDbEntity
  8
M1
  6
CONTINUOUS
370
25
 62
     7
100
AcDbLine
 10
1084.067376
 20
1135.884542
 11
1084.067376
 21
1113.944601
  0
LINE
  5
1E8
100
AcDbEntity
  8
M1
  6
CONTINUOUS
370
25
 62
     7
100
AcDbLine
 10
1084.067376
 20
1113.944601
 11
1076.199334
 21
1113.944601
  0
LINE
  5
1E9
100
AcDbEntity
  8
M1
  6
CONTINUOUS
370
25
 62
     7
100
AcDbLine
 10
1075.067376
 20
1116.429586
 11
1075.067376
 21
1133.399557
  0
LINE
  5
1EA
100
AcDbEntity
  8
M1
  6
CONTINUOUS
370
25
 62
     7
100
AcDbLine
 10
1076.199334
 20
1130.914571
 11
1084.067376
 21
1130.914571
  0
LINE
  5
1EB
100
AcDbEntity
  8
M1
  6
CONTINUOUS
370
25
 62
     7
100
AcDbLine
 10
1084.067376
 20
1118.914571
 11
1076.199334
 21
1118.914571
  0
LINE
  5
1EC
100
AcDbEntity
  8
M1
  6
CONTINUOUS
370
25
 62
     7
100
AcDbLine
 10
1084.067376
 20
1135.665548
 11
1088.066339
 21
1135.665548
  0
LINE
  5
1ED
100
AcDbEntity
  8
M1
  6
CONTINUOUS
370
25
 62
     7
100
AcDbLine
 10
1088.066339
 20
1114.165548
 11
1084.067376
 21
1114.165548
  0
LINE
  5
1EE
100
AcDbEntity
  8
M1
  6
CONTINUOUS
370
25
 62
     7
100
AcDbLine
 10
1084.066339
 20
1114.165548
 11
1084.066339
 21
1135.665548
  0
LINE
  5
1EF
100
AcDbEntity
  8
M1
  6
CONTINUOUS
370
25
 62
     7
100
AcDbLine
 10
1084.066644
 20
1125.414571
 11
1088.064691
 21
1129.410543
  0
LINE
  5
1F0
100
AcDbEntity
  8
M1
  6
CONTINUOUS
370
25
 62
     7
100
AcDbLine
 10
1084.065789
 20
1121.413595
 11
1088.064752
 21
1125.413595
  0
LINE
  5
1F1
100
AcDbEntity
  8
M1
  6
CONTINUOUS
370
25
 62
     7
100
AcDbLine
 10
1284.065454
 20
1142.165548
 11
1280.065454
 21
1142.165548
  0
LINE
  5
1F2
100
AcDbEntity
  8
M1
  6
CONTINUOUS
370
25
 62
     7
100
AcDbLine
 10
1280.065362
 20
1163.667501
 11
1284.065362
 21
1163.666525
  0
LINE
  5
1F3
100
AcDbEntity
  8
M1
  6
CONTINUOUS
370
25
 62
     7
100
AcDbLine
 10
1284.065454
 20
1163.664571
 11
1284.065454
 21
1142.164571
  0
LINE
  5
1F4
100
AcDbEntity
  8
M1
  6
CONTINUOUS
370
25
 62
     7
100
AcDbLine
 10
1291.932366
 20
1141.944601
 11
1284.065454
 21
1141.944601
  0
LINE
  5
1F5
100
AcDbEntity
  8
M1
  6
CONTINUOUS
370
25
 62
     7
100
AcDbLine
 10
1284.065454
 20
1141.944601
 11
1284.065454
 21
1163.884542
  0
LINE
  5
1F6
100
AcDbEntity
  8
M1
  6
CONTINUOUS
370
25
 62
     7
100
AcDbLine
 10
1284.065667
 20
1163.884542
 11
1291.932549
 21
1163.884542
  0
LINE
  5
1F7
100
AcDbEntity
  8
M1
  6
CONTINUOUS
370
25
 62
     7
100
AcDbLine
 10
1293.065454
 20
1161.399557
 11
1293.065454
 21
1144.429586
  0
LINE
  5
1F8
100
AcDbEntity
  8
M1
  6
CONTINUOUS
370
25
 62
     7
100
AcDbLine
 10
1291.932366
 20
1146.914571
 11
1284.065454
 21
1146.914571
  0
LINE
  5
1F9
100
AcDbEntity
  8
M1
  6
CONTINUOUS
370
25
 62
     7
100
AcDbLine
 10
1284.065454
 20
1158.914571
 11
1291.932366
 21
1158.914571
  0
LINE
  5
1FA
100
AcDbEntity
  8
M1
  6
CONTINUOUS
370
25
 62
     7
100
AcDbLine
 10
1311.062676
 20
1125.415548
 11
1307.062768
 21
1121.416525
  0
LINE
  5
1FB
100
AcDbEntity
  8
M1
  6
CONTINUOUS
370
25
 62
     7
100
AcDbLine
 10
1311.064172
 20
1129.414571
 11
1307.06405
 21
1125.414571
  0
LINE
  5
1FC
100
AcDbEntity
  8
M1
  6
CONTINUOUS
370
25
 62
     7
100
AcDbLine
 10
1076.198358
 20
1075.871603
 11
1084.065484
 21
1075.871603
  0
LINE
  5
1FD
100
AcDbEntity
  8
M1
  6
CONTINUOUS
370
25
 62
     7
100
AcDbLine
 10
1084.065484
 20
1075.871603
 11
1084.065484
 21
1053.931539
  0
LINE
  5
1FE
100
AcDbEntity
  8
M1
  6
CONTINUOUS
370
25
 62
     7
100
AcDbLine
 10
1084.065484
 20
1053.931539
 11
1076.198358
 21
1053.931539
  0
LINE
  5
1FF
100
AcDbEntity
  8
M1
  6
CONTINUOUS
370
25
 62
     7
100
AcDbLine
 10
1075.065484
 20
1056.416525
 11
1075.065484
 21
1073.386495
  0
LINE
  5
200
100
AcDbEntity
  8
M1
  6
CONTINUOUS
370
25
 62
     7
100
AcDbLine
 10
1076.198358
 20
1070.90151
 11
1084.065484
 21
1070.90151
  0
LINE
  5
201
100
AcDbEntity
  8
M1
  6
CONTINUOUS
370
25
 62
     7
100
AcDbLine
 10
1084.065484
 20
1058.90151
 11
1076.198358
 21
1058.90151
  0
LINE
  5
202
100
AcDbEntity
  8
M1
  6
CONTINUOUS
370
25
 62
     7
100
AcDbLine
 10
1084.065484
 20
1075.652486
 11
1088.064385
 21
1075.652486
  0
LINE
  5
203
100
AcDbEntity
  8
M1
  6
CONTINUOUS
370
25
 62
     7
100
AcDbLine
 10
1088.064385
 20
1054.152486
 11
1084.065484
 21
1054.152486
  0
LINE
  5
204
100
AcDbEntity
  8
M1
  6
CONTINUOUS
370
25
 62
     7
100
AcDbLine
 10
1084.064385
 20
1054.152486
 11
1084.064385
 21
1075.652486
  0
LINE
  5
205
100
AcDbEntity
  8
M1
  6
CONTINUOUS
370
25
 62
     7
100
AcDbLine
 10
1084.064935
 20
1065.40151
 11
1088.063165
 21
1069.397482
  0
LINE
  5
206
100
AcDbEntity
  8
M1
  6
CONTINUOUS
370
25
 62
     7
100
AcDbLine
 10
1084.064752
 20
1061.40151
 11
1088.062737
 21
1065.400533
  0
LINE
  5
207
100
AcDbEntity
  8
M1
  6
CONTINUOUS
370
25
 62
     7
100
AcDbLine
 10
1285.066369
 20
1073.950582
 11
1281.066369
 21
1073.950582
  0
LINE
  5
208
100
AcDbEntity
  8
M1
  6
CONTINUOUS
370
25
 62
     7
100
AcDbLine
 10
1281.066369
 20
1095.450582
 11
1285.066369
 21
1095.450582
  0
LINE
  5
209
100
AcDbEntity
  8
M1
  6
CONTINUOUS
370
25
 62
     7
100
AcDbLine
 10
1285.066369
 20
1095.450582
 11
1285.066369
 21
1073.950582
  0
LINE
  5
20A
100
AcDbEntity
  8
M1
  6
CONTINUOUS
370
25
 62
     7
100
AcDbLine
 10
1292.933373
 20
1073.730489
 11
1285.066369
 21
1073.730489
  0
LINE
  5
20B
100
AcDbEntity
  8
M1
  6
CONTINUOUS
370
25
 62
     7
100
AcDbLine
 10
1285.066369
 20
1073.730489
 11
1285.066369
 21
1095.669576
  0
LINE
  5
20C
100
AcDbEntity
  8
M1
  6
CONTINUOUS
370
25
 62
     7
100
AcDbLine
 10
1285.066369
 20
1095.669576
 11
1292.933373
 21
1095.669576
  0
LINE
  5
20D
100
AcDbEntity
  8
M1
  6
CONTINUOUS
370
25
 62
     7
100
AcDbLine
 10
1294.066369
 20
1093.185568
 11
1294.066369
 21
1076.215597
  0
LINE
  5
20E
100
AcDbEntity
  8
M1
  6
CONTINUOUS
370
25
 62
     7
100
AcDbLine
 10
1292.933373
 20
1078.700582
 11
1285.066369
 21
1078.700582
  0
LINE
  5
20F
100
AcDbEntity
  8
M1
  6
CONTINUOUS
370
25
 62
     7
100
AcDbLine
 10
1285.066369
 20
1090.700582
 11
1292.933373
 21
1090.700582
  0
LINE
  5
210
100
AcDbEntity
  8
M1
  6
CONTINUOUS
370
25
 62
     7
100
AcDbLine
 10
1076.198358
 20
935.884542
 11
1084.065484
 21
935.884542
  0
LINE
  5
211
100
AcDbEntity
  8
M1
  6
CONTINUOUS
370
25
 62
     7
100
AcDbLine
 10
1084.065484
 20
935.884542
 11
1084.065484
 21
913.945577
  0
LINE
  5
212
100
AcDbEntity
  8
M1
  6
CONTINUOUS
370
25
 62
     7
100
AcDbLine
 10
1084.065484
 20
913.945577
 11
1076.198358
 21
913.945577
  0
LINE
  5
213
100
AcDbEntity
  8
M1
  6
CONTINUOUS
370
25
 62
     7
100
AcDbLine
 10
1075.065484
 20
916.430563
 11
1075.065484
 21
933.399557
  0
LINE
  5
214
100
AcDbEntity
  8
M1
  6
CONTINUOUS
370
25
 62
     7
100
AcDbLine
 10
1076.198358
 20
930.914571
 11
1084.065484
 21
930.914571
  0
LINE
  5
215
100
AcDbEntity
  8
M1
  6
CONTINUOUS
370
25
 62
     7
100
AcDbLine
 10
1084.065484
 20
918.914571
 11
1076.19848
 21
918.915548
  0
LINE
  5
216
100
AcDbEntity
  8
M1
  6
CONTINUOUS
370
25
 62
     7
100
AcDbLine
 10
1084.065484
 20
935.665548
 11
1088.064385
 21
935.665548
  0
LINE
  5
217
100
AcDbEntity
  8
M1
  6
CONTINUOUS
370
25
 62
     7
100
AcDbLine
 10
1088.064385
 20
914.165548
 11
1084.065484
 21
914.165548
  0
LINE
  5
218
100
AcDbEntity
  8
M1
  6
CONTINUOUS
370
25
 62
     7
100
AcDbLine
 10
1084.064385
 20
914.165548
 11
1084.064385
 21
935.665548
  0
LINE
  5
219
100
AcDbEntity
  8
M1
  6
CONTINUOUS
370
25
 62
     7
100
AcDbLine
 10
1084.065362
 20
925.414571
 11
1088.063348
 21
929.41152
  0
LINE
  5
21A
100
AcDbEntity
  8
M1
  6
CONTINUOUS
370
25
 62
     7
100
AcDbLine
 10
1084.064385
 20
921.414571
 11
1088.062493
 21
925.414571
  0
LINE
  5
21B
100
AcDbEntity
  8
M1
  6
CONTINUOUS
370
25
 62
     7
100
AcDbLine
 10
1285.066369
 20
914.165548
 11
1281.066369
 21
914.165548
  0
LINE
  5
21C
100
AcDbEntity
  8
M1
  6
CONTINUOUS
370
25
 62
     7
100
AcDbLine
 10
1281.066369
 20
935.665548
 11
1285.066369
 21
935.665548
  0
LINE
  5
21D
100
AcDbEntity
  8
M1
  6
CONTINUOUS
370
25
 62
     7
100
AcDbLine
 10
1285.066369
 20
935.665548
 11
1285.066369
 21
914.165548
  0
LINE
  5
21E
100
AcDbEntity
  8
M1
  6
CONTINUOUS
370
25
 62
     7
100
AcDbLine
 10
1292.933373
 20
913.945577
 11
1285.066369
 21
913.945577
  0
LINE
  5
21F
100
AcDbEntity
  8
M1
  6
CONTINUOUS
370
25
 62
     7
100
AcDbLine
 10
1285.066369
 20
913.945577
 11
1285.066369
 21
935.884542
  0
LINE
  5
220
100
AcDbEntity
  8
M1
  6
CONTINUOUS
370
25
 62
     7
100
AcDbLine
 10
1285.066369
 20
935.884542
 11
1292.933373
 21
935.884542
  0
LINE
  5
221
100
AcDbEntity
  8
M1
  6
CONTINUOUS
370
25
 62
     7
100
AcDbLine
 10
1294.066369
 20
933.399557
 11
1294.066369
 21
916.430563
  0
LINE
  5
222
100
AcDbEntity
  8
M1
  6
CONTINUOUS
370
25
 62
     7
100
AcDbLine
 10
1292.933373
 20
918.915548
 11
1285.066369
 21
918.915548
  0
LINE
  5
223
100
AcDbEntity
  8
M1
  6
CONTINUOUS
370
25
 62
     7
100
AcDbLine
 10
1285.066369
 20
930.915548
 11
1292.933251
 21
930.914571
  0
LINE
  5
224
100
AcDbEntity
  8
M1
  6
CONTINUOUS
370
25
 62
     7
100
AcDbLine
 10
1076.198358
 20
793.028585
 11
1084.065484
 21
793.028585
  0
LINE
  5
225
100
AcDbEntity
  8
M1
  6
CONTINUOUS
370
25
 62
     7
100
AcDbLine
 10
1084.065484
 20
793.028585
 11
1084.065484
 21
771.089559
  0
LINE
  5
226
100
AcDbEntity
  8
M1
  6
CONTINUOUS
370
25
 62
     7
100
AcDbLine
 10
1084.065484
 20
771.089559
 11
1076.198358
 21
771.089559
  0
LINE
  5
227
100
AcDbEntity
  8
M1
  6
CONTINUOUS
370
25
 62
     7
100
AcDbLine
 10
1075.065484
 20
773.574545
 11
1075.065484
 21
790.5436
  0
LINE
  5
228
100
AcDbEntity
  8
M1
  6
CONTINUOUS
370
25
 62
     7
100
AcDbLine
 10
1076.198358
 20
788.058553
 11
1084.065484
 21
788.058553
  0
LINE
  5
229
100
AcDbEntity
  8
M1
  6
CONTINUOUS
370
25
 62
     7
100
AcDbLine
 10
1084.06524
 20
776.058553
 11
1076.198235
 21
776.05953
  0
LINE
  5
22A
100
AcDbEntity
  8
M1
  6
CONTINUOUS
370
25
 62
     7
100
AcDbLine
 10
1084.06524
 20
792.812521
 11
1088.064141
 21
792.811544
  0
LINE
  5
22B
100
AcDbEntity
  8
M1
  6
CONTINUOUS
370
25
 62
     7
100
AcDbLine
 10
1088.064385
 20
771.30953
 11
1084.065484
 21
771.30953
  0
LINE
  5
22C
100
AcDbEntity
  8
M1
  6
CONTINUOUS
370
25
 62
     7
100
AcDbLine
 10
1084.064385
 20
771.30953
 11
1084.064385
 21
792.809591
  0
LINE
  5
22D
100
AcDbEntity
  8
M1
  6
CONTINUOUS
370
25
 62
     7
100
AcDbLine
 10
1084.06524
 20
782.558553
 11
1088.063348
 21
786.555563
  0
LINE
  5
22E
100
AcDbEntity
  8
M1
  6
CONTINUOUS
370
25
 62
     7
100
AcDbLine
 10
1084.064141
 20
778.558553
 11
1088.062188
 21
782.558553
  0
LINE
  5
22F
100
AcDbEntity
  8
M1
  6
CONTINUOUS
370
25
 62
     7
100
AcDbLine
 10
1076.198358
 20
734.449422
 11
1084.065484
 21
734.449422
  0
LINE
  5
230
100
AcDbEntity
  8
M1
  6
CONTINUOUS
370
25
 62
     7
100
AcDbLine
 10
1084.065484
 20
734.449422
 11
1084.065484
 21
712.510519
  0
LINE
  5
231
100
AcDbEntity
  8
M1
  6
CONTINUOUS
370
25
 62
     7
100
AcDbLine
 10
1084.065484
 20
712.510519
 11
1076.198358
 21
712.510519
  0
LINE
  5
232
100
AcDbEntity
  8
M1
  6
CONTINUOUS
370
25
 62
     7
100
AcDbLine
 10
1075.065484
 20
714.995565
 11
1075.065484
 21
731.964559
  0
LINE
  5
233
100
AcDbEntity
  8
M1
  6
CONTINUOUS
370
25
 62
     7
100
AcDbLine
 10
1076.198358
 20
729.480428
 11
1084.065484
 21
729.480428
  0
LINE
  5
234
100
AcDbEntity
  8
M1
  6
CONTINUOUS
370
25
 62
     7
100
AcDbLine
 10
1084.065179
 20
717.479635
 11
1076.198052
 21
717.480672
  0
LINE
  5
235
100
AcDbEntity
  8
M1
  6
CONTINUOUS
370
25
 62
     7
100
AcDbLine
 10
1084.065667
 20
734.232931
 11
1088.064568
 21
734.231832
  0
LINE
  5
236
100
AcDbEntity
  8
M1
  6
CONTINUOUS
370
25
 62
     7
100
AcDbLine
 10
1088.064385
 20
712.730428
 11
1084.065484
 21
712.730428
  0
LINE
  5
237
100
AcDbEntity
  8
M1
  6
CONTINUOUS
370
25
 62
     7
100
AcDbLine
 10
1084.064385
 20
712.730428
 11
1084.064385
 21
734.230428
  0
LINE
  5
238
100
AcDbEntity
  8
M1
  6
CONTINUOUS
370
25
 62
     7
100
AcDbLine
 10
1084.062676
 20
723.982259
 11
1088.060662
 21
727.979269
  0
LINE
  5
239
100
AcDbEntity
  8
M1
  6
CONTINUOUS
370
25
 62
     7
100
AcDbLine
 10
1084.064141
 20
719.979818
 11
1088.062249
 21
723.97994
  0
LINE
  5
23A
100
AcDbEntity
  8
M1
  6
CONTINUOUS
370
25
 62
     7
100
AcDbLine
 10
1285.066369
 20
751.510519
 11
1281.066369
 21
751.510519
  0
LINE
  5
23B
100
AcDbEntity
  8
M1
  6
CONTINUOUS
370
25
 62
     7
100
AcDbLine
 10
1281.066369
 20
773.010519
 11
1285.066369
 21
773.010519
  0
LINE
  5
23C
100
AcDbEntity
  8
M1
  6
CONTINUOUS
370
25
 62
     7
100
AcDbLine
 10
1285.066369
 20
773.010519
 11
1285.066369
 21
751.510519
  0
LINE
  5
23D
100
AcDbEntity
  8
M1
  6
CONTINUOUS
370
25
 62
     7
100
AcDbLine
 10
1292.933373
 20
751.290548
 11
1285.066369
 21
751.290548
  0
LINE
  5
23E
100
AcDbEntity
  8
M1
  6
CONTINUOUS
370
25
 62
     7
100
AcDbLine
 10
1285.066369
 20
751.290548
 11
1285.066369
 21
773.229513
  0
LINE
  5
23F
100
AcDbEntity
  8
M1
  6
CONTINUOUS
370
25
 62
     7
100
AcDbLine
 10
1285.066369
 20
773.229513
 11
1292.933373
 21
773.229513
  0
LINE
  5
240
100
AcDbEntity
  8
M1
  6
CONTINUOUS
370
25
 62
     7
100
AcDbLine
 10
1294.066369
 20
770.744527
 11
1294.066369
 21
753.775533
  0
LINE
  5
241
100
AcDbEntity
  8
M1
  6
CONTINUOUS
370
25
 62
     7
100
AcDbLine
 10
1291.815148
 20
756.260519
 11
1285.066369
 21
756.260519
  0
LINE
  5
242
100
AcDbEntity
  8
M1
  6
CONTINUOUS
370
25
 62
     7
100
AcDbLine
 10
1285.066369
 20
768.260519
 11
1292.933251
 21
768.259542
  0
LINE
  5
243
100
AcDbEntity
  8
M1
  6
CONTINUOUS
370
25
 62
     7
100
AcDbLine
 10
1285.066369
 20
684.730428
 11
1281.066369
 21
684.730428
  0
LINE
  5
244
100
AcDbEntity
  8
M1
  6
CONTINUOUS
370
25
 62
     7
100
AcDbLine
 10
1281.066369
 20
706.230428
 11
1285.066369
 21
706.230428
  0
LINE
  5
245
100
AcDbEntity
  8
M1
  6
CONTINUOUS
370
25
 62
     7
100
AcDbLine
 10
1285.066369
 20
706.230428
 11
1285.066369
 21
684.730428
  0
LINE
  5
246
100
AcDbEntity
  8
M1
  6
CONTINUOUS
370
25
 62
     7
100
AcDbLine
 10
1292.933373
 20
684.510519
 11
1285.066369
 21
684.510519
  0
LINE
  5
247
100
AcDbEntity
  8
M1
  6
CONTINUOUS
370
25
 62
     7
100
AcDbLine
 10
1285.066369
 20
684.510519
 11
1285.066369
 21
706.449422
  0
LINE
  5
248
100
AcDbEntity
  8
M1
  6
CONTINUOUS
370
25
 62
     7
100
AcDbLine
 10
1285.066369
 20
706.449422
 11
1292.933373
 21
706.449422
  0
LINE
  5
249
100
AcDbEntity
  8
M1
  6
CONTINUOUS
370
25
 62
     7
100
AcDbLine
 10
1294.066369
 20
703.965658
 11
1294.066369
 21
686.995565
  0
LINE
  5
24A
100
AcDbEntity
  8
M1
  6
CONTINUOUS
370
25
 62
     7
100
AcDbLine
 10
1292.933373
 20
689.480428
 11
1285.066369
 21
689.480428
  0
LINE
  5
24B
100
AcDbEntity
  8
M1
  6
CONTINUOUS
370
25
 62
     7
100
AcDbLine
 10
1285.066369
 20
701.480428
 11
1292.933373
 21
701.480428
  0
LINE
  5
24C
100
AcDbEntity
  8
M1
  6
CONTINUOUS
370
25
 62
     7
100
AcDbLine
 10
1285.066277
 20
698.984029
 11
1281.06527
 21
694.982137
  0
LINE
  5
24D
100
AcDbEntity
  8
M1
  6
CONTINUOUS
370
25
 62
     7
100
AcDbLine
 10
1285.066674
 20
694.983663
 11
1281.066674
 21
690.982626
  0
LINE
  5
24E
100
AcDbEntity
  8
M1
  6
CONTINUOUS
370
25
 62
     7
100
AcDbLine
 10
1311.064172
 20
1075.653585
 11
1307.06527
 21
1075.654562
  0
LINE
  5
24F
100
AcDbEntity
  8
M1
  6
CONTINUOUS
370
25
 62
     7
100
AcDbLine
 10
1307.065454
 20
1054.152486
 11
1311.064355
 21
1054.152486
  0
LINE
  5
250
100
AcDbEntity
  8
M1
  6
CONTINUOUS
370
25
 62
     7
100
AcDbLine
 10
1311.064355
 20
1054.152486
 11
1311.064355
 21
1075.652486
  0
LINE
  5
251
100
AcDbEntity
  8
M1
  6
CONTINUOUS
370
25
 62
     7
100
AcDbLine
 10
1284.066949
 20
1153.415548
 11
1280.068078
 21
1149.416525
  0
LINE
  5
252
100
AcDbEntity
  8
M1
  6
CONTINUOUS
370
25
 62
     7
100
AcDbLine
 10
1284.065362
 20
1157.417501
 11
1280.066552
 21
1153.417501
  0
LINE
  5
253
100
AcDbEntity
  8
M1
  6
CONTINUOUS
370
25
 62
     7
100
AcDbLine
 10
1318.930352
 20
1075.871603
 11
1311.064355
 21
1075.870504
  0
LINE
  5
254
100
AcDbEntity
  8
M1
  6
CONTINUOUS
370
25
 62
     7
100
AcDbLine
 10
1311.063378
 20
1075.871603
 11
1311.063378
 21
1053.931539
  0
LINE
  5
255
100
AcDbEntity
  8
M1
  6
CONTINUOUS
370
25
 62
     7
100
AcDbLine
 10
1311.064355
 20
1053.931539
 11
1318.930352
 21
1053.931539
  0
LINE
  5
256
100
AcDbEntity
  8
M1
  6
CONTINUOUS
370
25
 62
     7
100
AcDbLine
 10
1320.063378
 20
1056.416525
 11
1320.063378
 21
1073.386495
  0
LINE
  5
257
100
AcDbEntity
  8
M1
  6
CONTINUOUS
370
25
 62
     7
100
AcDbLine
 10
1318.930352
 20
1070.90151
 11
1311.064355
 21
1070.90151
  0
LINE
  5
258
100
AcDbEntity
  8
M1
  6
CONTINUOUS
370
25
 62
     7
100
AcDbLine
 10
1311.064355
 20
1058.90151
 11
1318.930352
 21
1058.90151
  0
LINE
  5
259
100
AcDbEntity
  8
M1
  6
CONTINUOUS
370
25
 62
     7
100
AcDbLine
 10
1311.064355
 20
935.665548
 11
1307.065454
 21
935.665548
  0
LINE
  5
25A
100
AcDbEntity
  8
M1
  6
CONTINUOUS
370
25
 62
     7
100
AcDbLine
 10
1307.065454
 20
914.165548
 11
1311.064355
 21
914.165548
  0
LINE
  5
25B
100
AcDbEntity
  8
M1
  6
CONTINUOUS
370
25
 62
     7
100
AcDbLine
 10
1311.064355
 20
914.165548
 11
1311.064355
 21
935.665548
  0
LINE
  5
25C
100
AcDbEntity
  8
M1
  6
CONTINUOUS
370
25
 62
     7
100
AcDbLine
 10
1311.063256
 20
925.416525
 11
1307.064355
 21
921.416525
  0
LINE
  5
25D
100
AcDbEntity
  8
M1
  6
CONTINUOUS
370
25
 62
     7
100
AcDbLine
 10
1311.064874
 20
929.414571
 11
1307.06585
 21
925.415548
  0
LINE
  5
25E
100
AcDbEntity
  8
M1
  6
CONTINUOUS
370
25
 62
     7
100
AcDbLine
 10
1318.930352
 20
935.884542
 11
1311.064355
 21
935.884542
  0
LINE
  5
25F
100
AcDbEntity
  8
M1
  6
CONTINUOUS
370
25
 62
     7
100
AcDbLine
 10
1311.063378
 20
935.884542
 11
1311.063378
 21
913.945577
  0
LINE
  5
260
100
AcDbEntity
  8
M1
  6
CONTINUOUS
370
25
 62
     7
100
AcDbLine
 10
1311.064355
 20
913.945577
 11
1318.930352
 21
913.945577
  0
LINE
  5
261
100
AcDbEntity
  8
M1
  6
CONTINUOUS
370
25
 62
     7
100
AcDbLine
 10
1320.063378
 20
916.430563
 11
1320.063378
 21
933.399557
  0
LINE
  5
262
100
AcDbEntity
  8
M1
  6
CONTINUOUS
370
25
 62
     7
100
AcDbLine
 10
1318.930352
 20
930.914571
 11
1311.064355
 21
930.914571
  0
LINE
  5
263
100
AcDbEntity
  8
M1
  6
CONTINUOUS
370
25
 62
     7
100
AcDbLine
 10
1311.064355
 20
918.915548
 11
1318.930352
 21
918.915548
  0
LINE
  5
264
100
AcDbEntity
  8
M1
  6
CONTINUOUS
370
25
 62
     7
100
AcDbLine
 10
1311.064355
 20
792.809591
 11
1307.065454
 21
792.809591
  0
LINE
  5
265
100
AcDbEntity
  8
M1
  6
CONTINUOUS
370
25
 62
     7
100
AcDbLine
 10
1307.065454
 20
771.30953
 11
1311.064355
 21
771.30953
  0
LINE
  5
266
100
AcDbEntity
  8
M1
  6
CONTINUOUS
370
25
 62
     7
100
AcDbLine
 10
1311.064355
 20
771.30953
 11
1311.064355
 21
792.809591
  0
LINE
  5
267
100
AcDbEntity
  8
M1
  6
CONTINUOUS
370
25
 62
     7
100
AcDbLine
 10
1311.06347
 20
782.560568
 11
1307.064568
 21
778.560568
  0
LINE
  5
268
100
AcDbEntity
  8
M1
  6
CONTINUOUS
370
25
 62
     7
100
AcDbLine
 10
1311.063867
 20
786.560568
 11
1307.064965
 21
782.560568
  0
LINE
  5
269
100
AcDbEntity
  8
M1
  6
CONTINUOUS
370
25
 62
     7
100
AcDbLine
 10
1318.930352
 20
793.028585
 11
1311.064355
 21
793.028585
  0
LINE
  5
26A
100
AcDbEntity
  8
M1
  6
CONTINUOUS
370
25
 62
     7
100
AcDbLine
 10
1311.063378
 20
793.028585
 11
1311.063378
 21
771.089559
  0
LINE
  5
26B
100
AcDbEntity
  8
M1
  6
CONTINUOUS
370
25
 62
     7
100
AcDbLine
 10
1311.064355
 20
771.089559
 11
1318.930352
 21
771.089559
  0
LINE
  5
26C
100
AcDbEntity
  8
M1
  6
CONTINUOUS
370
25
 62
     7
100
AcDbLine
 10
1320.063378
 20
773.574545
 11
1320.063378
 21
790.5436
  0
LINE
  5
26D
100
AcDbEntity
  8
M1
  6
CONTINUOUS
370
25
 62
     7
100
AcDbLine
 10
1318.930352
 20
788.058553
 11
1311.064355
 21
788.058553
  0
LINE
  5
26E
100
AcDbEntity
  8
M1
  6
CONTINUOUS
370
25
 62
     7
100
AcDbLine
 10
1311.064355
 20
776.05953
 11
1318.930352
 21
776.05953
  0
LINE
  5
26F
100
AcDbEntity
  8
M1
  6
CONTINUOUS
370
25
 62
     7
100
AcDbLine
 10
1311.064355
 20
734.230428
 11
1307.065454
 21
734.230428
  0
LINE
  5
270
100
AcDbEntity
  8
M1
  6
CONTINUOUS
370
25
 62
     7
100
AcDbLine
 10
1307.065454
 20
712.730428
 11
1311.064355
 21
712.730428
  0
LINE
  5
271
100
AcDbEntity
  8
M1
  6
CONTINUOUS
370
25
 62
     7
100
AcDbLine
 10
1311.064355
 20
712.730428
 11
1311.064355
 21
734.230428
  0
LINE
  5
272
100
AcDbEntity
  8
M1
  6
CONTINUOUS
370
25
 62
     7
100
AcDbLine
 10
1311.063867
 20
723.981161
 11
1307.064874
 21
719.981039
  0
LINE
  5
273
100
AcDbEntity
  8
M1
  6
CONTINUOUS
370
25
 62
     7
100
AcDbLine
 10
1311.063775
 20
727.981161
 11
1307.064752
 21
723.981039
  0
LINE
  5
274
100
AcDbEntity
  8
M1
  6
CONTINUOUS
370
25
 62
     7
100
AcDbLine
 10
1318.930352
 20
734.449422
 11
1311.064355
 21
734.449422
  0
LINE
  5
275
100
AcDbEntity
  8
M1
  6
CONTINUOUS
370
25
 62
     7
100
AcDbLine
 10
1311.063378
 20
734.449422
 11
1311.063378
 21
712.510519
  0
LINE
  5
276
100
AcDbEntity
  8
M1
  6
CONTINUOUS
370
25
 62
     7
100
AcDbLine
 10
1311.064355
 20
712.510519
 11
1318.930352
 21
712.510519
  0
LINE
  5
277
100
AcDbEntity
  8
M1
  6
CONTINUOUS
370
25
 62
     7
100
AcDbLine
 10
1320.063378
 20
714.995565
 11
1320.063378
 21
731.964559
  0
LINE
  5
278
100
AcDbEntity
  8
M1
  6
CONTINUOUS
370
25
 62
     7
100
AcDbLine
 10
1318.930261
 20
729.480734
 11
1311.064172
 21
729.479757
  0
LINE
  5
279
100
AcDbEntity
  8
M1
  6
CONTINUOUS
370
25
 62
     7
100
AcDbLine
 10
1311.064355
 20
717.480428
 11
1318.930352
 21
717.480428
  0
LINE
  5
27A
100
AcDbEntity
  8
M1
  6
CONTINUOUS
370
25
 62
     7
100
AcDbLine
 10
1284.06347
 20
542.925741
 11
1280.06347
 21
542.925741
  0
LINE
  5
27B
100
AcDbEntity
  8
M1
  6
CONTINUOUS
370
25
 62
     7
100
AcDbLine
 10
1280.06347
 20
564.425741
 11
1284.06347
 21
564.425741
  0
LINE
  5
27C
100
AcDbEntity
  8
M1
  6
CONTINUOUS
370
25
 62
     7
100
AcDbLine
 10
1284.06347
 20
564.425741
 11
1284.06347
 21
542.925741
  0
LINE
  5
27D
100
AcDbEntity
  8
M1
  6
CONTINUOUS
370
25
 62
     7
100
AcDbLine
 10
1291.930352
 20
542.70577
 11
1284.06347
 21
542.70577
  0
LINE
  5
27E
100
AcDbEntity
  8
M1
  6
CONTINUOUS
370
25
 62
     7
100
AcDbLine
 10
1284.06347
 20
542.70577
 11
1284.06347
 21
564.644735
  0
LINE
  5
27F
100
AcDbEntity
  8
M1
  6
CONTINUOUS
370
25
 62
     7
100
AcDbLine
 10
1284.06347
 20
564.644735
 11
1291.930352
 21
564.644735
  0
LINE
  5
280
100
AcDbEntity
  8
M1
  6
CONTINUOUS
370
25
 62
     7
100
AcDbLine
 10
1293.06347
 20
562.15975
 11
1293.06347
 21
545.190756
  0
LINE
  5
281
100
AcDbEntity
  8
M1
  6
CONTINUOUS
370
25
 62
     7
100
AcDbLine
 10
1291.930352
 20
547.675741
 11
1284.06347
 21
547.675741
  0
LINE
  5
282
100
AcDbEntity
  8
M1
  6
CONTINUOUS
370
25
 62
     7
100
AcDbLine
 10
1284.063378
 20
559.675741
 11
1291.930261
 21
559.674825
  0
LINE
  5
283
100
AcDbEntity
  8
M1
  6
CONTINUOUS
370
25
 62
     7
100
AcDbLine
 10
1076.20025
 20
536.644735
 11
1084.067376
 21
536.644735
  0
LINE
  5
284
100
AcDbEntity
  8
M1
  6
CONTINUOUS
370
25
 62
     7
100
AcDbLine
 10
1084.067376
 20
536.644735
 11
1084.067376
 21
514.70577
  0
LINE
  5
285
100
AcDbEntity
  8
M1
  6
CONTINUOUS
370
25
 62
     7
100
AcDbLine
 10
1084.067376
 20
514.704855
 11
1076.20025
 21
514.705831
  0
LINE
  5
286
100
AcDbEntity
  8
M1
  6
CONTINUOUS
370
25
 62
     7
100
AcDbLine
 10
1075.067376
 20
517.190756
 11
1075.067376
 21
534.15975
  0
LINE
  5
287
100
AcDbEntity
  8
M1
  6
CONTINUOUS
370
25
 62
     7
100
AcDbLine
 10
1076.20025
 20
531.674764
 11
1084.067376
 21
531.674764
  0
LINE
  5
288
100
AcDbEntity
  8
M1
  6
CONTINUOUS
370
25
 62
     7
100
AcDbLine
 10
1084.067376
 20
519.674764
 11
1076.20025
 21
519.674764
  0
LINE
  5
289
100
AcDbEntity
  8
M1
  6
CONTINUOUS
370
25
 62
     7
100
AcDbLine
 10
1084.067376
 20
536.425741
 11
1088.066339
 21
536.425741
  0
LINE
  5
28A
100
AcDbEntity
  8
M1
  6
CONTINUOUS
370
25
 62
     7
100
AcDbLine
 10
1088.066339
 20
514.925741
 11
1084.067376
 21
514.925741
  0
LINE
  5
28B
100
AcDbEntity
  8
M1
  6
CONTINUOUS
370
25
 62
     7
100
AcDbLine
 10
1084.066339
 20
514.925741
 11
1084.066339
 21
536.425741
  0
LINE
  5
28C
100
AcDbEntity
  8
M1
  6
CONTINUOUS
370
25
 62
     7
100
AcDbLine
 10
1084.066583
 20
526.175863
 11
1088.064446
 21
530.171835
  0
LINE
  5
28D
100
AcDbEntity
  8
M1
  6
CONTINUOUS
370
25
 62
     7
100
AcDbLine
 10
1084.065667
 20
522.175131
 11
1088.063592
 21
526.174154
  0
LINE
  5
28E
100
AcDbEntity
  8
M1
  6
CONTINUOUS
370
25
 62
     7
100
AcDbLine
 10
1311.063378
 20
536.425741
 11
1307.063378
 21
536.425741
  0
LINE
  5
28F
100
AcDbEntity
  8
M1
  6
CONTINUOUS
370
25
 62
     7
100
AcDbLine
 10
1311.063378
 20
514.925741
 11
1311.063378
 21
536.425741
  0
LINE
  5
290
100
AcDbEntity
  8
M1
  6
CONTINUOUS
370
25
 62
     7
100
AcDbLine
 10
1311.062371
 20
536.644735
 11
1311.062371
 21
514.70577
  0
LINE
  5
291
100
AcDbEntity
  8
M1
  6
CONTINUOUS
370
25
 62
     7
100
AcDbLine
 10
1076.198358
 20
336.644766
 11
1084.065484
 21
336.644766
  0
LINE
  5
292
100
AcDbEntity
  8
M1
  6
CONTINUOUS
370
25
 62
     7
100
AcDbLine
 10
1084.065484
 20
336.644766
 11
1084.065484
 21
314.70574
  0
LINE
  5
293
100
AcDbEntity
  8
M1
  6
CONTINUOUS
370
25
 62
     7
100
AcDbLine
 10
1084.065484
 20
314.70574
 11
1076.198358
 21
314.70574
  0
LINE
  5
294
100
AcDbEntity
  8
M1
  6
CONTINUOUS
370
25
 62
     7
100
AcDbLine
 10
1075.065484
 20
317.190756
 11
1075.065484
 21
334.160757
  0
LINE
  5
295
100
AcDbEntity
  8
M1
  6
CONTINUOUS
370
25
 62
     7
100
AcDbLine
 10
1076.198358
 20
331.675741
 11
1084.065484
 21
331.675741
  0
LINE
  5
296
100
AcDbEntity
  8
M1
  6
CONTINUOUS
370
25
 62
     7
100
AcDbLine
 10
1084.065484
 20
319.675741
 11
1076.198358
 21
319.675741
  0
LINE
  5
297
100
AcDbEntity
  8
M1
  6
CONTINUOUS
370
25
 62
     7
100
AcDbLine
 10
1084.065484
 20
336.427267
 11
1088.064385
 21
336.426168
  0
LINE
  5
298
100
AcDbEntity
  8
M1
  6
CONTINUOUS
370
25
 62
     7
100
AcDbLine
 10
1088.064385
 20
314.927053
 11
1084.065484
 21
314.926046
  0
LINE
  5
299
100
AcDbEntity
  8
M1
  6
CONTINUOUS
370
25
 62
     7
100
AcDbLine
 10
1084.064385
 20
314.925741
 11
1084.064385
 21
336.425741
  0
LINE
  5
29A
100
AcDbEntity
  8
M1
  6
CONTINUOUS
370
25
 62
     7
100
AcDbLine
 10
1084.063958
 20
326.176046
 11
1088.062188
 21
330.173147
  0
LINE
  5
29B
100
AcDbEntity
  8
M1
  6
CONTINUOUS
370
25
 62
     7
100
AcDbLine
 10
1084.064385
 20
322.174764
 11
1088.062371
 21
326.174764
  0
LINE
  5
29C
100
AcDbEntity
  8
M1
  6
CONTINUOUS
370
25
 62
     7
100
AcDbLine
 10
1311.065454
 20
477.847738
 11
1307.065454
 21
477.847738
  0
LINE
  5
29D
100
AcDbEntity
  8
M1
  6
CONTINUOUS
370
25
 62
     7
100
AcDbLine
 10
1307.065454
 20
456.347738
 11
1311.065454
 21
456.347738
  0
LINE
  5
29E
100
AcDbEntity
  8
M1
  6
CONTINUOUS
370
25
 62
     7
100
AcDbLine
 10
1311.065454
 20
456.347738
 11
1311.065454
 21
477.847738
  0
LINE
  5
29F
100
AcDbEntity
  8
M1
  6
CONTINUOUS
370
25
 62
     7
100
AcDbLine
 10
1284.063775
 20
554.177328
 11
1280.063775
 21
550.177328
  0
LINE
  5
2A0
100
AcDbEntity
  8
M1
  6
CONTINUOUS
370
25
 62
     7
100
AcDbLine
 10
1284.063378
 20
558.176839
 11
1280.063378
 21
554.177938
  0
LINE
  5
2A1
100
AcDbEntity
  8
M1
  6
CONTINUOUS
370
25
 62
     7
100
AcDbLine
 10
1318.931359
 20
478.066732
 11
1311.065454
 21
478.066732
  0
LINE
  5
2A2
100
AcDbEntity
  8
M1
  6
CONTINUOUS
370
25
 62
     7
100
AcDbLine
 10
1311.064355
 20
478.066732
 11
1311.064355
 21
456.127767
  0
LINE
  5
2A3
100
AcDbEntity
  8
M1
  6
CONTINUOUS
370
25
 62
     7
100
AcDbLine
 10
1311.065454
 20
456.127767
 11
1318.931359
 21
456.127767
  0
LINE
  5
2A4
100
AcDbEntity
  8
M1
  6
CONTINUOUS
370
25
 62
     7
100
AcDbLine
 10
1320.064355
 20
458.611776
 11
1320.064355
 21
475.581747
  0
LINE
  5
2A5
100
AcDbEntity
  8
M1
  6
CONTINUOUS
370
25
 62
     7
100
AcDbLine
 10
1318.931359
 20
473.096761
 11
1311.065454
 21
473.096761
  0
LINE
  5
2A6
100
AcDbEntity
  8
M1
  6
CONTINUOUS
370
25
 62
     7
100
AcDbLine
 10
1311.065454
 20
461.096761
 11
1318.931359
 21
461.096761
  0
LINE
  5
2A7
100
AcDbEntity
  8
M1
  6
CONTINUOUS
370
25
 62
     7
100
AcDbLine
 10
1076.198358
 20
478.066732
 11
1084.065484
 21
478.066732
  0
LINE
  5
2A8
100
AcDbEntity
  8
M1
  6
CONTINUOUS
370
25
 62
     7
100
AcDbLine
 10
1084.065484
 20
478.066732
 11
1084.065484
 21
456.127767
  0
LINE
  5
2A9
100
AcDbEntity
  8
M1
  6
CONTINUOUS
370
25
 62
     7
100
AcDbLine
 10
1084.065179
 20
456.126852
 11
1076.198174
 21
456.127828
  0
LINE
  5
2AA
100
AcDbEntity
  8
M1
  6
CONTINUOUS
370
25
 62
     7
100
AcDbLine
 10
1075.065484
 20
458.611776
 11
1075.065484
 21
475.581747
  0
LINE
  5
2AB
100
AcDbEntity
  8
M1
  6
CONTINUOUS
370
25
 62
     7
100
AcDbLine
 10
1076.198358
 20
473.096761
 11
1084.065484
 21
473.096761
  0
LINE
  5
2AC
100
AcDbEntity
  8
M1
  6
CONTINUOUS
370
25
 62
     7
100
AcDbLine
 10
1084.065484
 20
461.096761
 11
1076.198358
 21
461.096761
  0
LINE
  5
2AD
100
AcDbEntity
  8
M1
  6
CONTINUOUS
370
25
 62
     7
100
AcDbLine
 10
1084.065484
 20
477.847738
 11
1088.064385
 21
477.847738
  0
LINE
  5
2AE
100
AcDbEntity
  8
M1
  6
CONTINUOUS
370
25
 62
     7
100
AcDbLine
 10
1088.064385
 20
456.347738
 11
1084.065484
 21
456.347738
  0
LINE
  5
2AF
100
AcDbEntity
  8
M1
  6
CONTINUOUS
370
25
 62
     7
100
AcDbLine
 10
1084.064385
 20
456.347738
 11
1084.064385
 21
477.847738
  0
LINE
  5
2B0
100
AcDbEntity
  8
M1
  6
CONTINUOUS
370
25
 62
     7
100
AcDbLine
 10
1084.064141
 20
467.597982
 11
1088.062249
 21
471.593954
  0
LINE
  5
2B1
100
AcDbEntity
  8
M1
  6
CONTINUOUS
370
25
 62
     7
100
AcDbLine
 10
1084.064141
 20
463.597128
 11
1088.062249
 21
467.596029
  0
LINE
  5
2B2
100
AcDbEntity
  8
M1
  6
CONTINUOUS
370
25
 62
     7
100
AcDbLine
 10
1311.065454
 20
336.425741
 11
1307.065454
 21
336.425741
  0
LINE
  5
2B3
100
AcDbEntity
  8
M1
  6
CONTINUOUS
370
25
 62
     7
100
AcDbLine
 10
1307.065454
 20
314.925741
 11
1311.065454
 21
314.925741
  0
LINE
  5
2B4
100
AcDbEntity
  8
M1
  6
CONTINUOUS
370
25
 62
     7
100
AcDbLine
 10
1311.065454
 20
314.925741
 11
1311.065454
 21
336.425741
  0
LINE
  5
2B5
100
AcDbEntity
  8
M1
  6
CONTINUOUS
370
25
 62
     7
100
AcDbLine
 10
1311.065576
 20
326.175649
 11
1307.065576
 21
322.175649
  0
LINE
  5
2B6
100
AcDbEntity
  8
M1
  6
CONTINUOUS
370
25
 62
     7
100
AcDbLine
 10
1311.065576
 20
330.175649
 11
1307.065576
 21
326.175649
  0
LINE
  5
2B7
100
AcDbEntity
  8
M1
  6
CONTINUOUS
370
25
 62
     7
100
AcDbLine
 10
1318.931359
 20
336.644766
 11
1311.065454
 21
336.644766
  0
LINE
  5
2B8
100
AcDbEntity
  8
M1
  6
CONTINUOUS
370
25
 62
     7
100
AcDbLine
 10
1311.064355
 20
336.644766
 11
1311.064355
 21
314.70574
  0
LINE
  5
2B9
100
AcDbEntity
  8
M1
  6
CONTINUOUS
370
25
 62
     7
100
AcDbLine
 10
1311.065454
 20
314.70574
 11
1318.931359
 21
314.70574
  0
LINE
  5
2BA
100
AcDbEntity
  8
M1
  6
CONTINUOUS
370
25
 62
     7
100
AcDbLine
 10
1320.064355
 20
317.190756
 11
1320.064355
 21
334.160757
  0
LINE
  5
2BB
100
AcDbEntity
  8
M1
  6
CONTINUOUS
370
25
 62
     7
100
AcDbLine
 10
1318.931359
 20
331.675741
 11
1311.065454
 21
331.675741
  0
LINE
  5
2BC
100
AcDbEntity
  8
M1
  6
CONTINUOUS
370
25
 62
     7
100
AcDbLine
 10
1311.065454
 20
319.675741
 11
1318.931359
 21
319.675741
  0
LINE
  5
2BD
100
AcDbEntity
  8
M1
  6
CONTINUOUS
370
25
 62
     7
100
AcDbLine
 10
1285.064477
 20
476.146749
 11
1281.064477
 21
476.146749
  0
LINE
  5
2BE
100
AcDbEntity
  8
M1
  6
CONTINUOUS
370
25
 62
     7
100
AcDbLine
 10
1281.06466
 20
497.647543
 11
1285.06466
 21
497.646566
  0
LINE
  5
2BF
100
AcDbEntity
  8
M1
  6
CONTINUOUS
370
25
 62
     7
100
AcDbLine
 10
1285.064477
 20
497.645773
 11
1285.064477
 21
476.145773
  0
LINE
  5
2C0
100
AcDbEntity
  8
M1
  6
CONTINUOUS
370
25
 62
     7
100
AcDbLine
 10
1292.931359
 20
475.926778
 11
1285.064477
 21
475.926778
  0
LINE
  5
2C1
100
AcDbEntity
  8
M1
  6
CONTINUOUS
370
25
 62
     7
100
AcDbLine
 10
1285.064477
 20
475.926778
 11
1285.064477
 21
497.865743
  0
LINE
  5
2C2
100
AcDbEntity
  8
M1
  6
CONTINUOUS
370
25
 62
     7
100
AcDbLine
 10
1285.064355
 20
497.864828
 11
1292.931268
 21
497.865865
  0
LINE
  5
2C3
100
AcDbEntity
  8
M1
  6
CONTINUOUS
370
25
 62
     7
100
AcDbLine
 10
1294.064477
 20
495.380758
 11
1294.064477
 21
478.411764
  0
LINE
  5
2C4
100
AcDbEntity
  8
M1
  6
CONTINUOUS
370
25
 62
     7
100
AcDbLine
 10
1292.931359
 20
480.895773
 11
1285.064477
 21
480.895773
  0
LINE
  5
2C5
100
AcDbEntity
  8
M1
  6
CONTINUOUS
370
25
 62
     7
100
AcDbLine
 10
1285.064477
 20
492.895773
 11
1292.931359
 21
492.895773
  0
LINE
  5
2C6
100
AcDbEntity
  8
M1
  6
CONTINUOUS
370
25
 62
     7
100
AcDbLine
 10
1285.064477
 20
314.925741
 11
1281.064477
 21
314.925741
  0
LINE
  5
2C7
100
AcDbEntity
  8
M1
  6
CONTINUOUS
370
25
 62
     7
100
AcDbLine
 10
1281.064477
 20
336.425741
 11
1285.064477
 21
336.425741
  0
LINE
  5
2C8
100
AcDbEntity
  8
M1
  6
CONTINUOUS
370
25
 62
     7
100
AcDbLine
 10
1285.064477
 20
336.425741
 11
1285.064477
 21
314.925741
  0
LINE
  5
2C9
100
AcDbEntity
  8
M1
  6
CONTINUOUS
370
25
 62
     7
100
AcDbLine
 10
1292.931359
 20
314.70574
 11
1285.064477
 21
314.70574
  0
LINE
  5
2CA
100
AcDbEntity
  8
M1
  6
CONTINUOUS
370
25
 62
     7
100
AcDbLine
 10
1285.064477
 20
314.70574
 11
1285.064477
 21
336.644766
  0
LINE
  5
2CB
100
AcDbEntity
  8
M1
  6
CONTINUOUS
370
25
 62
     7
100
AcDbLine
 10
1285.064477
 20
336.644766
 11
1292.931359
 21
336.644766
  0
LINE
  5
2CC
100
AcDbEntity
  8
M1
  6
CONTINUOUS
370
25
 62
     7
100
AcDbLine
 10
1294.064477
 20
334.160757
 11
1294.064477
 21
317.190756
  0
LINE
  5
2CD
100
AcDbEntity
  8
M1
  6
CONTINUOUS
370
25
 62
     7
100
AcDbLine
 10
1292.931359
 20
319.675741
 11
1285.064477
 21
319.675741
  0
LINE
  5
2CE
100
AcDbEntity
  8
M1
  6
CONTINUOUS
370
25
 62
     7
100
AcDbLine
 10
1285.064477
 20
331.675741
 11
1292.931359
 21
331.675741
  0
LINE
  5
2CF
100
AcDbEntity
  8
M1
  6
CONTINUOUS
370
25
 62
     7
100
AcDbLine
 10
1307.065454
 20
510.675741
 11
1309.767358
 21
510.675741
  0
LINE
  5
2D0
100
AcDbEntity
  8
M1
  6
CONTINUOUS
370
25
 62
     7
100
AcDbLine
 10
1307.065454
 20
537.675741
 11
1307.065454
 21
510.675741
  0
LINE
  5
2D1
100
AcDbEntity
  8
M1
  6
CONTINUOUS
370
25
 62
     7
100
AcDbLine
 10
1360.065454
 20
415.675741
 11
1360.436364
 21
415.675741
  0
LINE
  5
2D2
100
AcDbEntity
  8
M1
  6
CONTINUOUS
370
25
 62
     7
100
AcDbLine
 10
1351.374078
 20
421.450033
 11
1309.767968
 21
510.676046
  0
LINE
  5
2D3
100
AcDbEntity
  8
M1
  6
CONTINUOUS
370
25
 62
     7
100
AcDbLine
 10
1351.373651
 20
229.902761
 11
1333.44555
 21
191.454855
  0
LINE
  5
2D4
100
AcDbEntity
  8
M1
  6
CONTINUOUS
370
25
 62
     7
100
AcDbLine
 10
1360.065454
 20
170.456747
 11
1360.065454
 21
415.68276
  0
LINE
  5
2D5
100
AcDbEntity
  8
M1
  6
CONTINUOUS
370
25
 62
     7
100
AcDbLine
 10
1311.067376
 20
514.924764
 11
1307.067376
 21
514.924764
  0
LINE
  5
2D6
100
AcDbEntity
  8
M1
  6
CONTINUOUS
370
25
 62
     7
100
AcDbLine
 10
1307.067376
 20
514.924764
 11
1307.067376
 21
536.424764
  0
LINE
  5
2D7
100
AcDbEntity
  8
M1
  6
CONTINUOUS
370
25
 62
     7
100
AcDbLine
 10
1307.067376
 20
536.424764
 11
1311.067376
 21
536.424764
  0
LINE
  5
2D8
100
AcDbEntity
  8
M1
  6
CONTINUOUS
370
25
 62
     7
100
AcDbLine
 10
1311.067376
 20
536.424764
 11
1311.067376
 21
514.924764
  0
LINE
  5
2D9
100
AcDbEntity
  8
M1
  6
CONTINUOUS
370
25
 62
     7
100
AcDbLine
 10
1318.93435
 20
514.704733
 11
1311.067376
 21
514.704733
  0
LINE
  5
2DA
100
AcDbEntity
  8
M1
  6
CONTINUOUS
370
25
 62
     7
100
AcDbLine
 10
1311.067376
 20
514.704733
 11
1311.067376
 21
536.643758
  0
LINE
  5
2DB
100
AcDbEntity
  8
M1
  6
CONTINUOUS
370
25
 62
     7
100
AcDbLine
 10
1311.067376
 20
536.643758
 11
1318.93435
 21
536.643758
  0
LINE
  5
2DC
100
AcDbEntity
  8
M1
  6
CONTINUOUS
370
25
 62
     7
100
AcDbLine
 10
1320.067376
 20
534.15975
 11
1320.067376
 21
517.189779
  0
LINE
  5
2DD
100
AcDbEntity
  8
M1
  6
CONTINUOUS
370
25
 62
     7
100
AcDbLine
 10
1318.93435
 20
519.674764
 11
1311.067376
 21
519.674764
  0
LINE
  5
2DE
100
AcDbEntity
  8
M1
  6
CONTINUOUS
370
25
 62
     7
100
AcDbLine
 10
1311.067254
 20
531.674825
 11
1318.934258
 21
531.673849
  0
LINE
  5
2DF
100
AcDbEntity
  8
M1
  6
CONTINUOUS
370
25
 62
     7
100
AcDbLine
 10
1348.398156
 20
145.435842
 11
1360.06527
 21
170.456869
  0
LINE
  5
2E0
100
AcDbEntity
  8
M1
  6
CONTINUOUS
370
25
 62
     7
100
AcDbLine
 10
1311.067468
 20
530.674642
 11
1307.067468
 21
526.674642
  0
LINE
  5
2E1
100
AcDbEntity
  8
M1
  6
CONTINUOUS
370
25
 62
     7
100
AcDbLine
 10
1311.067468
 20
525.674642
 11
1307.067468
 21
521.674642
  0
LINE
  5
2E2
100
AcDbEntity
  8
M1
  6
CONTINUOUS
370
25
 62
     7
100
AcDbLine
 10
1307.065454
 20
1109.915548
 11
1309.766351
 21
1109.915548
  0
LINE
  5
2E3
100
AcDbEntity
  8
M1
  6
CONTINUOUS
370
25
 62
     7
100
AcDbLine
 10
1360.065454
 20
1014.915548
 11
1360.436364
 21
1014.915548
  0
LINE
  5
2E4
100
AcDbEntity
  8
M1
  6
CONTINUOUS
370
25
 62
     7
100
AcDbLine
 10
1351.373773
 20
1020.689596
 11
1309.767663
 21
1109.915548
  0
LINE
  5
2E5
100
AcDbEntity
  8
M1
  6
CONTINUOUS
370
25
 62
     7
100
AcDbLine
 10
1360.065454
 20
834.90859
 11
1360.065454
 21
1014.922506
  0
LINE
  5
2E6
100
AcDbEntity
  8
M1
  6
CONTINUOUS
370
25
 62
     7
100
AcDbLine
 10
1311.067376
 20
1114.163595
 11
1307.067376
 21
1114.163595
  0
LINE
  5
2E7
100
AcDbEntity
  8
M1
  6
CONTINUOUS
370
25
 62
     7
100
AcDbLine
 10
1307.067376
 20
1114.163595
 11
1307.067376
 21
1135.663595
  0
LINE
  5
2E8
100
AcDbEntity
  8
M1
  6
CONTINUOUS
370
25
 62
     7
100
AcDbLine
 10
1307.067376
 20
1135.663595
 11
1311.067376
 21
1135.663595
  0
LINE
  5
2E9
100
AcDbEntity
  8
M1
  6
CONTINUOUS
370
25
 62
     7
100
AcDbLine
 10
1311.067376
 20
1135.663595
 11
1311.067376
 21
1114.163595
  0
LINE
  5
2EA
100
AcDbEntity
  8
M1
  6
CONTINUOUS
370
25
 62
     7
100
AcDbLine
 10
1318.93435
 20
1113.944601
 11
1311.067376
 21
1113.944601
  0
LINE
  5
2EB
100
AcDbEntity
  8
M1
  6
CONTINUOUS
370
25
 62
     7
100
AcDbLine
 10
1311.067376
 20
1113.944601
 11
1311.067376
 21
1135.883566
  0
LINE
  5
2EC
100
AcDbEntity
  8
M1
  6
CONTINUOUS
370
25
 62
     7
100
AcDbLine
 10
1311.067376
 20
1135.882589
 11
1318.93435
 21
1135.882589
  0
LINE
  5
2ED
100
AcDbEntity
  8
M1
  6
CONTINUOUS
370
25
 62
     7
100
AcDbLine
 10
1320.067376
 20
1133.39858
 11
1320.067376
 21
1116.429586
  0
LINE
  5
2EE
100
AcDbEntity
  8
M1
  6
CONTINUOUS
370
25
 62
     7
100
AcDbLine
 10
1318.93435
 20
1118.913595
 11
1311.067376
 21
1118.913595
  0
LINE
  5
2EF
100
AcDbEntity
  8
M1
  6
CONTINUOUS
370
25
 62
     7
100
AcDbLine
 10
1318.93435
 20
1130.913595
 11
1311.067376
 21
1130.913595
  0
LINE
  5
2F0
100
AcDbEntity
  8
M1
  6
CONTINUOUS
370
13
 62
     7
100
AcDbLine
 10
1355.48977
 20
325.675741
 11
1400.881066
 21
325.675741
  0
LINE
  5
2F1
100
AcDbEntity
  8
M1
  6
CONTINUOUS
370
25
 62
     7
100
AcDbLine
 10
514.391999
 20
546.177145
 11
512.227082
 21
551.404134
  0
LINE
  5
2F2
100
AcDbEntity
  8
M1
  6
CONTINUOUS
370
25
 62
     7
100
AcDbLine
 10
509.166046
 20
548.34194
 11
507.001007
 21
553.568868
  0
LINE
  5
2F3
100
AcDbEntity
  8
M1
  6
CONTINUOUS
370
25
 62
     7
100
AcDbLine
 10
1281.065362
 20
764.068563
 11
1285.066369
 21
768.06954
  0
LINE
  5
2F4
100
AcDbEntity
  8
M1
  6
CONTINUOUS
370
25
 62
     7
100
AcDbLine
 10
1281.065362
 20
758.411642
 11
1285.066369
 21
762.412618
  0
LINE
  5
2F5
100
AcDbEntity
  8
M1
  6
CONTINUOUS
370
25
 62
     7
100
AcDbLine
 10
1281.065362
 20
925.376485
 11
1285.066369
 21
929.377584
  0
LINE
  5
2F6
100
AcDbEntity
  8
M1
  6
CONTINUOUS
370
25
 62
     7
100
AcDbLine
 10
1281.065362
 20
919.719503
 11
1285.066369
 21
923.720602
  0
LINE
  5
2F7
100
AcDbEntity
  8
M1
  6
CONTINUOUS
370
25
 62
     7
100
AcDbLine
 10
1311.063378
 20
1069.402486
 11
1307.064568
 21
1065.402486
  0
LINE
  5
2F8
100
AcDbEntity
  8
M1
  6
CONTINUOUS
370
25
 62
     7
100
AcDbLine
 10
1311.064874
 20
1065.400533
 11
1307.06585
 21
1061.40151
  0
LINE
  5
2F9
100
AcDbEntity
  8
M1
  6
CONTINUOUS
370
25
 62
     7
100
AcDbLine
 10
1285.066461
 20
1089.203512
 11
1281.067559
 21
1085.203512
  0
LINE
  5
2FA
100
AcDbEntity
  8
M1
  6
CONTINUOUS
370
25
 62
     7
100
AcDbLine
 10
1285.067956
 20
1085.202535
 11
1281.068963
 21
1081.203512
  0
LINE
  5
2FB
100
AcDbEntity
  8
M1
  6
CONTINUOUS
370
25
 62
     7
100
AcDbLine
 10
1311.065454
 20
471.596944
 11
1307.065454
 21
467.597982
  0
LINE
  5
2FC
100
AcDbEntity
  8
M1
  6
CONTINUOUS
370
25
 62
     7
100
AcDbLine
 10
1311.065667
 20
467.597555
 11
1307.065576
 21
463.597555
  0
LINE
  5
2FD
100
AcDbEntity
  8
M1
  6
CONTINUOUS
370
25
 62
     7
100
AcDbLine
 10
1285.064477
 20
330.176962
 11
1281.064477
 21
326.177969
  0
LINE
  5
2FE
100
AcDbEntity
  8
M1
  6
CONTINUOUS
370
25
 62
     7
100
AcDbLine
 10
1285.06466
 20
326.177541
 11
1281.06466
 21
322.177541
  0
LINE
  5
2FF
100
AcDbEntity
  8
M1
  6
CONTINUOUS
370
25
 62
     7
100
AcDbLine
 10
1285.064355
 20
491.397543
 11
1281.064355
 21
487.39858
  0
LINE
  5
300
100
AcDbEntity
  8
M1
  6
CONTINUOUS
370
25
 62
     7
100
AcDbLine
 10
1285.06466
 20
487.398031
 11
1281.06466
 21
483.398031
  0
ARC
  5
301
100
AcDbEntity
  8
M1
  6
CONTINUOUS
370
25
 62
     7
100
AcDbCircle
 10
418.374054
 20
326.176046
 40
240.000046
100
AcDbArc
 50
251.440842
 51
288.558872
  0
ARC
  5
302
100
AcDbEntity
  8
M1
  6
CONTINUOUS
370
25
 62
     7
100
AcDbCircle
 10
418.374054
 20
326.176046
 40
214.999664
100
AcDbArc
 50
251.375854
 51
288.623859
  0
ARC
  5
303
100
AcDbEntity
  8
M1
  6
CONTINUOUS
370
25
 62
     7
100
AcDbCircle
 10
418.374054
 20
326.176046
 40
190.791122
100
AcDbArc
 50
95.014023
 51
129.98624
  0
ARC
  5
304
100
AcDbEntity
  8
M1
  6
CONTINUOUS
370
25
 62
     7
100
AcDbCircle
 10
418.374054
 20
326.176046
 40
190.79129
100
AcDbArc
 50
140.014221
 51
174.986012
  0
ARC
  5
305
100
AcDbEntity
  8
M1
  6
CONTINUOUS
370
25
 62
     7
100
AcDbCircle
 10
418.374054
 20
326.176046
 40
190.791107
100
AcDbArc
 50
185.013977
 51
219.985756
  0
ARC
  5
306
100
AcDbEntity
  8
M1
  6
CONTINUOUS
370
25
 62
     7
100
AcDbCircle
 10
418.374054
 20
326.176046
 40
190.791153
100
AcDbArc
 50
230.013779
 51
247.688908
  0
ARC
  5
307
100
AcDbEntity
  8
M1
  6
CONTINUOUS
370
25
 62
     7
100
AcDbCircle
 10
418.374054
 20
326.176046
 40
190.79097
100
AcDbArc
 50
275.013702
 51
288.703142
  0
ARC
  5
308
100
AcDbEntity
  8
M1
  6
CONTINUOUS
370
25
 62
     7
100
AcDbCircle
 10
418.374054
 20
326.176046
 40
190.790451
100
AcDbArc
 50
320.014008
 51
354.985962
  0
ARC
  5
309
100
AcDbEntity
  8
M1
  6
CONTINUOUS
370
25
 62
     7
100
AcDbCircle
 10
418.374054
 20
326.176046
 40
190.790024
100
AcDbArc
 50
5.01404
 51
39.985918
  0
ARC
  5
30A
100
AcDbEntity
  8
M1
  6
CONTINUOUS
370
25
 62
     7
100
AcDbCircle
 10
418.374054
 20
326.176046
 40
190.790466
100
AcDbArc
 50
50.014038
 51
84.986294
  0
CIRCLE
  5
30B
100
AcDbEntity
  8
M1
  6
CONTINUOUS
370
25
 62
     7
100
AcDbCircle
 10
418.374054
 20
326.176046
 40
74.999023
  0
CIRCLE
  5
30C
100
AcDbEntity
  8
M1
  6
CONTINUOUS
370
25
 62
     7
100
AcDbCircle
 10
418.374054
 20
326.176046
 40
66.999023
  0
CIRCLE
  5
30D
100
AcDbEntity
  8
M1
  6
CONTINUOUS
370
25
 62
     7
100
AcDbCircle
 10
418.374054
 20
326.176046
 40
89.999023
  0
ARC
  5
30E
100
AcDbEntity
  8
M1
  6
CONTINUOUS
370
25
 62
     7
100
AcDbCircle
 10
330.666046
 20
46.176153
 40
18.0
100
AcDbArc
 50
90.0
 51
163.872993
  0
ARC
  5
30F
100
AcDbEntity
  8
M1
  6
CONTINUOUS
370
25
 62
     7
100
AcDbCircle
 10
313.345978
 20
88.176061
 40
12.0
100
AcDbArc
 50
270.0
 51
342.000595
  0
ARC
  5
310
100
AcDbEntity
  8
M1
  6
CONTINUOUS
370
25
 62
     7
100
AcDbCircle
 10
341.563996
 20
81.176061
 40
4.999709
100
AcDbArc
 50
161.999969
 51
270.0
  0
ARC
  5
311
100
AcDbEntity
  8
M1
  6
CONTINUOUS
370
25
 62
     7
100
AcDbCircle
 10
362.870026
 20
240.59905
 40
12.000201
100
AcDbArc
 50
342.001465
 51
417.032936
  0
ARC
  5
312
100
AcDbEntity
  8
M1
  6
CONTINUOUS
370
25
 62
     7
100
AcDbCircle
 10
391.557038
 20
235.04006
 40
5.000213
100
AcDbArc
 50
73.609039
 51
162.004585
  0
ARC
  5
313
100
AcDbEntity
  8
M1
  6
CONTINUOUS
370
25
 62
     7
100
AcDbCircle
 10
418.374054
 20
326.176046
 40
190.790543
100
AcDbArc
 50
251.296478
 51
264.985667
  0
ARC
  5
314
100
AcDbEntity
  8
M1
  6
CONTINUOUS
370
25
 62
     7
100
AcDbCircle
 10
241.374054
 20
247.272054
 40
2.999735
100
AcDbArc
 50
24.018951
 51
180.0
  0
ARC
  5
315
100
AcDbEntity
  8
M1
  6
CONTINUOUS
370
25
 62
     7
100
AcDbCircle
 10
209.54007
 20
300.027059
 40
13.833984
100
AcDbArc
 50
0.0
 51
77.933395
  0
ARC
  5
316
100
AcDbEntity
  8
M1
  6
CONTINUOUS
370
25
 62
     7
100
AcDbCircle
 10
243.374054
 20
81.176061
 40
5.0
100
AcDbArc
 50
180.0
 51
270.0
  0
ARC
  5
317
100
AcDbEntity
  8
M1
  6
CONTINUOUS
370
25
 62
     7
100
AcDbCircle
 10
225.374054
 20
74.176061
 40
2.0
100
AcDbArc
 50
90.0
 51
180.0
  0
ARC
  5
318
100
AcDbEntity
  8
M1
  6
CONTINUOUS
370
25
 62
     7
100
AcDbCircle
 10
418.374054
 20
326.176046
 40
214.999527
100
AcDbArc
 50
213.153214
 51
248.175007
  0
ARC
  5
319
100
AcDbEntity
  8
M1
  6
CONTINUOUS
370
25
 62
     7
100
AcDbCircle
 10
418.374054
 20
326.176046
 40
239.999939
100
AcDbArc
 50
221.409607
 51
248.574198
  0
ARC
  5
31A
100
AcDbEntity
  8
M1
  6
CONTINUOUS
370
25
 62
     7
100
AcDbCircle
 10
311.374054
 20
74.176061
 40
2.0
100
AcDbArc
 50
0.0
 51
90.0
  0
ARC
  5
31B
100
AcDbEntity
  8
M1
  6
CONTINUOUS
370
25
 62
     7
100
AcDbCircle
 10
611.374054
 20
74.176061
 40
2.0
100
AcDbArc
 50
0.0
 51
90.0
  0
ARC
  5
31C
100
AcDbEntity
  8
M1
  6
CONTINUOUS
370
25
 62
     7
100
AcDbCircle
 10
506.083039
 20
46.176061
 40
17.999422
100
AcDbArc
 50
16.128151
 51
90.0
  0
ARC
  5
31D
100
AcDbEntity
  8
M1
  6
CONTINUOUS
370
25
 62
     7
100
AcDbCircle
 10
495.183014
 20
81.176061
 40
5.0
100
AcDbArc
 50
270.0
 51
377.997879
  0
ARC
  5
31E
100
AcDbEntity
  8
M1
  6
CONTINUOUS
370
25
 62
     7
100
AcDbCircle
 10
523.402008
 20
88.176061
 40
12.000211
100
AcDbArc
 50
197.998688
 51
270.0
  0
ARC
  5
31F
100
AcDbEntity
  8
M1
  6
CONTINUOUS
370
25
 62
     7
100
AcDbCircle
 10
473.876984
 20
240.59905
 40
12.000199
100
AcDbArc
 50
122.966591
 51
197.99855
  0
ARC
  5
320
100
AcDbEntity
  8
M1
  6
CONTINUOUS
370
25
 62
     7
100
AcDbCircle
 10
445.191071
 20
235.04006
 40
4.999714
100
AcDbArc
 50
18.000204
 51
106.404264
  0
ARC
  5
321
100
AcDbEntity
  8
M1
  6
CONTINUOUS
370
25
 62
     7
100
AcDbCircle
 10
595.374054
 20
247.271047
 40
3.0
100
AcDbArc
 50
0.0
 51
155.965073
  0
ARC
  5
322
100
AcDbEntity
  8
M1
  6
CONTINUOUS
370
25
 62
     7
100
AcDbCircle
 10
627.207062
 20
300.027059
 40
13.833704
100
AcDbArc
 50
102.067337
 51
180.0
  0
ARC
  5
323
100
AcDbEntity
  8
M1
  6
CONTINUOUS
370
25
 62
     7
100
AcDbCircle
 10
593.374054
 20
81.176061
 40
5.0
100
AcDbArc
 50
270.0
 51
360.0
  0
ARC
  5
324
100
AcDbEntity
  8
M1
  6
CONTINUOUS
370
25
 62
     7
100
AcDbCircle
 10
525.374054
 20
74.176061
 40
2.0
100
AcDbArc
 50
90.0
 51
180.0
  0
ARC
  5
325
100
AcDbEntity
  8
M1
  6
CONTINUOUS
370
25
 62
     7
100
AcDbCircle
 10
418.374054
 20
326.176046
 40
240.000031
100
AcDbArc
 50
291.425781
 51
318.590366
  0
ARC
  5
326
100
AcDbEntity
  8
M1
  6
CONTINUOUS
370
25
 62
     7
100
AcDbCircle
 10
418.374054
 20
326.176046
 40
214.999893
100
AcDbArc
 50
291.824646
 51
326.84671
  0
ARC
  5
327
100
AcDbEntity
  8
M1
  6
CONTINUOUS
370
25
 62
     7
100
AcDbCircle
 10
418.374054
 20
326.176046
 40
190.790894
100
AcDbArc
 50
292.31076
 51
309.985909
  0
ARC
  5
328
100
AcDbEntity
  8
M1
  6
CONTINUOUS
370
25
 62
     7
100
AcDbCircle
 10
418.374054
 20
326.176046
 40
240.000168
100
AcDbArc
 50
324.340851
 51
575.659103
  0
ARC
  5
329
100
AcDbEntity
  8
M1
  6
CONTINUOUS
370
25
 62
     7
100
AcDbCircle
 10
418.374054
 20
326.176046
 40
215.000061
100
AcDbArc
 50
335.09082
 51
564.909164
  0
CIRCLE
  5
32A
100
AcDbEntity
  8
M1
  6
CONTINUOUS
370
25
 62
     7
100
AcDbCircle
 10
418.373078
 20
526.176046
 40
9.5
  0
ARC
  5
32B
100
AcDbEntity
  8
M1
  6
CONTINUOUS
370
25
 62
     7
100
AcDbCircle
 10
418.374054
 20
541.176046
 40
30.000154
100
AcDbArc
 50
236.231949
 51
303.765717
  0
CIRCLE
  5
32C
100
AcDbEntity
  8
M1
  6
CONTINUOUS
370
25
 62
     7
100
AcDbCircle
 10
276.952057
 20
467.597067
 40
9.5
  0
ARC
  5
32D
100
AcDbEntity
  8
M1
  6
CONTINUOUS
370
25
 62
     7
100
AcDbCircle
 10
266.345978
 20
478.204061
 40
30.00053
100
AcDbArc
 50
281.230927
 51
348.766899
  0
CIRCLE
  5
32E
100
AcDbEntity
  8
M1
  6
CONTINUOUS
370
25
 62
     7
100
AcDbCircle
 10
218.374054
 20
326.176046
 40
9.5
  0
ARC
  5
32F
100
AcDbEntity
  8
M1
  6
CONTINUOUS
370
25
 62
     7
100
AcDbCircle
 10
203.374054
 20
326.176046
 40
30.00012
100
AcDbArc
 50
326.232056
 51
393.768005
  0
CIRCLE
  5
330
100
AcDbEntity
  8
M1
  6
CONTINUOUS
370
25
 62
     7
100
AcDbCircle
 10
276.953034
 20
184.755056
 40
9.5
  0
ARC
  5
331
100
AcDbEntity
  8
M1
  6
CONTINUOUS
370
25
 62
     7
100
AcDbCircle
 10
266.345978
 20
174.149068
 40
29.999567
100
AcDbArc
 50
11.231233
 51
78.768685
  0
CIRCLE
  5
332
100
AcDbEntity
  8
M1
  6
CONTINUOUS
370
25
 62
     7
100
AcDbCircle
 10
418.374054
 20
126.177053
 40
9.5
  0
ARC
  5
333
100
AcDbEntity
  8
M1
  6
CONTINUOUS
370
25
 62
     7
100
AcDbCircle
 10
418.374054
 20
111.177053
 40
30.000111
100
AcDbArc
 50
56.232178
 51
123.768013
  0
CIRCLE
  5
334
100
AcDbEntity
  8
M1
  6
CONTINUOUS
370
25
 62
     7
100
AcDbCircle
 10
559.795075
 20
184.755056
 40
9.5
  0
ARC
  5
335
100
AcDbEntity
  8
M1
  6
CONTINUOUS
370
25
 62
     7
100
AcDbCircle
 10
570.401032
 20
174.149068
 40
29.999514
100
AcDbArc
 50
101.231316
 51
168.768768
  0
CIRCLE
  5
336
100
AcDbEntity
  8
M1
  6
CONTINUOUS
370
25
 62
     7
100
AcDbCircle
 10
618.373078
 20
326.177053
 40
9.5
  0
ARC
  5
337
100
AcDbEntity
  8
M1
  6
CONTINUOUS
370
25
 62
     7
100
AcDbCircle
 10
633.373078
 20
326.176046
 40
30.000238
100
AcDbArc
 50
146.232132
 51
213.765671
  0
CIRCLE
  5
338
100
AcDbEntity
  8
M1
  6
CONTINUOUS
370
25
 62
     7
100
AcDbCircle
 10
559.793976
 20
467.598043
 40
9.5
  0
ARC
  5
339
100
AcDbEntity
  8
M1
  6
CONTINUOUS
370
25
 62
     7
100
AcDbCircle
 10
570.401032
 20
478.204061
 40
29.999763
100
AcDbArc
 50
191.233124
 51
258.768784
  0
ARC
  5
33A
100
AcDbEntity
  8
M1
  6
CONTINUOUS
370
25
 62
     7
100
AcDbCircle
 10
398.809967
 20
419.140035
 40
4.999363
100
AcDbArc
 50
202.497406
 51
281.878143
  0
ARC
  5
33B
100
AcDbEntity
  8
M1
  6
CONTINUOUS
370
25
 62
     7
100
AcDbCircle
 10
395.76297
 20
426.496053
 40
4.999761
100
AcDbArc
 50
202.508377
 51
282.697517
  0
ARC
  5
33C
100
AcDbEntity
  8
M1
  6
CONTINUOUS
370
25
 62
     7
100
AcDbCircle
 10
418.374054
 20
326.176046
 40
97.835876
100
AcDbArc
 50
77.299301
 51
102.701939
  0
ARC
  5
33D
100
AcDbEntity
  8
M1
  6
CONTINUOUS
370
25
 62
     7
100
AcDbCircle
 10
437.937043
 20
419.140035
 40
5.000246
100
AcDbArc
 50
258.112213
 51
337.504196
  0
ARC
  5
33E
100
AcDbEntity
  8
M1
  6
CONTINUOUS
370
25
 62
     7
100
AcDbCircle
 10
440.98404
 20
426.496053
 40
5.000474
100
AcDbArc
 50
257.29248
 51
337.49321
  0
ARC
  5
33F
100
AcDbEntity
  8
M1
  6
CONTINUOUS
370
25
 62
     7
100
AcDbCircle
 10
418.374054
 20
326.176046
 40
125.000046
100
AcDbArc
 50
75.886726
 51
104.113802
  0
ARC
  5
340
100
AcDbEntity
  8
M1
  6
CONTINUOUS
370
25
 62
     7
100
AcDbCircle
 10
447.635041
 20
442.554037
 40
4.999476
100
AcDbArc
 50
337.503143
 51
435.887421
  0
ARC
  5
341
100
AcDbEntity
  8
M1
  6
CONTINUOUS
370
25
 62
     7
100
AcDbCircle
 10
389.111969
 20
442.554037
 40
4.999874
100
AcDbArc
 50
104.111221
 51
202.498688
  0
ARC
  5
342
100
AcDbEntity
  8
M1
  6
CONTINUOUS
370
25
 62
     7
100
AcDbCircle
 10
338.805085
 20
378.078054
 40
4.999868
100
AcDbArc
 50
247.491379
 51
326.884018
  0
ARC
  5
343
100
AcDbEntity
  8
M1
  6
CONTINUOUS
370
25
 62
     7
100
AcDbCircle
 10
331.449005
 20
381.125051
 40
5.000379
100
AcDbArc
 50
247.507416
 51
327.694504
  0
ARC
  5
344
100
AcDbEntity
  8
M1
  6
CONTINUOUS
370
25
 62
     7
100
AcDbCircle
 10
418.374054
 20
326.176046
 40
97.835785
100
AcDbArc
 50
122.298752
 51
147.701479
  0
ARC
  5
345
100
AcDbEntity
  8
M1
  6
CONTINUOUS
370
25
 62
     7
100
AcDbCircle
 10
366.472077
 20
405.745077
 40
4.999737
100
AcDbArc
 50
303.108093
 51
382.498703
  0
ARC
  5
346
100
AcDbEntity
  8
M1
  6
CONTINUOUS
370
25
 62
     7
100
AcDbCircle
 10
363.42508
 20
413.100057
 40
4.999876
100
AcDbArc
 50
302.304077
 51
382.508369
  0
ARC
  5
347
100
AcDbEntity
  8
M1
  6
CONTINUOUS
370
25
 62
     7
100
AcDbCircle
 10
418.374054
 20
326.176046
 40
125.000107
100
AcDbArc
 50
120.88678
 51
149.11396
  0
ARC
  5
348
100
AcDbEntity
  8
M1
  6
CONTINUOUS
370
25
 62
     7
100
AcDbCircle
 10
356.77298
 20
429.159078
 40
4.999476
100
AcDbArc
 50
22.496862
 51
120.893339
  0
ARC
  5
349
100
AcDbEntity
  8
M1
  6
CONTINUOUS
370
25
 62
     7
100
AcDbCircle
 10
315.391022
 20
387.777059
 40
4.999706
100
AcDbArc
 50
149.121048
 51
247.504738
  0
ARC
  5
34A
100
AcDbEntity
  8
M1
  6
CONTINUOUS
370
25
 62
     7
100
AcDbCircle
 10
325.410065
 20
306.613058
 40
5.000379
100
AcDbArc
 50
292.492584
 51
371.87767
  0
ARC
  5
34B
100
AcDbEntity
  8
M1
  6
CONTINUOUS
370
25
 62
     7
100
AcDbCircle
 10
318.053986
 20
303.566061
 40
5.000799
100
AcDbArc
 50
292.504211
 51
372.695015
  0
ARC
  5
34C
100
AcDbEntity
  8
M1
  6
CONTINUOUS
370
25
 62
     7
100
AcDbCircle
 10
418.374054
 20
326.176046
 40
97.836082
100
AcDbArc
 50
167.298782
 51
192.701208
  0
ARC
  5
34D
100
AcDbEntity
  8
M1
  6
CONTINUOUS
370
25
 62
     7
100
AcDbCircle
 10
325.410065
 20
345.740072
 40
5.00018
100
AcDbArc
 50
348.112396
 51
427.506073
  0
ARC
  5
34E
100
AcDbEntity
  8
M1
  6
CONTINUOUS
370
25
 62
     7
100
AcDbCircle
 10
318.053986
 20
348.786062
 40
5.000319
100
AcDbArc
 50
347.303558
 51
427.49366
  0
ARC
  5
34F
100
AcDbEntity
  8
M1
  6
CONTINUOUS
370
25
 62
     7
100
AcDbCircle
 10
418.374054
 20
326.176046
 40
125.000336
100
AcDbArc
 50
165.886307
 51
194.113268
  0
ARC
  5
350
100
AcDbEntity
  8
M1
  6
CONTINUOUS
370
25
 62
     7
100
AcDbCircle
 10
301.996003
 20
355.43807
 40
4.999495
100
AcDbArc
 50
67.501709
 51
165.889793
  0
ARC
  5
351
100
AcDbEntity
  8
M1
  6
CONTINUOUS
370
25
 62
     7
100
AcDbCircle
 10
301.996003
 20
296.91506
 40
4.999874
100
AcDbArc
 50
194.111221
 51
292.496414
  0
ARC
  5
352
100
AcDbEntity
  8
M1
  6
CONTINUOUS
370
25
 62
     7
100
AcDbCircle
 10
366.472077
 20
246.608053
 40
4.999761
100
AcDbArc
 50
337.491608
 51
416.878334
  0
ARC
  5
353
100
AcDbEntity
  8
M1
  6
CONTINUOUS
370
25
 62
     7
100
AcDbCircle
 10
363.42508
 20
239.252065
 40
4.999761
100
AcDbArc
 50
337.491608
 51
417.695717
  0
ARC
  5
354
100
AcDbEntity
  8
M1
  6
CONTINUOUS
370
25
 62
     7
100
AcDbCircle
 10
418.374054
 20
326.176046
 40
97.835785
100
AcDbArc
 50
212.298752
 51
237.701254
  0
ARC
  5
355
100
AcDbEntity
  8
M1
  6
CONTINUOUS
370
25
 62
     7
100
AcDbCircle
 10
338.805085
 20
274.275045
 40
4.999771
100
AcDbArc
 50
33.108669
 51
112.5089
  0
ARC
  5
356
100
AcDbEntity
  8
M1
  6
CONTINUOUS
370
25
 62
     7
100
AcDbCircle
 10
331.449005
 20
271.228048
 40
5.000231
100
AcDbArc
 50
32.28828
 51
112.493786
  0
ARC
  5
357
100
AcDbEntity
  8
M1
  6
CONTINUOUS
370
25
 62
     7
100
AcDbCircle
 10
418.374054
 20
326.176046
 40
124.999657
100
AcDbArc
 50
210.886383
 51
239.113092
  0
ARC
  5
358
100
AcDbEntity
  8
M1
  6
CONTINUOUS
370
25
 62
     7
100
AcDbCircle
 10
315.391022
 20
264.57607
 40
4.999448
100
AcDbArc
 50
112.496994
 51
210.895798
  0
ARC
  5
359
100
AcDbEntity
  8
M1
  6
CONTINUOUS
370
25
 62
     7
100
AcDbCircle
 10
356.77298
 20
223.194051
 40
5.00015
100
AcDbArc
 50
239.111862
 51
337.490204
  0
ARC
  5
35A
100
AcDbEntity
  8
M1
  6
CONTINUOUS
370
25
 62
     7
100
AcDbCircle
 10
437.937043
 20
233.213064
 40
5.00039
100
AcDbArc
 50
22.492905
 51
101.876122
  0
ARC
  5
35B
100
AcDbEntity
  8
M1
  6
CONTINUOUS
370
25
 62
     7
100
AcDbCircle
 10
440.98404
 20
225.857046
 40
5.000402
100
AcDbArc
 50
22.493227
 51
102.696299
  0
ARC
  5
35C
100
AcDbEntity
  8
M1
  6
CONTINUOUS
370
25
 62
     7
100
AcDbCircle
 10
418.374054
 20
326.176046
 40
97.835083
100
AcDbArc
 50
257.298615
 51
282.701395
  0
ARC
  5
35D
100
AcDbEntity
  8
M1
  6
CONTINUOUS
370
25
 62
     7
100
AcDbCircle
 10
398.809967
 20
233.213064
 40
5.000246
100
AcDbArc
 50
78.112206
 51
157.50386
  0
ARC
  5
35E
100
AcDbEntity
  8
M1
  6
CONTINUOUS
370
25
 62
     7
100
AcDbCircle
 10
395.764069
 20
225.857046
 40
5.000289
100
AcDbArc
 50
77.303474
 51
157.506775
  0
ARC
  5
35F
100
AcDbEntity
  8
M1
  6
CONTINUOUS
370
25
 62
     7
100
AcDbCircle
 10
418.374054
 20
326.176046
 40
124.999344
100
AcDbArc
 50
255.886124
 51
284.113367
  0
ARC
  5
360
100
AcDbEntity
  8
M1
  6
CONTINUOUS
370
25
 62
     7
100
AcDbCircle
 10
389.111969
 20
209.799062
 40
4.999375
100
AcDbArc
 50
157.502274
 51
255.887665
  0
ARC
  5
361
100
AcDbEntity
  8
M1
  6
CONTINUOUS
370
25
 62
     7
100
AcDbCircle
 10
447.635041
 20
209.799062
 40
4.999874
100
AcDbArc
 50
284.111237
 51
382.490982
  0
ARC
  5
362
100
AcDbEntity
  8
M1
  6
CONTINUOUS
370
25
 62
     7
100
AcDbCircle
 10
497.942047
 20
274.275045
 40
4.99985
100
AcDbArc
 50
67.492798
 51
146.873795
  0
ARC
  5
363
100
AcDbEntity
  8
M1
  6
CONTINUOUS
370
25
 62
     7
100
AcDbCircle
 10
505.298004
 20
271.228048
 40
4.999897
100
AcDbArc
 50
67.491508
 51
147.695541
  0
ARC
  5
364
100
AcDbEntity
  8
M1
  6
CONTINUOUS
370
25
 62
     7
100
AcDbCircle
 10
418.374054
 20
326.176046
 40
97.835785
100
AcDbArc
 50
302.298737
 51
327.701891
  0
ARC
  5
365
100
AcDbEntity
  8
M1
  6
CONTINUOUS
370
25
 62
     7
100
AcDbCircle
 10
470.275055
 20
246.608053
 40
4.999829
100
AcDbArc
 50
123.109062
 51
202.507851
  0
ARC
  5
366
100
AcDbEntity
  8
M1
  6
CONTINUOUS
370
25
 62
     7
100
AcDbCircle
 10
473.322052
 20
239.252065
 40
4.999328
100
AcDbArc
 50
122.294823
 51
202.496223
  0
ARC
  5
367
100
AcDbEntity
  8
M1
  6
CONTINUOUS
370
25
 62
     7
100
AcDbCircle
 10
418.374054
 20
326.176046
 40
124.99958
100
AcDbArc
 50
300.886414
 51
329.113594
  0
ARC
  5
368
100
AcDbEntity
  8
M1
  6
CONTINUOUS
370
25
 62
     7
100
AcDbCircle
 10
479.97403
 20
223.194051
 40
4.999488
100
AcDbArc
 50
202.497192
 51
300.892746
  0
ARC
  5
369
100
AcDbEntity
  8
M1
  6
CONTINUOUS
370
25
 62
     7
100
AcDbCircle
 10
521.355988
 20
264.57607
 40
5.000239
100
AcDbArc
 50
329.11084
 51
427.504784
  0
ARC
  5
36A
100
AcDbEntity
  8
M1
  6
CONTINUOUS
370
25
 62
     7
100
AcDbCircle
 10
511.337067
 20
345.740072
 40
5.000425
100
AcDbArc
 50
112.493874
 51
191.876358
  0
ARC
  5
36B
100
AcDbEntity
  8
M1
  6
CONTINUOUS
370
25
 62
     7
100
AcDbCircle
 10
518.693024
 20
348.787069
 40
4.999448
100
AcDbArc
 50
112.496994
 51
192.697166
  0
ARC
  5
36C
100
AcDbEntity
  8
M1
  6
CONTINUOUS
370
25
 62
     7
100
AcDbCircle
 10
418.374054
 20
326.176046
 40
97.834801
100
AcDbArc
 50
347.299164
 51
372.701906
  0
ARC
  5
36D
100
AcDbEntity
  8
M1
  6
CONTINUOUS
370
25
 62
     7
100
AcDbCircle
 10
511.337067
 20
306.613058
 40
5.000299
100
AcDbArc
 50
168.112686
 51
247.504784
  0
ARC
  5
36E
100
AcDbEntity
  8
M1
  6
CONTINUOUS
370
25
 62
     7
100
AcDbCircle
 10
518.693024
 20
303.566061
 40
5.00054
100
AcDbArc
 50
167.292297
 51
247.507027
  0
ARC
  5
36F
100
AcDbEntity
  8
M1
  6
CONTINUOUS
370
25
 62
     7
100
AcDbCircle
 10
418.374054
 20
326.176046
 40
124.999046
100
AcDbArc
 50
345.886597
 51
374.113802
  0
ARC
  5
370
100
AcDbEntity
  8
M1
  6
CONTINUOUS
370
25
 62
     7
100
AcDbCircle
 10
534.751007
 20
296.91506
 40
4.999448
100
AcDbArc
 50
247.503006
 51
345.889801
  0
ARC
  5
371
100
AcDbEntity
  8
M1
  6
CONTINUOUS
370
25
 62
     7
100
AcDbCircle
 10
534.751007
 20
355.43807
 40
4.999874
100
AcDbArc
 50
14.111223
 51
112.495256
  0
ARC
  5
372
100
AcDbEntity
  8
M1
  6
CONTINUOUS
370
25
 62
     7
100
AcDbCircle
 10
470.275055
 20
405.745077
 40
4.999874
100
AcDbArc
 50
157.492157
 51
236.879089
  0
ARC
  5
373
100
AcDbEntity
  8
M1
  6
CONTINUOUS
370
25
 62
     7
100
AcDbCircle
 10
473.322052
 20
413.101034
 40
4.9995
100
AcDbArc
 50
157.502487
 51
237.693665
  0
ARC
  5
374
100
AcDbEntity
  8
M1
  6
CONTINUOUS
370
25
 62
     7
100
AcDbCircle
 10
418.374054
 20
326.176046
 40
97.834976
100
AcDbArc
 50
32.299068
 51
57.702215
  0
ARC
  5
375
100
AcDbEntity
  8
M1
  6
CONTINUOUS
370
25
 62
     7
100
AcDbCircle
 10
497.942047
 20
378.078054
 40
5.000304
100
AcDbArc
 50
213.118042
 51
292.505066
  0
ARC
  5
376
100
AcDbEntity
  8
M1
  6
CONTINUOUS
370
25
 62
     7
100
AcDbCircle
 10
505.298004
 20
381.125051
 40
5.000649
100
AcDbArc
 50
212.298492
 51
292.492187
  0
ARC
  5
377
100
AcDbEntity
  8
M1
  6
CONTINUOUS
370
25
 62
     7
100
AcDbCircle
 10
418.374054
 20
326.176046
 40
124.999252
100
AcDbArc
 50
30.887053
 51
59.113956
  0
ARC
  5
378
100
AcDbEntity
  8
M1
  6
CONTINUOUS
370
25
 62
     7
100
AcDbCircle
 10
521.355988
 20
387.777059
 40
4.999495
100
AcDbArc
 50
292.498291
 51
390.8955
  0
ARC
  5
379
100
AcDbEntity
  8
M1
  6
CONTINUOUS
370
25
 62
     7
100
AcDbCircle
 10
479.97403
 20
429.159078
 40
5.000186
100
AcDbArc
 50
59.110489
 51
157.504837
  0
ARC
  5
37A
100
AcDbEntity
  8
M1
  6
CONTINUOUS
370
25
 62
     7
100
AcDbCircle
 10
313.516022
 20
579.318075
 40
30.000889
100
AcDbArc
 50
324.875916
 51
620.125214
  0
CIRCLE
  5
37B
100
AcDbEntity
  8
M1
  6
CONTINUOUS
370
25
 62
     7
100
AcDbCircle
 10
313.516022
 20
579.318075
 40
17.5
  0
ARC
  5
37C
100
AcDbEntity
  8
M1
  6
CONTINUOUS
370
25
 62
     7
100
AcDbCircle
 10
310.542023
 20
555.947042
 40
1.599414
100
AcDbArc
 50
119.064163
 51
192.516953
  0
ARC
  5
37D
100
AcDbEntity
  8
M1
  6
CONTINUOUS
370
25
 62
     7
100
AcDbCircle
 10
332.14505
 20
564.89504
 40
1.60066
100
AcDbArc
 50
32.500515
 51
105.917187
  0
ARC
  5
37E
100
AcDbEntity
  8
M1
  6
CONTINUOUS
370
25
 62
     7
100
AcDbCircle
 10
307.855988
 20
546.807089
 40
3.000113
100
AcDbArc
 50
12.493028
 51
80.114923
  0
ARC
  5
37F
100
AcDbEntity
  8
M1
  6
CONTINUOUS
370
25
 62
     7
100
AcDbCircle
 10
340.506989
 20
560.331075
 40
2.999391
100
AcDbArc
 50
144.86853
 51
212.499451
  0
ARC
  5
380
100
AcDbEntity
  8
M1
  6
CONTINUOUS
370
25
 62
     7
100
AcDbCircle
 10
523.230988
 20
579.317037
 40
29.999481
100
AcDbArc
 50
279.875244
 51
575.122772
  0
CIRCLE
  5
381
100
AcDbEntity
  8
M1
  6
CONTINUOUS
370
25
 62
     7
100
AcDbCircle
 10
523.230988
 20
579.317037
 40
17.5
  0
ARC
  5
382
100
AcDbEntity
  8
M1
  6
CONTINUOUS
370
25
 62
     7
100
AcDbCircle
 10
526.206086
 20
555.946066
 40
1.599757
100
AcDbArc
 50
347.508881
 51
420.946449
  0
ARC
  5
383
100
AcDbEntity
  8
M1
  6
CONTINUOUS
370
25
 62
     7
100
AcDbCircle
 10
504.602082
 20
564.89504
 40
1.599441
100
AcDbArc
 50
74.070824
 51
147.49913
  0
ARC
  5
384
100
AcDbEntity
  8
M1
  6
CONTINUOUS
370
25
 62
     7
100
AcDbCircle
 10
528.891022
 20
546.806051
 40
3.000523
100
AcDbArc
 50
99.883278
 51
167.504189
  0
ARC
  5
385
100
AcDbEntity
  8
M1
  6
CONTINUOUS
370
25
 62
     7
100
AcDbCircle
 10
496.240021
 20
560.331075
 40
2.999932
100
AcDbArc
 50
327.496887
 51
395.135284
  0
ARC
  5
386
100
AcDbEntity
  8
M1
  6
CONTINUOUS
370
25
 62
     7
100
AcDbCircle
 10
418.374054
 20
326.176046
 40
32.499352
100
AcDbArc
 50
16.078827
 51
343.925201
  0
ARC
  5
387
100
AcDbEntity
  8
M1
  6
CONTINUOUS
370
25
 62
     7
100
AcDbCircle
 10
1103.064385
 20
532.675741
 40
3.0
100
AcDbArc
 50
90.0
 51
180.0
  0
ARC
  5
388
100
AcDbEntity
  8
M1
  6
CONTINUOUS
370
25
 62
     7
100
AcDbCircle
 10
1103.064385
 20
500.429769
 40
3.0
100
AcDbArc
 50
180.0
 51
270.0
  0
ARC
  5
389
100
AcDbEntity
  8
M1
  6
CONTINUOUS
370
25
 62
     7
100
AcDbCircle
 10
1292.066369
 20
532.675741
 40
3.0
100
AcDbArc
 50
0.0
 51
90.0
  0
ARC
  5
38A
100
AcDbEntity
  8
M1
  6
CONTINUOUS
370
25
 62
     7
100
AcDbCircle
 10
1292.066369
 20
500.429769
 40
3.0
100
AcDbArc
 50
270.0
 51
360.0
  0
ARC
  5
38B
100
AcDbEntity
  8
M1
  6
CONTINUOUS
370
25
 62
     7
100
AcDbCircle
 10
974.964349
 20
325.675741
 40
8.998993
100
AcDbArc
 50
270.0
 51
450.0
  0
ARC
  5
38C
100
AcDbEntity
  8
M1
  6
CONTINUOUS
370
25
 62
     7
100
AcDbCircle
 10
1073.064385
 20
290.19576
 40
3.0
100
AcDbArc
 50
270.0
 51
360.0
  0
ARC
  5
38D
100
AcDbEntity
  8
M1
  6
CONTINUOUS
370
25
 62
     7
100
AcDbCircle
 10
1058.626336
 20
290.19576
 40
3.0
100
AcDbArc
 50
180.0
 51
270.0
  0
ARC
  5
38E
100
AcDbEntity
  8
M1
  6
CONTINUOUS
370
25
 62
     7
100
AcDbCircle
 10
1073.064385
 20
266.508749
 40
3.0
100
AcDbArc
 50
0.0
 51
90.0
  0
ARC
  5
38F
100
AcDbEntity
  8
M1
  6
CONTINUOUS
370
25
 62
     7
100
AcDbCircle
 10
1058.626336
 20
266.508749
 40
3.0
100
AcDbArc
 50
90.0
 51
180.0
  0
ARC
  5
390
100
AcDbEntity
  8
M1
  6
CONTINUOUS
370
25
 62
     7
100
AcDbCircle
 10
1058.626336
 20
221.402761
 40
3.0
100
AcDbArc
 50
180.0
 51
270.0
  0
ARC
  5
391
100
AcDbEntity
  8
M1
  6
CONTINUOUS
370
25
 62
     7
100
AcDbCircle
 10
1336.504357
 20
290.19576
 40
3.0
100
AcDbArc
 50
270.0
 51
360.0
  0
ARC
  5
392
100
AcDbEntity
  8
M1
  6
CONTINUOUS
370
25
 62
     7
100
AcDbCircle
 10
1322.066369
 20
290.19576
 40
3.0
100
AcDbArc
 50
180.0
 51
270.0
  0
ARC
  5
393
100
AcDbEntity
  8
M1
  6
CONTINUOUS
370
25
 62
     7
100
AcDbCircle
 10
1336.504357
 20
266.508749
 40
3.0
100
AcDbArc
 50
0.0
 51
90.0
  0
ARC
  5
394
100
AcDbEntity
  8
M1
  6
CONTINUOUS
370
25
 62
     7
100
AcDbCircle
 10
1322.066369
 20
266.508749
 40
3.0
100
AcDbArc
 50
90.0
 51
180.0
  0
ARC
  5
395
100
AcDbEntity
  8
M1
  6
CONTINUOUS
370
25
 62
     7
100
AcDbCircle
 10
1336.504357
 20
221.402761
 40
3.0
100
AcDbArc
 50
270.0
 51
360.0
  0
ARC
  5
396
100
AcDbEntity
  8
M1
  6
CONTINUOUS
370
25
 62
     7
100
AcDbCircle
 10
1307.852349
 20
507.676778
 40
3.000155
100
AcDbArc
 50
25.001789
 51
90.0
  0
ARC
  5
397
100
AcDbEntity
  8
M1
  6
CONTINUOUS
370
25
 62
     7
100
AcDbCircle
 10
1304.065454
 20
537.676778
 40
3.0
100
AcDbArc
 50
0.0
 51
90.0
  0
ARC
  5
398
100
AcDbEntity
  8
M1
  6
CONTINUOUS
370
25
 62
     7
100
AcDbCircle
 10
1281.065454
 20
78.676748
 40
3.0
100
AcDbArc
 50
270.0
 51
360.0
  0
ARC
  5
399
100
AcDbEntity
  8
M1
  6
CONTINUOUS
370
25
 62
     7
100
AcDbCircle
 10
1368.065454
 20
75.20075
 40
3.0
100
AcDbArc
 50
0.0
 51
18.001348
  0
ARC
  5
39A
100
AcDbEntity
  8
M1
  6
CONTINUOUS
370
25
 62
     7
100
AcDbCircle
 10
1292.065454
 20
199.348745
 40
3.0
100
AcDbArc
 50
270.0
 51
360.0
  0
ARC
  5
39B
100
AcDbEntity
  8
M1
  6
CONTINUOUS
370
25
 62
     7
100
AcDbCircle
 10
1292.065454
 20
292.676748
 40
3.0
100
AcDbArc
 50
0.0
 51
90.0
  0
ARC
  5
39C
100
AcDbEntity
  8
M1
  6
CONTINUOUS
370
25
 62
     7
100
AcDbCircle
 10
1292.065454
 20
217.940756
 40
3.0
100
AcDbArc
 50
270.0
 51
360.0
  0
ARC
  5
39D
100
AcDbEntity
  8
M1
  6
CONTINUOUS
370
25
 62
     7
100
AcDbCircle
 10
1292.065454
 20
142.072744
 40
3.0
100
AcDbArc
 50
270.0
 51
360.0
  0
ARC
  5
39E
100
AcDbEntity
  8
M1
  6
CONTINUOUS
370
25
 62
     7
100
AcDbCircle
 10
1292.065454
 20
115.77976
 40
3.0
100
AcDbArc
 50
270.0
 51
360.0
  0
ARC
  5
39F
100
AcDbEntity
  8
M1
  6
CONTINUOUS
370
25
 62
     7
100
AcDbCircle
 10
1292.065454
 20
150.92275
 40
3.0
100
AcDbArc
 50
0.0
 51
90.0
  0
ARC
  5
3A0
100
AcDbEntity
  8
M1
  6
CONTINUOUS
370
25
 62
     7
100
AcDbCircle
 10
1281.065454
 20
150.92275
 40
3.0
100
AcDbArc
 50
0.0
 51
90.0
  0
ARC
  5
3A1
100
AcDbEntity
  8
M1
  6
CONTINUOUS
370
25
 62
     7
100
AcDbCircle
 10
1087.277337
 20
507.675741
 40
3.0
100
AcDbArc
 50
90.0
 51
154.999092
  0
ARC
  5
3A2
100
AcDbEntity
  8
M1
  6
CONTINUOUS
370
25
 62
     7
100
AcDbCircle
 10
1027.576348
 20
441.170736
 40
22.999559
100
AcDbArc
 50
275.001465
 51
334.999657
  0
ARC
  5
3A3
100
AcDbEntity
  8
M1
  6
CONTINUOUS
370
25
 62
     7
100
AcDbCircle
 10
1091.064385
 20
537.675741
 40
3.0
100
AcDbArc
 50
90.0
 51
180.0
  0
ARC
  5
3A4
100
AcDbEntity
  8
M1
  6
CONTINUOUS
370
25
 62
     7
100
AcDbCircle
 10
1003.064385
 20
412.926778
 40
3.000331
100
AcDbArc
 50
94.991402
 51
180.0
  0
ARC
  5
3A5
100
AcDbEntity
  8
M1
  6
CONTINUOUS
370
25
 62
     7
100
AcDbCircle
 10
1027.576348
 20
210.18276
 40
22.998924
100
AcDbArc
 50
25.000648
 51
84.998718
  0
ARC
  5
3A6
100
AcDbEntity
  8
M1
  6
CONTINUOUS
370
25
 62
     7
100
AcDbCircle
 10
1003.064385
 20
238.425741
 40
3.0
100
AcDbArc
 50
180.0
 51
265.006828
  0
ARC
  5
3A7
100
AcDbEntity
  8
M1
  6
CONTINUOUS
370
25
 62
     7
100
AcDbCircle
 10
1114.063348
 20
78.676748
 40
3.0
100
AcDbArc
 50
180.0
 51
270.0
  0
ARC
  5
3A8
100
AcDbEntity
  8
M1
  6
CONTINUOUS
370
25
 62
     7
100
AcDbCircle
 10
1027.063348
 20
75.20075
 40
2.999792
100
AcDbArc
 50
161.999695
 51
180.000004
  0
ARC
  5
3A9
100
AcDbEntity
  8
M1
  6
CONTINUOUS
370
25
 62
     7
100
AcDbCircle
 10
1103.064385
 20
199.348745
 40
3.0
100
AcDbArc
 50
180.0
 51
270.0
  0
ARC
  5
3AA
100
AcDbEntity
  8
M1
  6
CONTINUOUS
370
25
 62
     7
100
AcDbCircle
 10
1103.064385
 20
292.675741
 40
3.0
100
AcDbArc
 50
90.0
 51
180.0
  0
ARC
  5
3AB
100
AcDbEntity
  8
M1
  6
CONTINUOUS
370
25
 62
     7
100
AcDbCircle
 10
1103.064385
 20
217.940756
 40
3.0
100
AcDbArc
 50
180.0
 51
270.0
  0
ARC
  5
3AC
100
AcDbEntity
  8
M1
  6
CONTINUOUS
370
25
 62
     7
100
AcDbCircle
 10
1103.063348
 20
142.072744
 40
3.0
100
AcDbArc
 50
180.0
 51
270.0
  0
ARC
  5
3AD
100
AcDbEntity
  8
M1
  6
CONTINUOUS
370
25
 62
     7
100
AcDbCircle
 10
1103.063348
 20
115.77976
 40
3.0
100
AcDbArc
 50
180.0
 51
270.0
  0
ARC
  5
3AE
100
AcDbEntity
  8
M1
  6
CONTINUOUS
370
25
 62
     7
100
AcDbCircle
 10
1103.063348
 20
150.92275
 40
3.0
100
AcDbArc
 50
90.0
 51
180.0
  0
ARC
  5
3AF
100
AcDbEntity
  8
M1
  6
CONTINUOUS
370
25
 62
     7
100
AcDbCircle
 10
1114.063348
 20
150.92275
 40
3.0
100
AcDbArc
 50
90.0
 51
180.0
  0
ARC
  5
3B0
100
AcDbEntity
  8
M1
  6
CONTINUOUS
370
25
 62
     7
100
AcDbCircle
 10
982.964349
 20
291.175741
 40
2.0
100
AcDbArc
 50
0.0
 51
90.0
  0
ARC
  5
3B1
100
AcDbEntity
  8
M1
  6
CONTINUOUS
370
25
 62
     7
100
AcDbCircle
 10
1182.564355
 20
623.423727
 40
6.25
100
AcDbArc
 50
0.0
 51
180.0
  0
ARC
  5
3B2
100
AcDbEntity
  8
M1
  6
CONTINUOUS
370
25
 62
     7
100
AcDbCircle
 10
1173.814355
 20
576.193746
 40
2.5
100
AcDbArc
 50
270.0
 51
360.0
  0
ARC
  5
3B3
100
AcDbEntity
  8
M1
  6
CONTINUOUS
370
25
 62
     7
100
AcDbCircle
 10
1191.314355
 20
576.193746
 40
2.5
100
AcDbArc
 50
180.0
 51
270.0
  0
ARC
  5
3B4
100
AcDbEntity
  8
M1
  6
CONTINUOUS
370
25
 62
     7
100
AcDbCircle
 10
1170.872277
 20
579.220724
 40
1.600514
100
AcDbArc
 50
96.56266
 51
169.996323
  0
ARC
  5
3B5
100
AcDbEntity
  8
M1
  6
CONTINUOUS
370
25
 62
     7
100
AcDbCircle
 10
1194.256371
 20
579.220724
 40
1.600323
100
AcDbArc
 50
10.004436
 51
83.469905
  0
ARC
  5
3B6
100
AcDbEntity
  8
M1
  6
CONTINUOUS
370
25
 62
     7
100
AcDbCircle
 10
982.964349
 20
360.175741
 40
2.0
100
AcDbArc
 50
270.0
 51
360.0
  0
ARC
  5
3B7
100
AcDbEntity
  8
M1
  6
CONTINUOUS
370
25
 62
     7
100
AcDbCircle
 10
1058.626336
 20
361.156759
 40
3.0
100
AcDbArc
 50
90.0
 51
180.0
  0
ARC
  5
3B8
100
AcDbEntity
  8
M1
  6
CONTINUOUS
370
25
 62
     7
100
AcDbCircle
 10
1073.064385
 20
361.156759
 40
3.0
100
AcDbArc
 50
0.0
 51
90.0
  0
ARC
  5
3B9
100
AcDbEntity
  8
M1
  6
CONTINUOUS
370
25
 62
     7
100
AcDbCircle
 10
1058.626336
 20
384.84374
 40
3.0
100
AcDbArc
 50
180.0
 51
270.0
  0
ARC
  5
3BA
100
AcDbEntity
  8
M1
  6
CONTINUOUS
370
25
 62
     7
100
AcDbCircle
 10
1073.064385
 20
384.84374
 40
3.0
100
AcDbArc
 50
270.0
 51
360.0
  0
ARC
  5
3BB
100
AcDbEntity
  8
M1
  6
CONTINUOUS
370
25
 62
     7
100
AcDbCircle
 10
1058.626336
 20
429.948751
 40
3.0
100
AcDbArc
 50
90.0
 51
180.0
  0
ARC
  5
3BC
100
AcDbEntity
  8
M1
  6
CONTINUOUS
370
25
 62
     7
100
AcDbCircle
 10
1073.064385
 20
429.948751
 40
3.0
100
AcDbArc
 50
0.0
 51
90.0
  0
ARC
  5
3BD
100
AcDbEntity
  8
M1
  6
CONTINUOUS
370
25
 62
     7
100
AcDbCircle
 10
1103.064385
 20
358.675741
 40
3.0
100
AcDbArc
 50
180.0
 51
270.0
  0
ARC
  5
3BE
100
AcDbEntity
  8
M1
  6
CONTINUOUS
370
25
 62
     7
100
AcDbCircle
 10
1103.064385
 20
452.003744
 40
3.0
100
AcDbArc
 50
90.0
 51
180.0
  0
ARC
  5
3BF
100
AcDbEntity
  8
M1
  6
CONTINUOUS
370
25
 62
     7
100
AcDbCircle
 10
1292.066369
 20
452.002767
 40
3.0
100
AcDbArc
 50
0.0
 51
90.0
  0
ARC
  5
3C0
100
AcDbEntity
  8
M1
  6
CONTINUOUS
370
25
 62
     7
100
AcDbCircle
 10
1292.066369
 20
358.675741
 40
3.0
100
AcDbArc
 50
270.0
 51
360.0
  0
ARC
  5
3C1
100
AcDbEntity
  8
M1
  6
CONTINUOUS
370
25
 62
     7
100
AcDbCircle
 10
1322.066369
 20
384.842764
 40
3.0
100
AcDbArc
 50
180.0
 51
270.0
  0
ARC
  5
3C2
100
AcDbEntity
  8
M1
  6
CONTINUOUS
370
25
 62
     7
100
AcDbCircle
 10
1336.504357
 20
384.842764
 40
3.0
100
AcDbArc
 50
270.0
 51
360.0
  0
ARC
  5
3C3
100
AcDbEntity
  8
M1
  6
CONTINUOUS
370
25
 62
     7
100
AcDbCircle
 10
1322.066369
 20
429.948751
 40
3.0
100
AcDbArc
 50
90.0
 51
180.0
  0
ARC
  5
3C4
100
AcDbEntity
  8
M1
  6
CONTINUOUS
370
25
 62
     7
100
AcDbCircle
 10
1336.504357
 20
429.948751
 40
3.0
100
AcDbArc
 50
0.0
 51
90.0
  0
ARC
  5
3C5
100
AcDbEntity
  8
M1
  6
CONTINUOUS
370
25
 62
     7
100
AcDbCircle
 10
1336.504357
 20
361.155752
 40
3.0
100
AcDbArc
 50
0.0
 51
90.0
  0
ARC
  5
3C6
100
AcDbEntity
  8
M1
  6
CONTINUOUS
370
25
 62
     7
100
AcDbCircle
 10
1322.066369
 20
361.155752
 40
3.0
100
AcDbArc
 50
90.0
 51
180.0
  0
ARC
  5
3C7
100
AcDbEntity
  8
M1
  6
CONTINUOUS
370
25
 62
     7
100
AcDbCircle
 10
1182.563378
 20
1014.899557
 40
14.999681
100
AcDbArc
 50
114.620773
 51
245.379227
  0
ARC
  5
3C8
100
AcDbEntity
  8
M1
  6
CONTINUOUS
370
25
 62
     7
100
AcDbCircle
 10
1182.564355
 20
996.149557
 40
6.25
100
AcDbArc
 50
180.0
 51
360.0
  0
ARC
  5
3C9
100
AcDbEntity
  8
M1
  6
CONTINUOUS
370
25
 62
     7
100
AcDbCircle
 10
1182.564355
 20
1043.499532
 40
6.25
100
AcDbArc
 50
0.0
 51
180.0
  0
ARC
  5
3CA
100
AcDbEntity
  8
M1
  6
CONTINUOUS
370
25
 62
     7
100
AcDbCircle
 10
1182.563378
 20
806.331564
 40
6.249023
100
AcDbArc
 50
180.0
 51
360.0
  0
ARC
  5
3CB
100
AcDbEntity
  8
M1
  6
CONTINUOUS
370
25
 62
     7
100
AcDbCircle
 10
1182.563378
 20
834.931539
 40
14.999681
100
AcDbArc
 50
114.620773
 51
245.379227
  0
ARC
  5
3CC
100
AcDbEntity
  8
M1
  6
CONTINUOUS
370
25
 62
     7
100
AcDbCircle
 10
1182.563378
 20
853.681539
 40
6.25
100
AcDbArc
 50
0.0
 51
180.0
  0
ARC
  5
3CD
100
AcDbEntity
  8
M1
  6
CONTINUOUS
370
25
 62
     7
100
AcDbCircle
 10
1369.065454
 20
1117.915548
 40
2.0
100
AcDbArc
 50
0.0
 51
90.0
  0
ARC
  5
3CE
100
AcDbEntity
  8
M1
  6
CONTINUOUS
370
25
 62
     7
100
AcDbCircle
 10
1026.063348
 20
1117.915548
 40
2.0
100
AcDbArc
 50
90.0
 51
180.0
  0
ARC
  5
3CF
100
AcDbEntity
  8
M1
  6
CONTINUOUS
370
25
 62
     7
100
AcDbCircle
 10
1026.063348
 20
1106.915548
 40
2.0
100
AcDbArc
 50
180.0
 51
270.0
  0
ARC
  5
3D0
100
AcDbEntity
  8
M1
  6
CONTINUOUS
370
25
 62
     7
100
AcDbCircle
 10
1369.065454
 20
1106.915548
 40
2.0
100
AcDbArc
 50
270.0
 51
360.0
  0
ARC
  5
3D1
100
AcDbEntity
  8
M1
  6
CONTINUOUS
370
25
 62
     7
100
AcDbCircle
 10
1057.565484
 20
1069.915548
 40
10.499061
100
AcDbArc
 50
12.855333
 51
297.140337
  0
ARC
  5
3D2
100
AcDbEntity
  8
M1
  6
CONTINUOUS
370
25
 62
     7
100
AcDbCircle
 10
1057.564385
 20
779.915548
 40
10.500196
100
AcDbArc
 50
62.859127
 51
347.145687
  0
ARC
  5
3D3
100
AcDbEntity
  8
M1
  6
CONTINUOUS
370
25
 62
     7
100
AcDbCircle
 10
1026.063348
 20
731.915548
 40
2.0
100
AcDbArc
 50
180.0
 51
270.0
  0
ARC
  5
3D4
100
AcDbEntity
  8
M1
  6
CONTINUOUS
370
25
 62
     7
100
AcDbCircle
 10
1026.063348
 20
742.915548
 40
2.0
100
AcDbArc
 50
90.0
 51
180.0
  0
ARC
  5
3D5
100
AcDbEntity
  8
M1
  6
CONTINUOUS
370
25
 62
     7
100
AcDbCircle
 10
1369.065454
 20
742.915548
 40
2.0
100
AcDbArc
 50
0.0
 51
90.0
  0
ARC
  5
3D6
100
AcDbEntity
  8
M1
  6
CONTINUOUS
370
25
 62
     7
100
AcDbCircle
 10
1369.065454
 20
731.915548
 40
2.0
100
AcDbArc
 50
270.0
 51
360.0
  0
ARC
  5
3D7
100
AcDbEntity
  8
M1
  6
CONTINUOUS
370
25
 62
     7
100
AcDbCircle
 10
1337.564355
 20
779.915548
 40
10.500145
100
AcDbArc
 50
192.854324
 51
477.142349
  0
ARC
  5
3D8
100
AcDbEntity
  8
M1
  6
CONTINUOUS
370
25
 62
     7
100
AcDbCircle
 10
1337.564355
 20
1069.915548
 40
10.500196
100
AcDbArc
 50
242.859131
 51
527.145996
  0
ARC
  5
3D9
100
AcDbEntity
  8
M1
  6
CONTINUOUS
370
25
 62
     7
100
AcDbCircle
 10
1103.063348
 20
1131.915548
 40
3.0
100
AcDbArc
 50
90.0
 51
180.0
  0
ARC
  5
3DA
100
AcDbEntity
  8
M1
  6
CONTINUOUS
370
25
 62
     7
100
AcDbCircle
 10
1103.063348
 20
1099.669576
 40
3.0
100
AcDbArc
 50
180.0
 51
270.0
  0
ARC
  5
3DB
100
AcDbEntity
  8
M1
  6
CONTINUOUS
370
25
 62
     7
100
AcDbCircle
 10
1292.066369
 20
1131.915548
 40
3.0
100
AcDbArc
 50
0.0
 51
90.0
  0
ARC
  5
3DC
100
AcDbEntity
  8
M1
  6
CONTINUOUS
370
25
 62
     7
100
AcDbCircle
 10
1292.066369
 20
1099.669576
 40
3.0
100
AcDbArc
 50
270.0
 51
360.0
  0
ARC
  5
3DD
100
AcDbEntity
  8
M1
  6
CONTINUOUS
370
25
 62
     7
100
AcDbCircle
 10
1073.064385
 20
889.435568
 40
3.0
100
AcDbArc
 50
270.0
 51
360.0
  0
ARC
  5
3DE
100
AcDbEntity
  8
M1
  6
CONTINUOUS
370
25
 62
     7
100
AcDbCircle
 10
1058.626336
 20
889.435568
 40
3.0
100
AcDbArc
 50
180.0
 51
270.0
  0
ARC
  5
3DF
100
AcDbEntity
  8
M1
  6
CONTINUOUS
370
25
 62
     7
100
AcDbCircle
 10
1073.064385
 20
865.748556
 40
3.0
100
AcDbArc
 50
0.0
 51
90.0
  0
ARC
  5
3E0
100
AcDbEntity
  8
M1
  6
CONTINUOUS
370
25
 62
     7
100
AcDbCircle
 10
1058.626336
 20
865.748556
 40
3.0
100
AcDbArc
 50
90.0
 51
180.0
  0
ARC
  5
3E1
100
AcDbEntity
  8
M1
  6
CONTINUOUS
370
25
 62
     7
100
AcDbCircle
 10
1058.626336
 20
820.642599
 40
3.0
100
AcDbArc
 50
180.0
 51
270.0
  0
ARC
  5
3E2
100
AcDbEntity
  8
M1
  6
CONTINUOUS
370
25
 62
     7
100
AcDbCircle
 10
1336.504357
 20
889.434591
 40
3.0
100
AcDbArc
 50
270.0
 51
360.0
  0
ARC
  5
3E3
100
AcDbEntity
  8
M1
  6
CONTINUOUS
370
25
 62
     7
100
AcDbCircle
 10
1322.065454
 20
889.434591
 40
3.0
100
AcDbArc
 50
180.0
 51
270.0
  0
ARC
  5
3E4
100
AcDbEntity
  8
M1
  6
CONTINUOUS
370
25
 62
     7
100
AcDbCircle
 10
1336.504357
 20
865.747579
 40
3.0
100
AcDbArc
 50
0.0
 51
90.0
  0
ARC
  5
3E5
100
AcDbEntity
  8
M1
  6
CONTINUOUS
370
25
 62
     7
100
AcDbCircle
 10
1322.065454
 20
865.747579
 40
3.0
100
AcDbArc
 50
90.0
 51
180.0
  0
ARC
  5
3E6
100
AcDbEntity
  8
M1
  6
CONTINUOUS
370
25
 62
     7
100
AcDbCircle
 10
1336.504357
 20
820.642599
 40
3.0
100
AcDbArc
 50
270.0
 51
360.0
  0
ARC
  5
3E7
100
AcDbEntity
  8
M1
  6
CONTINUOUS
370
25
 62
     7
100
AcDbCircle
 10
1304.065454
 20
1136.915548
 40
3.0
100
AcDbArc
 50
0.0
 51
90.0
  0
ARC
  5
3E8
100
AcDbEntity
  8
M1
  6
CONTINUOUS
370
25
 62
     7
100
AcDbCircle
 10
1292.065454
 20
798.588522
 40
3.0
100
AcDbArc
 50
270.0
 51
360.0
  0
ARC
  5
3E9
100
AcDbEntity
  8
M1
  6
CONTINUOUS
370
25
 62
     7
100
AcDbCircle
 10
1292.065454
 20
891.915548
 40
3.0
100
AcDbArc
 50
0.0
 51
90.0
  0
ARC
  5
3EA
100
AcDbEntity
  8
M1
  6
CONTINUOUS
370
25
 62
     7
100
AcDbCircle
 10
1292.065454
 20
817.180563
 40
3.0
100
AcDbArc
 50
270.0
 51
360.0
  0
ARC
  5
3EB
100
AcDbEntity
  8
M1
  6
CONTINUOUS
370
25
 62
     7
100
AcDbCircle
 10
1087.277337
 20
1106.915548
 40
3.0
100
AcDbArc
 50
90.0
 51
154.998039
  0
ARC
  5
3EC
100
AcDbEntity
  8
M1
  6
CONTINUOUS
370
25
 62
     7
100
AcDbCircle
 10
1027.57525
 20
1040.410543
 40
23.000532
100
AcDbArc
 50
275.001251
 51
334.998634
  0
ARC
  5
3ED
100
AcDbEntity
  8
M1
  6
CONTINUOUS
370
25
 62
     7
100
AcDbCircle
 10
1091.064385
 20
1136.915548
 40
3.0
100
AcDbArc
 50
90.0
 51
180.0
  0
ARC
  5
3EE
100
AcDbEntity
  8
M1
  6
CONTINUOUS
370
25
 62
     7
100
AcDbCircle
 10
1003.064385
 20
1012.166525
 40
3.000477
100
AcDbArc
 50
95.009872
 51
180.0
  0
ARC
  5
3EF
100
AcDbEntity
  8
M1
  6
CONTINUOUS
370
25
 62
     7
100
AcDbCircle
 10
1027.57525
 20
809.421529
 40
23.000372
100
AcDbArc
 50
25.001904
 51
84.998753
  0
ARC
  5
3F0
100
AcDbEntity
  8
M1
  6
CONTINUOUS
370
25
 62
     7
100
AcDbCircle
 10
1003.064385
 20
837.665548
 40
3.0
100
AcDbArc
 50
180.0
 51
264.992447
  0
ARC
  5
3F1
100
AcDbEntity
  8
M1
  6
CONTINUOUS
370
25
 62
     7
100
AcDbCircle
 10
1103.063348
 20
798.588522
 40
3.0
100
AcDbArc
 50
180.0
 51
270.0
  0
ARC
  5
3F2
100
AcDbEntity
  8
M1
  6
CONTINUOUS
370
25
 62
     7
100
AcDbCircle
 10
1103.063348
 20
891.915548
 40
3.0
100
AcDbArc
 50
90.0
 51
180.0
  0
ARC
  5
3F3
100
AcDbEntity
  8
M1
  6
CONTINUOUS
370
25
 62
     7
100
AcDbCircle
 10
1103.063348
 20
817.179586
 40
3.0
100
AcDbArc
 50
180.0
 51
270.0
  0
ARC
  5
3F4
100
AcDbEntity
  8
M1
  6
CONTINUOUS
370
25
 62
     7
100
AcDbCircle
 10
982.964349
 20
890.415548
 40
2.0
100
AcDbArc
 50
0.0
 51
90.0
  0
ARC
  5
3F5
100
AcDbEntity
  8
M1
  6
CONTINUOUS
370
25
 62
     7
100
AcDbCircle
 10
982.964349
 20
959.415548
 40
2.0
100
AcDbArc
 50
270.0
 51
360.0
  0
ARC
  5
3F6
100
AcDbEntity
  8
M1
  6
CONTINUOUS
370
25
 62
     7
100
AcDbCircle
 10
1058.626336
 20
960.395528
 40
3.0
100
AcDbArc
 50
90.0
 51
180.0
  0
ARC
  5
3F7
100
AcDbEntity
  8
M1
  6
CONTINUOUS
370
25
 62
     7
100
AcDbCircle
 10
1073.064385
 20
960.395528
 40
3.0
100
AcDbArc
 50
0.0
 51
90.0
  0
ARC
  5
3F8
100
AcDbEntity
  8
M1
  6
CONTINUOUS
370
25
 62
     7
100
AcDbCircle
 10
1058.626336
 20
984.08254
 40
3.0
100
AcDbArc
 50
180.0
 51
270.0
  0
ARC
  5
3F9
100
AcDbEntity
  8
M1
  6
CONTINUOUS
370
25
 62
     7
100
AcDbCircle
 10
1073.064385
 20
984.08254
 40
3.0
100
AcDbArc
 50
270.0
 51
360.0
  0
ARC
  5
3FA
100
AcDbEntity
  8
M1
  6
CONTINUOUS
370
25
 62
     7
100
AcDbCircle
 10
1058.626336
 20
1029.188497
 40
3.0
100
AcDbArc
 50
90.0
 51
180.0
  0
ARC
  5
3FB
100
AcDbEntity
  8
M1
  6
CONTINUOUS
370
25
 62
     7
100
AcDbCircle
 10
1073.064385
 20
1029.188497
 40
3.0
100
AcDbArc
 50
0.0
 51
90.0
  0
ARC
  5
3FC
100
AcDbEntity
  8
M1
  6
CONTINUOUS
370
25
 62
     7
100
AcDbCircle
 10
1103.063348
 20
957.915548
 40
3.0
100
AcDbArc
 50
180.0
 51
270.0
  0
ARC
  5
3FD
100
AcDbEntity
  8
M1
  6
CONTINUOUS
370
25
 62
     7
100
AcDbCircle
 10
1103.063348
 20
1051.242574
 40
3.0
100
AcDbArc
 50
90.0
 51
180.0
  0
ARC
  5
3FE
100
AcDbEntity
  8
M1
  6
CONTINUOUS
370
25
 62
     7
100
AcDbCircle
 10
1292.066369
 20
1051.242574
 40
3.0
100
AcDbArc
 50
0.0
 51
90.0
  0
ARC
  5
3FF
100
AcDbEntity
  8
M1
  6
CONTINUOUS
370
25
 62
     7
100
AcDbCircle
 10
1292.066369
 20
957.915548
 40
3.0
100
AcDbArc
 50
270.0
 51
360.0
  0
ARC
  5
400
100
AcDbEntity
  8
M1
  6
CONTINUOUS
370
25
 62
     7
100
AcDbCircle
 10
1322.065454
 20
984.08254
 40
3.0
100
AcDbArc
 50
180.0
 51
270.0
  0
ARC
  5
401
100
AcDbEntity
  8
M1
  6
CONTINUOUS
370
25
 62
     7
100
AcDbCircle
 10
1336.504357
 20
984.08254
 40
3.0
100
AcDbArc
 50
270.0
 51
360.0
  0
ARC
  5
402
100
AcDbEntity
  8
M1
  6
CONTINUOUS
370
25
 62
     7
100
AcDbCircle
 10
1322.065454
 20
1029.188497
 40
3.0
100
AcDbArc
 50
90.0
 51
180.0
  0
ARC
  5
403
100
AcDbEntity
  8
M1
  6
CONTINUOUS
370
25
 62
     7
100
AcDbCircle
 10
1336.504357
 20
1029.188497
 40
3.0
100
AcDbArc
 50
0.0
 51
90.0
  0
ARC
  5
404
100
AcDbEntity
  8
M1
  6
CONTINUOUS
370
25
 62
     7
100
AcDbCircle
 10
1336.504357
 20
960.395528
 40
3.0
100
AcDbArc
 50
0.0
 51
90.0
  0
ARC
  5
405
100
AcDbEntity
  8
M1
  6
CONTINUOUS
370
25
 62
     7
100
AcDbCircle
 10
1322.065454
 20
960.395528
 40
3.0
100
AcDbArc
 50
90.0
 51
180.0
  0
ARC
  5
406
100
AcDbEntity
  8
M1
  6
CONTINUOUS
370
25
 62
     7
100
AcDbCircle
 10
1073.064385
 20
820.642599
 40
3.0
100
AcDbArc
 50
270.0
 51
360.0
  0
ARC
  5
407
100
AcDbEntity
  8
M1
  6
CONTINUOUS
370
25
 62
     7
100
AcDbCircle
 10
1322.065454
 20
820.6415
 40
3.0
100
AcDbArc
 50
180.0
 51
270.0
  0
ARC
  5
408
100
AcDbEntity
  8
M1
  6
CONTINUOUS
370
25
 62
     7
100
AcDbCircle
 10
1091.064385
 20
712.915548
 40
3.0
100
AcDbArc
 50
180.0
 51
270.0
  0
ARC
  5
409
100
AcDbEntity
  8
M1
  6
CONTINUOUS
370
25
 62
     7
100
AcDbCircle
 10
1103.063348
 20
717.915548
 40
3.0
100
AcDbArc
 50
180.0
 51
270.0
  0
ARC
  5
40A
100
AcDbEntity
  8
M1
  6
CONTINUOUS
370
25
 62
     7
100
AcDbCircle
 10
1103.063348
 20
750.16152
 40
2.999634
100
AcDbArc
 50
90.0
 51
180.0
  0
ARC
  5
40B
100
AcDbEntity
  8
M1
  6
CONTINUOUS
370
25
 62
     7
100
AcDbCircle
 10
1304.064355
 20
712.915548
 40
3.0
100
AcDbArc
 50
270.0
 51
360.0
  0
ARC
  5
40C
100
AcDbEntity
  8
M1
  6
CONTINUOUS
370
25
 62
     7
100
AcDbCircle
 10
1292.066369
 20
717.915548
 40
3.0
100
AcDbArc
 50
270.0
 51
360.0
  0
ARC
  5
40D
100
AcDbEntity
  8
M1
  6
CONTINUOUS
370
25
 62
     7
100
AcDbCircle
 10
1292.066369
 20
750.16152
 40
3.0
100
AcDbArc
 50
0.0
 51
48.190666
  0
ARC
  5
40E
100
AcDbEntity
  8
M1
  6
CONTINUOUS
370
25
 62
     7
100
AcDbCircle
 10
1087.277337
 20
742.915548
 40
3.001065
100
AcDbArc
 50
204.996262
 51
270.0
  0
ARC
  5
40F
100
AcDbEntity
  8
M1
  6
CONTINUOUS
370
25
 62
     7
100
AcDbCircle
 10
1307.852349
 20
742.915548
 40
3.0
100
AcDbArc
 50
270.0
 51
334.997223
  0
ARC
  5
410
100
AcDbEntity
  8
M1
  6
CONTINUOUS
370
25
 62
     7
100
AcDbCircle
 10
1091.521356
 20
1124.914571
 40
16.454918
100
AcDbArc
 50
158.615021
 51
201.384972
  0
ARC
  5
411
100
AcDbEntity
  8
M1
  6
CONTINUOUS
370
25
 62
     7
100
AcDbCircle
 10
1078.358392
 20
1116.429586
 40
3.291912
100
AcDbArc
 50
130.985458
 51
229.014549
  0
ARC
  5
412
100
AcDbEntity
  8
M1
  6
CONTINUOUS
370
25
 62
     7
100
AcDbCircle
 10
1078.358392
 20
1133.399557
 40
3.291912
100
AcDbArc
 50
130.985458
 51
229.014549
  0
ARC
  5
413
100
AcDbEntity
  8
M1
  6
CONTINUOUS
370
25
 62
     7
100
AcDbCircle
 10
1276.610375
 20
1152.914571
 40
16.454889
100
AcDbArc
 50
338.61499
 51
381.385017
  0
ARC
  5
414
100
AcDbEntity
  8
M1
  6
CONTINUOUS
370
25
 62
     7
100
AcDbCircle
 10
1289.774377
 20
1161.399557
 40
3.291211
100
AcDbArc
 50
310.971405
 51
409.028564
  0
ARC
  5
415
100
AcDbEntity
  8
M1
  6
CONTINUOUS
370
25
 62
     7
100
AcDbCircle
 10
1289.774377
 20
1144.429586
 40
3.291211
100
AcDbArc
 50
310.971405
 51
409.028564
  0
ARC
  5
416
100
AcDbEntity
  8
M1
  6
CONTINUOUS
370
25
 62
     7
100
AcDbCircle
 10
1091.519341
 20
1064.90151
 40
16.453953
100
AcDbArc
 50
158.613708
 51
201.386295
  0
ARC
  5
417
100
AcDbEntity
  8
M1
  6
CONTINUOUS
370
25
 62
     7
100
AcDbCircle
 10
1078.356378
 20
1056.416525
 40
3.291231
100
AcDbArc
 50
130.971817
 51
229.028175
  0
ARC
  5
418
100
AcDbEntity
  8
M1
  6
CONTINUOUS
370
25
 62
     7
100
AcDbCircle
 10
1078.356378
 20
1073.386495
 40
3.291323
100
AcDbArc
 50
130.970428
 51
229.026573
  0
ARC
  5
419
100
AcDbEntity
  8
M1
  6
CONTINUOUS
370
25
 62
     7
100
AcDbCircle
 10
1277.611474
 20
1084.700582
 40
16.454805
100
AcDbArc
 50
338.614868
 51
381.385128
  0
ARC
  5
41A
100
AcDbEntity
  8
M1
  6
CONTINUOUS
370
25
 62
     7
100
AcDbCircle
 10
1290.775353
 20
1093.185568
 40
3.290154
100
AcDbArc
 50
310.976135
 51
409.017014
  0
ARC
  5
41B
100
AcDbEntity
  8
M1
  6
CONTINUOUS
370
25
 62
     7
100
AcDbCircle
 10
1290.775353
 20
1076.215597
 40
3.291243
100
AcDbArc
 50
310.968811
 51
409.028168
  0
ARC
  5
41C
100
AcDbEntity
  8
M1
  6
CONTINUOUS
370
25
 62
     7
100
AcDbCircle
 10
1091.519341
 20
924.914571
 40
16.453953
100
AcDbArc
 50
158.613708
 51
201.38274
  0
ARC
  5
41D
100
AcDbEntity
  8
M1
  6
CONTINUOUS
370
25
 62
     7
100
AcDbCircle
 10
1078.356378
 20
916.430563
 40
3.291231
100
AcDbArc
 50
130.971817
 51
229.028175
  0
ARC
  5
41E
100
AcDbEntity
  8
M1
  6
CONTINUOUS
370
25
 62
     7
100
AcDbCircle
 10
1078.356378
 20
933.399557
 40
3.291231
100
AcDbArc
 50
130.971817
 51
229.028175
  0
ARC
  5
41F
100
AcDbEntity
  8
M1
  6
CONTINUOUS
370
25
 62
     7
100
AcDbCircle
 10
1277.611474
 20
924.915548
 40
16.454435
100
AcDbArc
 50
338.61438
 51
381.381977
  0
ARC
  5
420
100
AcDbEntity
  8
M1
  6
CONTINUOUS
370
25
 62
     7
100
AcDbCircle
 10
1290.775353
 20
933.399557
 40
3.291231
100
AcDbArc
 50
310.971832
 51
409.028191
  0
ARC
  5
421
100
AcDbEntity
  8
M1
  6
CONTINUOUS
370
25
 62
     7
100
AcDbCircle
 10
1290.775353
 20
916.430563
 40
3.291231
100
AcDbArc
 50
310.971832
 51
409.028191
  0
ARC
  5
422
100
AcDbEntity
  8
M1
  6
CONTINUOUS
370
25
 62
     7
100
AcDbCircle
 10
1091.519341
 20
782.05953
 40
16.453596
100
AcDbArc
 50
158.616867
 51
201.386829
  0
ARC
  5
423
100
AcDbEntity
  8
M1
  6
CONTINUOUS
370
25
 62
     7
100
AcDbCircle
 10
1078.356378
 20
773.574545
 40
3.291231
100
AcDbArc
 50
130.971817
 51
229.026573
  0
ARC
  5
424
100
AcDbEntity
  8
M1
  6
CONTINUOUS
370
25
 62
     7
100
AcDbCircle
 10
1078.356378
 20
790.5436
 40
3.291231
100
AcDbArc
 50
130.971817
 51
229.030479
  0
ARC
  5
425
100
AcDbEntity
  8
M1
  6
CONTINUOUS
370
25
 62
     7
100
AcDbCircle
 10
1091.519341
 20
723.480428
 40
16.453953
100
AcDbArc
 50
158.613708
 51
201.386295
  0
ARC
  5
426
100
AcDbEntity
  8
M1
  6
CONTINUOUS
370
25
 62
     7
100
AcDbCircle
 10
1078.356378
 20
714.995565
 40
3.291139
100
AcDbArc
 50
130.973221
 51
229.028885
  0
ARC
  5
427
100
AcDbEntity
  8
M1
  6
CONTINUOUS
370
25
 62
     7
100
AcDbCircle
 10
1078.356378
 20
731.964559
 40
3.291139
100
AcDbArc
 50
130.973221
 51
229.028885
  0
ARC
  5
428
100
AcDbEntity
  8
M1
  6
CONTINUOUS
370
25
 62
     7
100
AcDbCircle
 10
1277.611474
 20
762.260519
 40
16.454391
100
AcDbArc
 50
338.614777
 51
381.381977
  0
ARC
  5
429
100
AcDbEntity
  8
M1
  6
CONTINUOUS
370
25
 62
     7
100
AcDbCircle
 10
1290.775353
 20
770.744527
 40
3.291231
100
AcDbArc
 50
310.971832
 51
409.028191
  0
ARC
  5
42A
100
AcDbEntity
  8
M1
  6
CONTINUOUS
370
25
 62
     7
100
AcDbCircle
 10
1290.775353
 20
753.775533
 40
3.291231
100
AcDbArc
 50
310.971832
 51
409.028191
  0
ARC
  5
42B
100
AcDbEntity
  8
M1
  6
CONTINUOUS
370
25
 62
     7
100
AcDbCircle
 10
1277.611474
 20
695.480428
 40
16.454805
100
AcDbArc
 50
338.614868
 51
381.385128
  0
ARC
  5
42C
100
AcDbEntity
  8
M1
  6
CONTINUOUS
370
25
 62
     7
100
AcDbCircle
 10
1290.775353
 20
703.965658
 40
3.290462
100
AcDbArc
 50
310.96936
 51
409.014229
  0
ARC
  5
42D
100
AcDbEntity
  8
M1
  6
CONTINUOUS
370
25
 62
     7
100
AcDbCircle
 10
1290.775353
 20
686.995565
 40
3.291277
100
AcDbArc
 50
310.97113
 51
409.026794
  0
ARC
  5
42E
100
AcDbEntity
  8
M1
  6
CONTINUOUS
370
25
 62
     7
100
AcDbCircle
 10
1303.609368
 20
1064.90151
 40
16.453953
100
AcDbArc
 50
338.613708
 51
381.386295
  0
ARC
  5
42F
100
AcDbEntity
  8
M1
  6
CONTINUOUS
370
25
 62
     7
100
AcDbCircle
 10
1316.772363
 20
1056.416525
 40
3.291211
100
AcDbArc
 50
310.971405
 51
409.028564
  0
ARC
  5
430
100
AcDbEntity
  8
M1
  6
CONTINUOUS
370
25
 62
     7
100
AcDbCircle
 10
1316.772363
 20
1073.386495
 40
3.291211
100
AcDbArc
 50
310.971405
 51
409.029961
  0
ARC
  5
431
100
AcDbEntity
  8
M1
  6
CONTINUOUS
370
25
 62
     7
100
AcDbCircle
 10
1303.609368
 20
924.914571
 40
16.453596
100
AcDbArc
 50
338.616882
 51
381.38665
  0
ARC
  5
432
100
AcDbEntity
  8
M1
  6
CONTINUOUS
370
25
 62
     7
100
AcDbCircle
 10
1316.772363
 20
916.430563
 40
3.291211
100
AcDbArc
 50
310.971405
 51
409.028564
  0
ARC
  5
433
100
AcDbEntity
  8
M1
  6
CONTINUOUS
370
25
 62
     7
100
AcDbCircle
 10
1316.772363
 20
933.399557
 40
3.291211
100
AcDbArc
 50
310.971405
 51
409.028564
  0
ARC
  5
434
100
AcDbEntity
  8
M1
  6
CONTINUOUS
370
25
 62
     7
100
AcDbCircle
 10
1303.609368
 20
782.05953
 40
16.453953
100
AcDbArc
 50
338.613708
 51
381.382622
  0
ARC
  5
435
100
AcDbEntity
  8
M1
  6
CONTINUOUS
370
25
 62
     7
100
AcDbCircle
 10
1316.772363
 20
773.574545
 40
3.291211
100
AcDbArc
 50
310.971405
 51
409.028564
  0
ARC
  5
436
100
AcDbEntity
  8
M1
  6
CONTINUOUS
370
25
 62
     7
100
AcDbCircle
 10
1316.772363
 20
790.5436
 40
3.291257
100
AcDbArc
 50
310.970734
 51
409.026985
  0
ARC
  5
437
100
AcDbEntity
  8
M1
  6
CONTINUOUS
370
25
 62
     7
100
AcDbCircle
 10
1303.609368
 20
723.480428
 40
16.453953
100
AcDbArc
 50
338.613708
 51
381.386295
  0
ARC
  5
438
100
AcDbEntity
  8
M1
  6
CONTINUOUS
370
25
 62
     7
100
AcDbCircle
 10
1316.772363
 20
714.995565
 40
3.291257
100
AcDbArc
 50
310.970734
 51
409.027199
  0
ARC
  5
439
100
AcDbEntity
  8
M1
  6
CONTINUOUS
370
25
 62
     7
100
AcDbCircle
 10
1316.772363
 20
731.964559
 40
3.291257
100
AcDbArc
 50
310.970734
 51
409.027199
  0
ARC
  5
43A
100
AcDbEntity
  8
M1
  6
CONTINUOUS
370
25
 62
     7
100
AcDbCircle
 10
1182.563378
 20
1014.899557
 40
15.000494
100
AcDbArc
 50
294.627563
 51
425.372452
  0
ARC
  5
43B
100
AcDbEntity
  8
M1
  6
CONTINUOUS
370
25
 62
     7
100
AcDbCircle
 10
1182.563378
 20
834.931539
 40
15.000088
100
AcDbArc
 50
294.624176
 51
425.375839
  0
ARC
  5
43C
100
AcDbEntity
  8
M1
  6
CONTINUOUS
370
25
 62
     7
100
AcDbCircle
 10
1276.608361
 20
553.675741
 40
16.45459
100
AcDbArc
 50
338.615021
 51
381.381836
  0
ARC
  5
43D
100
AcDbEntity
  8
M1
  6
CONTINUOUS
370
25
 62
     7
100
AcDbCircle
 10
1289.771478
 20
562.15975
 40
3.291791
100
AcDbArc
 50
310.983063
 51
409.01696
  0
ARC
  5
43E
100
AcDbEntity
  8
M1
  6
CONTINUOUS
370
25
 62
     7
100
AcDbCircle
 10
1289.771478
 20
545.190756
 40
3.291791
100
AcDbArc
 50
310.983063
 51
409.01696
  0
ARC
  5
43F
100
AcDbEntity
  8
M1
  6
CONTINUOUS
370
25
 62
     7
100
AcDbCircle
 10
1091.521356
 20
525.674764
 40
16.454065
100
AcDbArc
 50
158.613861
 51
201.386135
  0
ARC
  5
440
100
AcDbEntity
  8
M1
  6
CONTINUOUS
370
25
 62
     7
100
AcDbCircle
 10
1078.358392
 20
517.190756
 40
3.290574
100
AcDbArc
 50
130.984573
 51
229.026024
  0
ARC
  5
441
100
AcDbEntity
  8
M1
  6
CONTINUOUS
370
25
 62
     7
100
AcDbCircle
 10
1078.358392
 20
534.15975
 40
3.291311
100
AcDbArc
 50
130.973419
 51
229.026566
  0
ARC
  5
442
100
AcDbEntity
  8
M1
  6
CONTINUOUS
370
25
 62
     7
100
AcDbCircle
 10
1091.519341
 20
325.675741
 40
16.453953
100
AcDbArc
 50
158.613708
 51
201.386295
  0
ARC
  5
443
100
AcDbEntity
  8
M1
  6
CONTINUOUS
370
25
 62
     7
100
AcDbCircle
 10
1078.356378
 20
317.190756
 40
3.291231
100
AcDbArc
 50
130.971817
 51
229.028526
  0
ARC
  5
444
100
AcDbEntity
  8
M1
  6
CONTINUOUS
370
25
 62
     7
100
AcDbCircle
 10
1078.356378
 20
334.160757
 40
3.290494
100
AcDbArc
 50
130.982971
 51
229.029022
  0
ARC
  5
445
100
AcDbEntity
  8
M1
  6
CONTINUOUS
370
25
 62
     7
100
AcDbCircle
 10
1303.609368
 20
467.096761
 40
16.454889
100
AcDbArc
 50
338.61499
 51
381.385017
  0
ARC
  5
446
100
AcDbEntity
  8
M1
  6
CONTINUOUS
370
25
 62
     7
100
AcDbCircle
 10
1316.772363
 20
458.611776
 40
3.291134
100
AcDbArc
 50
310.995819
 51
409.016205
  0
ARC
  5
447
100
AcDbEntity
  8
M1
  6
CONTINUOUS
370
25
 62
     7
100
AcDbCircle
 10
1316.772363
 20
475.581747
 40
3.291872
100
AcDbArc
 50
310.98465
 51
409.015343
  0
ARC
  5
448
100
AcDbEntity
  8
M1
  6
CONTINUOUS
370
25
 62
     7
100
AcDbCircle
 10
1091.519341
 20
467.096761
 40
16.453953
100
AcDbArc
 50
158.613708
 51
201.386295
  0
ARC
  5
449
100
AcDbEntity
  8
M1
  6
CONTINUOUS
370
25
 62
     7
100
AcDbCircle
 10
1078.356378
 20
458.611776
 40
3.291231
100
AcDbArc
 50
130.971817
 51
229.016182
  0
ARC
  5
44A
100
AcDbEntity
  8
M1
  6
CONTINUOUS
370
25
 62
     7
100
AcDbCircle
 10
1078.356378
 20
475.581747
 40
3.291231
100
AcDbArc
 50
130.971817
 51
229.028175
  0
ARC
  5
44B
100
AcDbEntity
  8
M1
  6
CONTINUOUS
370
25
 62
     7
100
AcDbCircle
 10
1303.609368
 20
325.675741
 40
16.454889
100
AcDbArc
 50
338.61499
 51
381.385017
  0
ARC
  5
44C
100
AcDbEntity
  8
M1
  6
CONTINUOUS
370
25
 62
     7
100
AcDbCircle
 10
1316.772363
 20
317.190756
 40
3.291895
100
AcDbArc
 50
310.984314
 51
409.01535
  0
ARC
  5
44D
100
AcDbEntity
  8
M1
  6
CONTINUOUS
370
25
 62
     7
100
AcDbCircle
 10
1316.772363
 20
334.160757
 40
3.291895
100
AcDbArc
 50
310.984314
 51
409.00296
  0
ARC
  5
44E
100
AcDbEntity
  8
M1
  6
CONTINUOUS
370
25
 62
     7
100
AcDbCircle
 10
1277.60946
 20
486.895773
 40
16.454805
100
AcDbArc
 50
338.614868
 51
381.385128
  0
ARC
  5
44F
100
AcDbEntity
  8
M1
  6
CONTINUOUS
370
25
 62
     7
100
AcDbCircle
 10
1290.772454
 20
495.380758
 40
3.291811
100
AcDbArc
 50
310.983459
 51
409.016556
  0
ARC
  5
450
100
AcDbEntity
  8
M1
  6
CONTINUOUS
370
25
 62
     7
100
AcDbCircle
 10
1290.772454
 20
478.411764
 40
3.291077
100
AcDbArc
 50
310.983307
 51
409.005402
  0
ARC
  5
451
100
AcDbEntity
  8
M1
  6
CONTINUOUS
370
25
 62
     7
100
AcDbCircle
 10
1277.60946
 20
325.675741
 40
16.454805
100
AcDbArc
 50
338.614868
 51
381.385128
  0
ARC
  5
452
100
AcDbEntity
  8
M1
  6
CONTINUOUS
370
25
 62
     7
100
AcDbCircle
 10
1290.772454
 20
334.160757
 40
3.291123
100
AcDbArc
 50
310.982605
 51
409.005394
  0
ARC
  5
453
100
AcDbEntity
  8
M1
  6
CONTINUOUS
370
25
 62
     7
100
AcDbCircle
 10
1290.772454
 20
317.190756
 40
3.291835
100
AcDbArc
 50
310.983093
 51
409.016541
  0
ARC
  5
454
100
AcDbEntity
  8
M1
  6
CONTINUOUS
370
25
 62
     7
100
AcDbCircle
 10
1360.436364
 20
425.675741
 40
9.999847
100
AcDbArc
 50
204.999344
 51
270.0
  0
ARC
  5
455
100
AcDbEntity
  8
M1
  6
CONTINUOUS
370
25
 62
     7
100
AcDbCircle
 10
1304.065454
 20
537.675741
 40
3.0
100
AcDbArc
 50
0.0
 51
90.0
  0
ARC
  5
456
100
AcDbEntity
  8
M1
  6
CONTINUOUS
370
25
 62
     7
100
AcDbCircle
 10
1360.436364
 20
225.675741
 40
10.0
100
AcDbArc
 50
90.0
 51
154.995399
  0
ARC
  5
457
100
AcDbEntity
  8
M1
  6
CONTINUOUS
370
25
 62
     7
100
AcDbCircle
 10
1303.613366
 20
525.674764
 40
16.453953
100
AcDbArc
 50
338.613708
 51
381.386295
  0
ARC
  5
458
100
AcDbEntity
  8
M1
  6
CONTINUOUS
370
25
 62
     7
100
AcDbCircle
 10
1316.77636
 20
534.15975
 40
3.291211
100
AcDbArc
 50
310.971405
 51
409.018768
  0
ARC
  5
459
100
AcDbEntity
  8
M1
  6
CONTINUOUS
370
25
 62
     7
100
AcDbCircle
 10
1316.77636
 20
517.189779
 40
3.291257
100
AcDbArc
 50
310.970734
 51
409.029289
  0
ARC
  5
45A
100
AcDbEntity
  8
M1
  6
CONTINUOUS
370
25
 62
     7
100
AcDbCircle
 10
1360.436364
 20
1024.915548
 40
9.999822
100
AcDbArc
 50
204.999023
 51
270.0
  0
ARC
  5
45B
100
AcDbEntity
  8
M1
  6
CONTINUOUS
370
25
 62
     7
100
AcDbCircle
 10
1360.436364
 20
824.915548
 40
10.0
100
AcDbArc
 50
90.0
 51
155.001274
  0
ARC
  5
45C
100
AcDbEntity
  8
M1
  6
CONTINUOUS
370
25
 62
     7
100
AcDbCircle
 10
1303.612451
 20
1124.914571
 40
16.454805
100
AcDbArc
 50
338.614868
 51
381.381573
  0
ARC
  5
45D
100
AcDbEntity
  8
M1
  6
CONTINUOUS
370
25
 62
     7
100
AcDbCircle
 10
1316.775353
 20
1133.39858
 40
3.291872
100
AcDbArc
 50
310.98465
 51
409.015343
  0
ARC
  5
45E
100
AcDbEntity
  8
M1
  6
CONTINUOUS
370
25
 62
     7
100
AcDbCircle
 10
1316.775353
 20
1116.429586
 40
3.291872
100
AcDbArc
 50
310.98465
 51
409.015343
  0
SPLINE
  5
45F
100
AcDbEntity
  8
M1
  6
CONTINUOUS
370
25
 62
     7
100
AcDbSpline
210
0.0
220
0.0
230
-1.0
 70
     8
 71
     3
 72
    23
 73
    19
 43
0.0000001
 40
0.0
 40
0.0
 40
0.0
 40
0.0
 40
1.0
 40
1.0
 40
1.0
 40
2.0
 40
2.0
 40
2.0
 40
3.0
 40
3.0
 40
3.0
 40
4.0
 40
4.0
 40
4.0
 40
5.0
 40
5.0
 40
5.0
 40
6.0
 40
6.0
 40
6.0
 40
6.0
 10
1177.012353
 20
189.568746
 10
1176.035027
 20
188.449422
 10
1175.15368
 20
187.446218
 10
1173.828393
 20
186.62676
 10
1172.37832
 20
185.730215
 10
1170.529778
 20
185.285665
 10
1168.933343
 20
184.768758
 10
1167.443017
 20
184.286184
 10
1166.006555
 20
183.697134
 10
1164.492333
 20
183.635763
 10
1162.954308
 20
183.573415
 10
1161.372155
 20
184.079214
 10
1159.869348
 20
184.632742
 10
1158.377191
 20
185.182363
 10
1156.938287
 20
185.787679
 10
1155.654412
 20
186.62676
 10
1154.374658
 20
187.463094
 10
1153.244927
 20
188.534078
 10
1152.137261
 20
189.641744
  0
ELLIPSE
  5
460
100
AcDbEntity
  8
M1
  6
CONTINUOUS
370
25
 62
     7
100
AcDbEllipse
 10
1164.556359
 20
188.021749
 11
12.699954
 21
0.0
210
0.0
220
0.0
230
1.0
 40
0.629924
 41
-3.141592653589793
 42
3.141592653589793
  0
TEXT
  5
461
100
AcDbEntity
  8
M1
100
AcDbText
 10
1503.021993
 20
92.553785
 40
18.622597
  1
ＰＯＢ－８０
 41
0.833333
  7
STANDARD
100
AcDbText
  0
TEXT
  5
462
100
AcDbEntity
  8
M1
100
AcDbText
 10
393.185323
 20
27.05316
 40
18.622597
  1
Ｄ１
 41
0.833333
  7
STANDARD
100
AcDbText
  0
TEXT
  5
463
100
AcDbEntity
  8
M1
100
AcDbText
 10
1189.112141
 20
27.054151
 40
18.622597
  1
Ｄ２
 41
0.833333
  7
STANDARD
100
AcDbText
  0
TEXT
  5
464
100
AcDbEntity
  8
M1
100
AcDbText
 10
1178.028523
 20
648.503775
 40
18.622597
  1
Ｄ３
 41
0.833333
  7
STANDARD
100
AcDbText
  0
TEXT
  5
465
100
AcDbEntity
  8
M1
100
AcDbText
 10
1451.132893
 20
51.915502
 40
18.622597
  1
（ＳＤＫ６１１９）
 41
0.833333
  7
STANDARD
100
AcDbText
  0
ENDSEC
  0
SECTION
  2
OBJECTS
  0
DICTIONARY
  5
C
100
AcDbDictionary
  3
ACAD_GROUP
350
D
  3
ACAD_MLINESTYLE
350
E
  0
DICTIONARY
  5
D
102
{ACAD_REACTORS
330
C
102
}
100
AcDbDictionary
  0
DICTIONARY
  5
E
102
{ACAD_REACTORS
330
C
102
}
100
AcDbDictionary
  3
STANDARD
350
13
  0
MLINESTYLE
  5
13
102
{ACAD_REACTORS
330
E
102
}
100
AcDbMlineStyle
  2
STANDARD
 70
     0
  3

 62
     0
 51
90.0
 52
90.0
 71
     2
 49
0.5
 62
   256
  6
BYLAYER
 49
-0.5
 62
   256
  6
BYLAYER
  0
ENDSEC
  0
EOF
