  0
SECTION
  2
HEADER
  9
$ACADVER
  1
AC1015
  9
$INSBASE
 10
0.0
 20
0.0
  9
$VIEWCTR
 10
7.531722
 20
4.5
  9
$VIEWSIZE
 40
9.0
  9
$SNAPMODE
 70
     0
  9
$SNAPUNIT
 10
1.0
 20
1.0
  9
$SNAPBASE
 10
0.0
 20
0.0
  9
$SNAPANG
 50
0.0
  9
$SNAPSTYLE
 70
     0
  9
$SNAPISOPAIR
 70
     0
  9
$GRIDMODE
 70
     0
  9
$GRIDUNIT
 10
0.0
 20
0.0
  9
$ORTHOMODE
 70
     0
  9
$REGENMODE
 70
     1
  9
$FILLMODE
 70
     1
  9
$QTEXTMODE
 70
     0
  9
$DRAGMODE
 70
     2
  9
$LTSCALE
 40
1.0
  9
$OSMODE
 70
     0
  9
$ATTMODE
 70
     1
  9
$TEXTSIZE
 40
0.2
  9
$TRACEWID
 40
0.05
  9
$TEXTSTYLE
  7
STANDARD
  9
$CELTYPE
  6
BYLAYER
  9
$CECOLOR
 62
   256
  9
$DIMSCALE
 40
1.0
  9
$DIMASZ
 40
0.18
  9
$DIMEXO
 40
0.0625
  9
$DIMDLI
 40
0.38
  9
$DIMRND
 40
0.0
  9
$DIMDLE
 40
0.0
  9
$DIMEXE
 40
0.18
  9
$DIMTP
 40
0.0
  9
$DIMTM
 40
0.0
  9
$DIMTXT
 40
0.18
  9
$DIMCEN
 40
0.09
  9
$DIMTSZ
 40
0.0
  9
$DIMADEC
 70
     0
  9
$DIMALTRND
 40
0.000000
  9
$DIMAZIN
 70
     0
  9
$DIMDSEP
 70
    46
  9
$DIMATFIT
 70
     3
  9
$DIMFRAC
 70
     0
  9
$DIMLDRBLK
  1

  9
$DIMLUNIT
 70
     2
  9
$DIMLWD
 70
   13
  9
$DIMLWE
 70
   13
  9
$DIMTMOVE
 70
     0
  9
$CELWEIGHT
370
    25
  9
$LWDISPLAY
290
    1
  9
$EXTNAMES
290
    1
  9
$DIMTOL
 70
     0
  9
$DIMLIM
 70
     0
  9
$DIMTIH
 70
     1
  9
$DIMTOH
 70
     1
  9
$DIMSE1
 70
     0
  9
$DIMSE2
 70
     0
  9
$DIMTAD
 70
     0
  9
$DIMZIN
 70
     0
  9
$DIMBLK
  1

  9
$LUNITS
 70
     2
  9
$LUPREC
 70
     4
  9
$AXISMODE
 70
     0
  9
$AXISUNIT
 10
0.0
 20
0.0
  9
$SKETCHINC
 40
0.1
  9
$FILLETRAD
 40
0.0
  9
$AUNITS
 70
     0
  9
$AUPREC
 70
     0
  9
$MENU
  1
ACAD
  9
$ELEVATION
 40
0.0
  9
$THICKNESS
 40
0.0
  9
$VIEWDIR
 10
0.0
 20
0.0
 30
1.0
  9
$LIMCHECK
 70
     0
  9
$BLIPMODE
 70
     1
  9
$CHAMFERA
 40
0.0
  9
$CHAMFERB
 40
0.0
  9
$FASTZOOM
 70
     1
  9
$SKPOLY
 70
     0
  9
$TDCREATE
 40
0000000.0000000000
  9
$TDUPDATE
 40
0000000.0000000000
  9
$TDINDWG
 40
0.0000000000
  9
$TDUSRTIMER
 40
0.0000000000
  9
$USRTIMER
 70
     1
  9
$ANGBASE
 50
0.0
  9
$ANGDIR
 70
     0
  9
$PDMODE
 70
     0
  9
$PDSIZE
 40
0.0
  9
$PLINEWID
 40
0.0
  9
$COORDS
 70
     0
  9
$USERI1
 70
     0
  9
$USERI2
 70
     0
  9
$USERI3
 70
     0
  9
$USERI4
 70
     0
  9
$USERI5
 70
     0
  9
$USERR1
 40
0.0
  9
$USERR2
 40
0.0
  9
$USERR3
 40
0.0
  9
$USERR4
 40
0.0
  9
$USERR5
 40
0.0
  9
$CLAYER
  8
M1
  9
$EXTMIN
 10
0.0
 20
0.0
  9
$EXTMAX
 10
841.0
 20
594.0
  9
$LIMMIN
 10
0.0
 20
0.0
  9
$LIMMAX
 10
841.0
 20
594.0
  9
$HANDSEED
  5
28B
  0
ENDSEC
  0
SECTION
  2
CLASSES
  0
ENDSEC
  0
SECTION
  2
TABLES
  0
TABLE
  2
VPORT
  5
8
100
AcDbSymbolTable
 70
     2
  0
VPORT
  5
14
100
AcDbSymbolTableRecord
100
AcDbViewportTableRecord
  2
*ACTIVE
 70
     0
 10
0.0
 20
0.0
 11
1.0
 21
1.0
 12
484.0
 22
297.0
 13
0.0
 23
0.0
 14
1.0
 24
1.0
 15
0.0
 25
0.0
 16
0.0
 26
0.0
 36
1.0
 17
0.0
 27
0.0
 37
0.0
 40
594.0
 41
2.0
 42
50.0
 43
0.0
 44
0.0
 50
0.0
 51
0.0
 71
     0
 72
   100
 73
     1
 74
     1
 75
     0
 76
     0
 77
     0
 78
     0
  0
ENDTAB
  0
TABLE
  2
LTYPE
  5
5
100
AcDbSymbolTable
 70
     5
  0
LTYPE
  5
15
100
AcDbSymbolTableRecord
100
AcDbLinetypeTableRecord
  2
BYBLOCK
 70
     0
  3

 72
    65
 73
     0
 40
0.0
  0
LTYPE
  5
16
100
AcDbSymbolTableRecord
100
AcDbLinetypeTableRecord
  2
BYLAYER
 70
     0
  3

 72
    65
 73
     0
 40
0.0
  0
LTYPE
  5
17
100
AcDbSymbolTableRecord
100
AcDbLinetypeTableRecord
  2
CONTINUOUS
 70
    64
  3
Solid line
 72
    65
 73
     0
 40
0.0
  0
LTYPE
  5
18
100
AcDbSymbolTableRecord
100
AcDbLinetypeTableRecord
  2
DASHED
 70
    64
  3
__ __ __ __ __ __ __ __ __ __ __ __ __ __ __ __
 72
    65
 73
     2
 40
0.75
 49
0.5
 74
     0
 49
-0.25
 74
     0
  0
LTYPE
  5
19
100
AcDbSymbolTableRecord
100
AcDbLinetypeTableRecord
  2
DASHDOT
 70
    64
  3
__ . __ . __ . __ . __ . __ . __ . __ . __ . __
 72
    65
 73
     4
 40
1.0
 49
0.5
 74
     0
 49
-0.25
 74
     0
 49
0.0
 74
     0
 49
-0.25
 74
     0
  0
LTYPE
  5
1A
100
AcDbSymbolTableRecord
100
AcDbLinetypeTableRecord
  2
DIVIDE
 70
    64
  3
____ . . ____ . . ____ . . ____ . . ____ . . __
 72
    65
 73
     6
 40
1.25
 49
0.5
 74
     0
 49
-0.25
 74
     0
 49
0.0
 74
     0
 49
-0.25
 74
     0
 49
0.0
 74
     0
 49
-0.25
 74
     0
  0
LTYPE
  5
1B
100
AcDbSymbolTableRecord
100
AcDbLinetypeTableRecord
  2
DOT
 70
    64
  3
. . . . . . . . . . . . . . . . . . . . . . . .
 72
    65
 73
     2
 40
0.25
 49
0.0
 74
     0
 49
-0.25
 74
     0
  0
ENDTAB
  0
TABLE
  2
LAYER
  5
2
100
AcDbSymbolTable
 70
   102
  0
LAYER
  5
F
100
AcDbSymbolTableRecord
100
AcDbLayerTableRecord
  2
0
 70
     0
 62
     7
  6
CONTINUOUS
370
     -3
390
F
  0
LAYER
  5
1C
100
AcDbSymbolTableRecord
100
AcDbLayerTableRecord
  2
M1
 70
     0
 62
     3
  6
CONTINUOUS
370
     -3
390
F
  0
LAYER
  5
1D
100
AcDbSymbolTableRecord
100
AcDbLayerTableRecord
  2
M2
 70
     0
 62
     2
  6
CONTINUOUS
370
     -3
390
F
  0
ENDTAB
  0
TABLE
  2
STYLE
  5
3
100
AcDbSymbolTable
 70
     2
  0
STYLE
  5
10
100
AcDbSymbolTableRecord
100
AcDbTextStyleTableRecord
  2
STANDARD
 70
     0
 40
0.0
 41
1.0
 50
0.0
 71
     0
 42
0.2
  3
txt
  4
BIGFONT
  0
ENDTAB
  0
TABLE
  2
VIEW
  5
6
100
AcDbSymbolTable
 70
     0
  0
ENDTAB
  0
TABLE
  2
UCS
  5
7
100
AcDbSymbolTable
 70
     0
  0
ENDTAB
  0
TABLE
  2
APPID
  5
9
100
AcDbSymbolTable
 70
     1
  0
APPID
  5
11
100
AcDbSymbolTableRecord
100
AcDbRegAppTableRecord
  2
ACAD
 70
     0
  0
ENDTAB
  0
TABLE
  2
DIMSTYLE
  5
A
100
AcDbSymbolTable
 70
     2
100
AcDbDimStyleTable
 71
     1
  0
DIMSTYLE
105
24
100
AcDbSymbolTableRecord
100
AcDbDimStyleTableRecord
  2
STANDARD
 70
     0
  3

  4

  5

  6
_OPEN
  7
_OPEN
 40
1.0
 41
3.0
 42
0.5
 43
8.0
 44
1.5
 45
0.0
 46
0.0
 47
0.0
 48
0.0
140
3.15
141
0.09
142
0.0
143
0.03937
144
1.0
145
0.0
146
1.0
147
1.0
148
0.000000
 71
     0
 72
     0
 73
     0
 74
     0
 75
     0
 76
     0
 77
     3
 78
     8
170
     0
171
     2
172
     0
173
     1
174
     0
175
     0
176
     0
177
     0
178
     0
270
     2
271
     2
272
     4
273
     2
274
     2
340
10
275
     0
278
    46
280
     0
281
     0
282
     0
283
     1
284
     0
285
     0
286
     0
287
     3
288
     0
371
   13
372
   13
  0
DIMSTYLE
105
25
100
AcDbSymbolTableRecord
100
AcDbDimStyleTableRecord
  2
LEADSTYL
 70
     0
  3

  4

  5

  6
_OPEN
  7
_OPEN
 40
1.0
 41
3.0
 42
0.0625
 43
0.38
 44
0.18
 45
0.0
 46
0.0
 47
0.0
 48
0.0
140
3.15
141
0.09
142
0.0
143
25.4
144
1.0
145
0.0
146
1.0
147
1.0
 71
     0
 72
     0
 73
     1
 74
     1
 75
     0
 76
     0
 77
     0
 78
     0
170
     0
171
     2
172
     0
173
     1
174
     0
175
     0
176
     0
177
     0
178
     0
270
     2
271
     4
272
     4
273
     2
274
     2
340
10
275
     0
280
     0
281
     0
282
     0
283
     1
284
     0
285
     0
286
     0
287
     3
288
     0
  0
ENDTAB
  0
TABLE
  2
BLOCK_RECORD
  5
1
100
AcDbSymbolTable
 70
     6
  0
BLOCK_RECORD
  5
1E
100
AcDbSymbolTableRecord
100
AcDbBlockTableRecord
  2
*MODEL_SPACE
  0
BLOCK_RECORD
  5
21
100
AcDbSymbolTableRecord
100
AcDbBlockTableRecord
  2
*PAPER_SPACE
  0
BLOCK_RECORD
  5
26
100
AcDbSymbolTableRecord
100
AcDbBlockTableRecord
  2
_NONE
  0
BLOCK_RECORD
  5
2A
100
AcDbSymbolTableRecord
100
AcDbBlockTableRecord
  2
_OPEN
  0
BLOCK_RECORD
  5
30
100
AcDbSymbolTableRecord
100
AcDbBlockTableRecord
  2
_CLOSED
  0
BLOCK_RECORD
  5
37
100
AcDbSymbolTableRecord
100
AcDbBlockTableRecord
  2
_ORIGIN
  0
BLOCK_RECORD
  5
3C
100
AcDbSymbolTableRecord
100
AcDbBlockTableRecord
  2
_DOT
  0
BLOCK_RECORD
  5
44
100
AcDbSymbolTableRecord
100
AcDbBlockTableRecord
  2
_OBLIQUE
  0
ENDTAB
  0
ENDSEC
  0
SECTION
  2
BLOCKS
  0
BLOCK
  5
1F
100
AcDbEntity
  8
0
100
AcDbBlockBegin
  2
*MODEL_SPACE
 70
     0
 10
0.0
 20
0.0
 30
0.0
  3
*MODEL_SPACE
  1

  0
ENDBLK
  5
20
100
AcDbEntity
  8
0
100
AcDbBlockEnd
  0
BLOCK
  5
22
100
AcDbEntity
 67
     1
  8
0
100
AcDbBlockBegin
  2
*PAPER_SPACE
 70
     0
 10
0.0
 20
0.0
 30
0.0
  3
*PAPER_SPACE
  1

  0
ENDBLK
  5
23
100
AcDbEntity
 67
     1
  8
0
100
AcDbBlockEnd
  0
BLOCK
  5
27
100
AcDbEntity
  8
0
100
AcDbBlockBegin
  2
_NONE
 70
     0
 10
0.0
 20
0.0
  0
CIRCLE
  5
28
100
AcDbEntity
  8
0
 62
     0
370
13
100
AcDbCircle
 10
0.0
 20
0.0
 40
0.25
  0
ENDBLK
  5
29
100
AcDbEntity
  8
0
100
AcDbBlockEnd
  0
BLOCK
  5
2B
100
AcDbEntity
  8
0
100
AcDbBlockBegin
  2
_OPEN
 70
     0
 10
0.0
 20
0.0
  0
LINE
  5
2C
100
AcDbEntity
  8
0
 62
     0
370
13
100
AcDbLine
 10
-0.965926
 20
0.258819
 11
0.0
 21
0.0
  0
LINE
  5
2D
100
AcDbEntity
  8
0
 62
     0
370
13
100
AcDbLine
 10
0.0
 20
0.0
 11
-0.965926
 21
-0.258819
  0
LINE
  5
2E
100
AcDbEntity
  8
0
 62
     0
370
13
100
AcDbLine
 10
0.0
 20
0.0
 11
-1.0
 21
0.0
  0
ENDBLK
  5
2F
100
AcDbEntity
  8
0
100
AcDbBlockEnd
  0
BLOCK
  5
31
100
AcDbEntity
  8
0
100
AcDbBlockBegin
  2
_CLOSED
 70
     0
 10
0.0
 20
0.0
  0
LINE
  5
32
100
AcDbEntity
  8
0
 62
     0
370
13
100
AcDbLine
 10
-0.965926
 20
0.258819
 11
0.0
 21
0.0
  0
LINE
  5
33
100
AcDbEntity
  8
0
 62
     0
370
13
100
AcDbLine
 10
0.0
 20
0.0
 11
-0.965926
 21
-0.258819
  0
LINE
  5
34
100
AcDbEntity
  8
0
 62
     0
370
13
100
AcDbLine
 10
-0.965926
 20
0.258819
 11
-0.965926
 21
-0.258819
  0
LINE
  5
35
100
AcDbEntity
  8
0
 62
     0
370
13
100
AcDbLine
 10
0.0
 20
0.0
 11
-1.0
 21
0.0
  0
ENDBLK
  5
36
100
AcDbEntity
  8
0
100
AcDbBlockEnd
  0
BLOCK
  5
38
100
AcDbEntity
  8
0
100
AcDbBlockBegin
  2
_ORIGIN
 70
     0
 10
0.0
 20
0.0
  0
CIRCLE
  5
39
100
AcDbEntity
  8
0
 62
     0
370
13
100
AcDbCircle
 10
0.0
 20
0.0
 40
0.5
  0
LINE
  5
3A
100
AcDbEntity
  8
0
 62
     0
370
13
100
AcDbLine
 10
0.0
 20
0.0
 11
-1.0
 21
0.0
  0
ENDBLK
  5
3B
100
AcDbEntity
  8
0
100
AcDbBlockEnd
  0
BLOCK
  5
3D
100
AcDbEntity
  8
0
100
AcDbBlockBegin
  2
_DOT
 70
     0
 10
0.0
 20
0.0
  0
POLYLINE
  5
3E
100
AcDbEntity
  8
0
 62
     0
100
AcDb2dPolyline
 66
     1
 70
     1
 40
0.5
 41
0.5
  0
VERTEX
  5
3F
100
AcDbEntity
  8
0
 62
     0
100
AcDbVertex
100
AcDb2dVertex
 10
-0.25
 20
0.0
 42
1.0
  0
VERTEX
  5
40
100
AcDbEntity
  8
0
 62
     0
100
AcDbVertex
100
AcDb2dVertex
 10
0.25
 20
0.0
 42
1.0
  0
SEQEND
  5
41
100
AcDbEntity
  8
0
 62
     0
  0
LINE
  5
42
100
AcDbEntity
  8
0
 62
     0
370
13
100
AcDbLine
 10
-0.5
 20
0.0
 11
-1.0
 21
0.0
  0
ENDBLK
  5
43
100
AcDbEntity
  8
0
100
AcDbBlockEnd
  0
BLOCK
  5
45
100
AcDbEntity
  8
0
100
AcDbBlockBegin
  2
_OBLIQUE
 70
     0
 10
0.0
 20
0.0
  0
LINE
  5
46
100
AcDbEntity
  8
0
 62
     0
370
13
100
AcDbLine
 10
-0.353553
 20
-0.353553
 11
0.353553
 21
0.353553
  0
ENDBLK
  5
47
100
AcDbEntity
  8
0
100
AcDbBlockEnd
  0
ENDSEC
  0
SECTION
  2
ENTITIES
  0
LINE
  5
48
100
AcDbEntity
  8
M1
  6
CONTINUOUS
370
13
 62
     7
100
AcDbLine
 10
598.4104
 20
367.217422
 11
582.288696
 21
367.217422
  0
LINE
  5
49
100
AcDbEntity
  8
M1
  6
CONTINUOUS
370
25
 62
     7
100
AcDbLine
 10
360.725708
 20
387.717911
 11
360.725708
 21
367.217422
  0
LINE
  5
4A
100
AcDbEntity
  8
M1
  6
CONTINUOUS
370
25
 62
     7
100
AcDbLine
 10
370.725708
 20
388.217422
 11
361.225708
 21
388.217422
  0
LINE
  5
4B
100
AcDbEntity
  8
M1
  6
CONTINUOUS
370
25
 62
     7
100
AcDbLine
 10
370.725708
 20
404.217422
 11
370.725708
 21
367.217422
  0
LINE
  5
4C
100
AcDbEntity
  8
M1
  6
CONTINUOUS
370
25
 62
     7
100
AcDbLine
 10
387.225708
 20
425.217422
 11
378.725708
 21
425.217422
  0
LINE
  5
4D
100
AcDbEntity
  8
M1
  6
CONTINUOUS
370
25
 62
     7
100
AcDbLine
 10
377.725708
 20
424.217422
 11
377.725708
 21
367.217422
  0
LINE
  5
4E
100
AcDbEntity
  8
M1
  6
CONTINUOUS
370
25
 62
     7
100
AcDbLine
 10
361.225311
 20
388.217422
 11
360.725311
 21
387.717422
  0
LINE
  5
4F
100
AcDbEntity
  8
M1
  6
CONTINUOUS
370
25
 62
     7
100
AcDbLine
 10
373.725708
 20
404.217422
 11
370.725708
 21
404.217422
  0
LINE
  5
50
100
AcDbEntity
  8
M1
  6
CONTINUOUS
370
25
 62
     7
100
AcDbLine
 10
387.225708
 20
433.717422
 11
387.225708
 21
367.217422
  0
LINE
  5
51
100
AcDbEntity
  8
M1
  6
CONTINUOUS
370
25
 62
     7
100
AcDbLine
 10
387.725708
 20
434.217422
 11
423.725708
 21
434.217422
  0
LINE
  5
52
100
AcDbEntity
  8
M1
  6
CONTINUOUS
370
25
 62
     7
100
AcDbLine
 10
424.225708
 20
433.717422
 11
424.225708
 21
367.217422
  0
LINE
  5
53
100
AcDbEntity
  8
M1
  6
CONTINUOUS
370
25
 62
     7
100
AcDbLine
 10
431.725708
 20
425.217422
 11
424.225708
 21
425.217422
  0
LINE
  5
54
100
AcDbEntity
  8
M1
  6
CONTINUOUS
370
25
 62
     7
100
AcDbLine
 10
431.725708
 20
425.217422
 11
431.725708
 21
367.217422
  0
LINE
  5
55
100
AcDbEntity
  8
M1
  6
CONTINUOUS
370
25
 62
     7
100
AcDbLine
 10
432.097809
 20
414.54451
 11
435.726013
 21
398.217422
  0
LINE
  5
56
100
AcDbEntity
  8
M1
  6
CONTINUOUS
370
25
 62
     7
100
AcDbLine
 10
435.7258
 20
398.217117
 11
435.7258
 21
397.825211
  0
LINE
  5
57
100
AcDbEntity
  8
M1
  6
CONTINUOUS
370
25
 62
     7
100
AcDbLine
 10
376.42569
 20
397.817429
 11
376.42569
 21
388.617416
  0
LINE
  5
58
100
AcDbEntity
  8
M1
  6
CONTINUOUS
370
25
 62
     7
100
AcDbLine
 10
373.329803
 20
397.817429
 11
377.725708
 21
397.817429
  0
LINE
  5
59
100
AcDbEntity
  8
M1
  6
CONTINUOUS
370
25
 62
     7
100
AcDbLine
 10
373.329803
 20
388.617416
 11
377.725708
 21
388.617416
  0
LINE
  5
5A
100
AcDbEntity
  8
M1
  6
CONTINUOUS
370
25
 62
     7
100
AcDbLine
 10
376.42569
 20
393.517014
 11
377.725708
 21
394.817032
  0
LINE
  5
5B
100
AcDbEntity
  8
M1
  6
CONTINUOUS
370
25
 62
     7
100
AcDbLine
 10
376.425385
 20
391.395615
 11
377.725494
 21
392.695633
  0
LINE
  5
5C
100
AcDbEntity
  8
M1
  6
CONTINUOUS
370
25
 62
     7
100
AcDbLine
 10
372.92569
 20
397.117416
 11
372.92569
 21
389.317429
  0
LINE
  5
5D
100
AcDbEntity
  8
M1
  6
CONTINUOUS
370
25
 62
     7
100
AcDbLine
 10
372.925598
 20
397.117508
 11
373.329712
 21
397.81752
  0
LINE
  5
5E
100
AcDbEntity
  8
M1
  6
CONTINUOUS
370
25
 62
     7
100
AcDbLine
 10
373.329803
 20
395.717422
 11
376.42569
 21
395.717422
  0
LINE
  5
5F
100
AcDbEntity
  8
M1
  6
CONTINUOUS
370
25
 62
     7
100
AcDbLine
 10
373.329803
 20
390.717422
 11
376.42569
 21
390.717422
  0
LINE
  5
60
100
AcDbEntity
  8
M1
  6
CONTINUOUS
370
25
 62
     7
100
AcDbLine
 10
372.925507
 20
389.317337
 11
373.329712
 21
388.617325
  0
LINE
  5
61
100
AcDbEntity
  8
M1
  6
CONTINUOUS
370
25
 62
     7
100
AcDbLine
 10
433.025787
 20
397.817429
 11
433.025787
 21
388.617416
  0
LINE
  5
62
100
AcDbEntity
  8
M1
  6
CONTINUOUS
370
25
 62
     7
100
AcDbLine
 10
436.117188
 20
397.825211
 11
431.725586
 21
397.825211
  0
LINE
  5
63
100
AcDbEntity
  8
M1
  6
CONTINUOUS
370
25
 62
     7
100
AcDbLine
 10
436.121796
 20
388.617416
 11
431.725586
 21
388.617416
  0
LINE
  5
64
100
AcDbEntity
  8
M1
  6
CONTINUOUS
370
25
 62
     7
100
AcDbLine
 10
436.11911
 20
395.727707
 11
433.025787
 21
395.727707
  0
LINE
  5
65
100
AcDbEntity
  8
M1
  6
CONTINUOUS
370
25
 62
     7
100
AcDbLine
 10
436.116791
 20
390.727829
 11
433.025787
 21
390.727829
  0
LINE
  5
66
100
AcDbEntity
  8
M1
  6
CONTINUOUS
370
25
 62
     7
100
AcDbLine
 10
328.225708
 20
373.217422
 11
328.225708
 21
367.217422
  0
LINE
  5
67
100
AcDbEntity
  8
M1
  6
CONTINUOUS
370
25
 62
     7
100
AcDbLine
 10
354.225708
 20
373.217422
 11
328.225708
 21
373.217422
  0
LINE
  5
68
100
AcDbEntity
  8
M1
  6
CONTINUOUS
370
25
 62
     7
100
AcDbLine
 10
350.225708
 20
369.217422
 11
350.225708
 21
367.217422
  0
LINE
  5
69
100
AcDbEntity
  8
M1
  6
CONTINUOUS
370
25
 62
     7
100
AcDbLine
 10
354.225708
 20
374.717422
 11
354.225708
 21
367.217422
  0
LINE
  5
6A
100
AcDbEntity
  8
M1
  6
CONTINUOUS
370
25
 62
     7
100
AcDbLine
 10
350.225708
 20
369.217422
 11
328.225708
 21
369.217422
  0
LINE
  5
6B
100
AcDbEntity
  8
M1
  6
CONTINUOUS
370
25
 62
     7
100
AcDbLine
 10
436.235107
 20
384.217422
 11
435.7258
 21
384.217422
  0
LINE
  5
6C
100
AcDbEntity
  8
M1
  6
CONTINUOUS
370
25
 62
     7
100
AcDbLine
 10
436.235107
 20
378.217422
 11
435.7258
 21
378.217422
  0
LINE
  5
6D
100
AcDbEntity
  8
M1
  6
CONTINUOUS
370
25
 62
     7
100
AcDbLine
 10
436.7258
 20
386.117416
 11
436.7258
 21
376.317429
  0
LINE
  5
6E
100
AcDbEntity
  8
M1
  6
CONTINUOUS
370
25
 62
     7
100
AcDbLine
 10
436.235107
 20
386.967422
 11
435.7258
 21
386.967422
  0
LINE
  5
6F
100
AcDbEntity
  8
M1
  6
CONTINUOUS
370
25
 62
     7
100
AcDbLine
 10
436.235107
 20
375.467422
 11
435.7258
 21
375.467422
  0
LINE
  5
70
100
AcDbEntity
  8
M1
  6
CONTINUOUS
370
25
 62
     7
100
AcDbLine
 10
436.234894
 20
386.967514
 11
436.725586
 21
386.117416
  0
LINE
  5
71
100
AcDbEntity
  8
M1
  6
CONTINUOUS
370
25
 62
     7
100
AcDbLine
 10
436.235199
 20
375.467316
 11
436.725891
 21
376.317322
  0
LINE
  5
72
100
AcDbEntity
  8
M1
  6
CONTINUOUS
370
13
 62
     7
100
AcDbLine
 10
182.162598
 20
403.595108
 11
182.162598
 21
394.099625
  0
LINE
  5
73
100
AcDbEntity
  8
M1
  6
CONTINUOUS
370
13
 62
     7
100
AcDbLine
 10
184.617676
 20
367.217422
 11
178.386292
 21
367.217422
  0
LINE
  5
74
100
AcDbEntity
  8
M1
  6
CONTINUOUS
370
13
 62
     7
100
AcDbLine
 10
444.832886
 20
367.217422
 11
433.493408
 21
367.217422
  0
LINE
  5
75
100
AcDbEntity
  8
M1
  6
CONTINUOUS
370
25
 62
     7
100
AcDbLine
 10
234.704803
 20
391.780136
 11
204.090027
 21
374.104721
  0
LINE
  5
76
100
AcDbEntity
  8
M1
  6
CONTINUOUS
370
25
 62
     7
100
AcDbLine
 10
229.704498
 20
400.440628
 11
199.089783
 21
382.765213
  0
LINE
  5
77
100
AcDbEntity
  8
M1
  6
CONTINUOUS
370
25
 62
     7
100
AcDbLine
 10
227.212006
 20
388.608109
 11
223.211975
 21
390.917618
  0
LINE
  5
78
100
AcDbEntity
  8
M1
  6
CONTINUOUS
370
25
 62
     7
100
AcDbLine
 10
227.179291
 20
397.827835
 11
223.211914
 21
395.537308
  0
LINE
  5
79
100
AcDbEntity
  8
M1
  6
CONTINUOUS
370
25
 62
     7
100
AcDbLine
 10
231.179413
 20
390.899429
 11
227.212006
 21
388.60881
  0
LINE
  5
7A
100
AcDbEntity
  8
M1
  6
CONTINUOUS
370
25
 62
     7
100
AcDbLine
 10
227.179688
 20
397.827011
 11
231.179504
 21
395.517624
  0
LINE
  5
7B
100
AcDbEntity
  8
M1
  6
CONTINUOUS
370
25
 62
     7
100
AcDbLine
 10
223.21167
 20
395.536331
 11
223.21167
 21
390.917709
  0
LINE
  5
7C
100
AcDbEntity
  8
M1
  6
CONTINUOUS
370
25
 62
     7
100
AcDbLine
 10
231.179413
 20
390.898911
 11
231.179413
 21
395.517532
  0
LINE
  5
7D
100
AcDbEntity
  8
M1
  6
CONTINUOUS
370
25
 62
     7
100
AcDbLine
 10
187.162598
 20
425.001511
 11
187.162598
 21
389.65062
  0
LINE
  5
7E
100
AcDbEntity
  8
M1
  6
CONTINUOUS
370
25
 62
     7
100
AcDbLine
 10
177.162598
 20
425.001511
 11
177.162598
 21
389.65062
  0
LINE
  5
7F
100
AcDbEntity
  8
M1
  6
CONTINUOUS
370
25
 62
     7
100
AcDbLine
 10
186.162781
 20
416.926132
 11
182.162903
 21
414.616714
  0
LINE
  5
80
100
AcDbEntity
  8
M1
  6
CONTINUOUS
370
25
 62
     7
100
AcDbLine
 10
178.162598
 20
421.508011
 11
178.162598
 21
416.926834
  0
LINE
  5
81
100
AcDbEntity
  8
M1
  6
CONTINUOUS
370
25
 62
     7
100
AcDbLine
 10
186.162598
 20
421.508011
 11
186.162598
 21
416.926834
  0
LINE
  5
82
100
AcDbEntity
  8
M1
  6
CONTINUOUS
370
25
 62
     7
100
AcDbLine
 10
178.162476
 20
421.50853
 11
182.162476
 21
423.817917
  0
LINE
  5
83
100
AcDbEntity
  8
M1
  6
CONTINUOUS
370
25
 62
     7
100
AcDbLine
 10
178.162781
 20
416.926926
 11
182.16272
 21
414.617508
  0
LINE
  5
84
100
AcDbEntity
  8
M1
  6
CONTINUOUS
370
25
 62
     7
100
AcDbLine
 10
186.162598
 20
421.508011
 11
182.16272
 21
423.817429
  0
LINE
  5
85
100
AcDbEntity
  8
M1
  6
CONTINUOUS
370
25
 62
     7
100
AcDbLine
 10
134.620117
 20
400.439407
 11
165.23468
 21
382.764023
  0
LINE
  5
86
100
AcDbEntity
  8
M1
  6
CONTINUOUS
370
25
 62
     7
100
AcDbLine
 10
129.620117
 20
391.779221
 11
160.234924
 21
374.103821
  0
LINE
  5
87
100
AcDbEntity
  8
M1
  6
CONTINUOUS
370
25
 62
     7
100
AcDbLine
 10
141.112976
 20
395.536209
 11
141.112976
 21
390.917435
  0
LINE
  5
88
100
AcDbEntity
  8
M1
  6
CONTINUOUS
370
25
 62
     7
100
AcDbLine
 10
133.145508
 20
390.898422
 11
137.112976
 21
388.607834
  0
LINE
  5
89
100
AcDbEntity
  8
M1
  6
CONTINUOUS
370
25
 62
     7
100
AcDbLine
 10
137.145508
 20
397.826736
 11
141.112915
 21
395.536118
  0
LINE
  5
8A
100
AcDbEntity
  8
M1
  6
CONTINUOUS
370
25
 62
     7
100
AcDbLine
 10
133.145508
 20
390.898514
 11
133.145508
 21
395.517319
  0
LINE
  5
8B
100
AcDbEntity
  8
M1
  6
CONTINUOUS
370
25
 62
     7
100
AcDbLine
 10
137.113281
 20
388.607437
 11
141.11322
 21
390.916733
  0
LINE
  5
8C
100
AcDbEntity
  8
M1
  6
CONTINUOUS
370
25
 62
     7
100
AcDbLine
 10
137.146179
 20
397.826309
 11
133.146301
 21
395.516922
  0
LINE
  5
8D
100
AcDbEntity
  8
M1
  6
CONTINUOUS
370
25
 62
     7
100
AcDbLine
 10
141.112976
 20
395.536209
 11
141.112976
 21
390.917435
  0
LINE
  5
8E
100
AcDbEntity
  8
M1
  6
CONTINUOUS
370
25
 62
     7
100
AcDbLine
 10
133.145508
 20
390.898422
 11
137.112915
 21
388.607925
  0
LINE
  5
8F
100
AcDbEntity
  8
M1
  6
CONTINUOUS
370
25
 62
     7
100
AcDbLine
 10
137.145508
 20
397.826736
 11
141.112915
 21
395.536118
  0
LINE
  5
90
100
AcDbEntity
  8
M1
  6
CONTINUOUS
370
25
 62
     7
100
AcDbLine
 10
133.145508
 20
390.898514
 11
133.145508
 21
395.517319
  0
LINE
  5
91
100
AcDbEntity
  8
M1
  6
CONTINUOUS
370
25
 62
     7
100
AcDbLine
 10
137.113586
 20
388.607315
 11
141.113525
 21
390.916611
  0
LINE
  5
92
100
AcDbEntity
  8
M1
  6
CONTINUOUS
370
25
 62
     7
100
AcDbLine
 10
137.146179
 20
397.826309
 11
133.146301
 21
395.516922
  0
LINE
  5
93
100
AcDbEntity
  8
M1
  6
CONTINUOUS
370
25
 62
     7
100
AcDbLine
 10
129.619873
 20
342.656616
 11
160.23468
 21
360.332123
  0
LINE
  5
94
100
AcDbEntity
  8
M1
  6
CONTINUOUS
370
25
 62
     7
100
AcDbLine
 10
134.619873
 20
333.996124
 11
165.234619
 21
351.671524
  0
LINE
  5
95
100
AcDbEntity
  8
M1
  6
CONTINUOUS
370
25
 62
     7
100
AcDbLine
 10
137.112976
 20
345.826721
 11
141.112976
 21
343.517319
  0
LINE
  5
96
100
AcDbEntity
  8
M1
  6
CONTINUOUS
370
25
 62
     7
100
AcDbLine
 10
137.145386
 20
336.608917
 11
141.112915
 21
338.899521
  0
LINE
  5
97
100
AcDbEntity
  8
M1
  6
CONTINUOUS
370
25
 62
     7
100
AcDbLine
 10
133.145325
 20
343.537018
 11
137.112671
 21
345.827515
  0
LINE
  5
98
100
AcDbEntity
  8
M1
  6
CONTINUOUS
370
25
 62
     7
100
AcDbLine
 10
137.145569
 20
336.607819
 11
133.145569
 21
338.917221
  0
LINE
  5
99
100
AcDbEntity
  8
M1
  6
CONTINUOUS
370
25
 62
     7
100
AcDbLine
 10
141.113586
 20
338.898727
 11
141.113586
 21
343.517426
  0
LINE
  5
9A
100
AcDbEntity
  8
M1
  6
CONTINUOUS
370
25
 62
     7
100
AcDbLine
 10
133.145874
 20
343.536224
 11
133.145874
 21
338.917526
  0
LINE
  5
9B
100
AcDbEntity
  8
M1
  6
CONTINUOUS
370
25
 62
     7
100
AcDbLine
 10
177.162598
 20
309.433426
 11
177.162598
 21
344.784225
  0
LINE
  5
9C
100
AcDbEntity
  8
M1
  6
CONTINUOUS
370
25
 62
     7
100
AcDbLine
 10
187.162781
 20
309.433426
 11
187.162781
 21
344.784225
  0
LINE
  5
9D
100
AcDbEntity
  8
M1
  6
CONTINUOUS
370
25
 62
     7
100
AcDbLine
 10
178.162292
 20
317.509018
 11
182.162292
 21
319.81842
  0
LINE
  5
9E
100
AcDbEntity
  8
M1
  6
CONTINUOUS
370
25
 62
     7
100
AcDbLine
 10
186.162781
 20
312.926926
 11
186.162781
 21
317.508118
  0
LINE
  5
9F
100
AcDbEntity
  8
M1
  6
CONTINUOUS
370
25
 62
     7
100
AcDbLine
 10
178.162781
 20
312.926926
 11
178.162781
 21
317.508118
  0
LINE
  5
A0
100
AcDbEntity
  8
M1
  6
CONTINUOUS
370
25
 62
     7
100
AcDbLine
 10
186.162476
 20
312.927719
 11
182.162476
 21
310.618317
  0
LINE
  5
A1
100
AcDbEntity
  8
M1
  6
CONTINUOUS
370
25
 62
     7
100
AcDbLine
 10
186.16272
 20
317.508514
 11
182.162781
 21
319.817825
  0
LINE
  5
A2
100
AcDbEntity
  8
M1
  6
CONTINUOUS
370
25
 62
     7
100
AcDbLine
 10
178.16272
 20
312.926926
 11
182.162476
 21
310.617615
  0
LINE
  5
A3
100
AcDbEntity
  8
M1
  6
CONTINUOUS
370
25
 62
     7
100
AcDbLine
 10
229.704987
 20
333.995117
 11
199.090271
 21
351.670624
  0
LINE
  5
A4
100
AcDbEntity
  8
M1
  6
CONTINUOUS
370
25
 62
     7
100
AcDbLine
 10
234.705109
 20
342.655518
 11
204.090393
 21
360.331024
  0
LINE
  5
A5
100
AcDbEntity
  8
M1
  6
CONTINUOUS
370
25
 62
     7
100
AcDbLine
 10
223.21228
 20
338.898926
 11
223.21228
 21
343.517624
  0
LINE
  5
A6
100
AcDbEntity
  8
M1
  6
CONTINUOUS
370
25
 62
     7
100
AcDbLine
 10
231.179596
 20
343.536423
 11
227.212189
 21
345.827026
  0
LINE
  5
A7
100
AcDbEntity
  8
M1
  6
CONTINUOUS
370
25
 62
     7
100
AcDbLine
 10
227.179596
 20
336.608124
 11
223.212219
 21
338.898727
  0
LINE
  5
A8
100
AcDbEntity
  8
M1
  6
CONTINUOUS
370
25
 62
     7
100
AcDbLine
 10
231.17981
 20
343.536423
 11
231.17981
 21
338.917725
  0
LINE
  5
A9
100
AcDbEntity
  8
M1
  6
CONTINUOUS
370
25
 62
     7
100
AcDbLine
 10
227.211609
 20
345.828323
 11
223.21167
 21
343.518921
  0
LINE
  5
AA
100
AcDbEntity
  8
M1
  6
CONTINUOUS
370
25
 62
     7
100
AcDbLine
 10
227.179413
 20
336.609329
 11
231.179199
 21
338.918625
  0
LINE
  5
AB
100
AcDbEntity
  8
M1
  6
CONTINUOUS
370
25
 62
     7
100
AcDbLine
 10
195.458313
 20
386.284317
 11
199.249817
 21
392.851425
  0
LINE
  5
AC
100
AcDbEntity
  8
M1
  6
CONTINUOUS
370
25
 62
     7
100
AcDbLine
 10
191.993774
 20
388.277908
 11
195.786011
 21
394.846329
  0
LINE
  5
AD
100
AcDbEntity
  8
M1
  6
CONTINUOUS
370
25
 62
     7
100
AcDbLine
 10
172.298523
 20
388.26561
 11
168.507019
 21
394.832718
  0
LINE
  5
AE
100
AcDbEntity
  8
M1
  6
CONTINUOUS
370
25
 62
     7
100
AcDbLine
 10
168.839905
 20
386.261734
 11
165.047668
 21
392.830124
  0
LINE
  5
AF
100
AcDbEntity
  8
M1
  6
CONTINUOUS
370
25
 62
     7
100
AcDbLine
 10
159.002319
 20
369.198425
 11
151.419312
 21
369.198425
  0
LINE
  5
B0
100
AcDbEntity
  8
M1
  6
CONTINUOUS
370
25
 62
     7
100
AcDbLine
 10
159.008423
 20
365.201218
 11
151.424011
 21
365.201218
  0
LINE
  5
B1
100
AcDbEntity
  8
M1
  6
CONTINUOUS
370
25
 62
     7
100
AcDbLine
 10
168.866577
 20
348.151016
 11
165.075073
 21
341.583923
  0
LINE
  5
B2
100
AcDbEntity
  8
M1
  6
CONTINUOUS
370
25
 62
     7
100
AcDbLine
 10
172.331299
 20
346.157623
 11
168.539124
 21
339.589325
  0
LINE
  5
B3
100
AcDbEntity
  8
M1
  6
CONTINUOUS
370
25
 62
     7
100
AcDbLine
 10
192.026184
 20
346.169327
 11
195.81781
 21
339.602219
  0
LINE
  5
B4
100
AcDbEntity
  8
M1
  6
CONTINUOUS
370
25
 62
     7
100
AcDbLine
 10
195.484985
 20
348.173019
 11
199.277222
 21
341.60463
  0
LINE
  5
B5
100
AcDbEntity
  8
M1
  6
CONTINUOUS
370
25
 62
     7
100
AcDbLine
 10
205.322571
 20
365.236023
 11
212.905579
 21
365.236023
  0
LINE
  5
B6
100
AcDbEntity
  8
M1
  6
CONTINUOUS
370
25
 62
     7
100
AcDbLine
 10
205.316772
 20
369.233215
 11
212.901184
 21
369.233215
  0
LINE
  5
B7
100
AcDbEntity
  8
M1
  6
CONTINUOUS
370
13
 62
     7
100
AcDbLine
 10
151.002197
 20
349.227325
 11
158.254822
 21
353.41452
  0
LINE
  5
B8
100
AcDbEntity
  8
M1
  6
CONTINUOUS
370
13
 62
     7
100
AcDbLine
 10
151.194092
 20
385.096909
 11
157.914917
 21
381.216629
  0
LINE
  5
B9
100
AcDbEntity
  8
M1
  6
CONTINUOUS
370
13
 62
     7
100
AcDbLine
 10
206.092773
 20
381.033829
 11
212.991516
 21
385.016708
  0
LINE
  5
BA
100
AcDbEntity
  8
M1
  6
CONTINUOUS
370
13
 62
     7
100
AcDbLine
 10
205.871277
 20
353.529022
 11
213.394775
 21
349.185318
  0
LINE
  5
BB
100
AcDbEntity
  8
M1
  6
CONTINUOUS
370
13
 62
     7
100
AcDbLine
 10
590.316299
 20
373.529022
 11
590.316299
 21
359.84082
  0
LINE
  5
BC
100
AcDbEntity
  8
M1
  6
CONTINUOUS
370
25
 62
     7
100
AcDbLine
 10
592.606995
 20
423.217728
 11
594.916397
 21
419.217636
  0
LINE
  5
BD
100
AcDbEntity
  8
M1
  6
CONTINUOUS
370
25
 62
     7
100
AcDbLine
 10
588.025604
 20
415.217331
 11
592.606903
 21
415.217331
  0
LINE
  5
BE
100
AcDbEntity
  8
M1
  6
CONTINUOUS
370
25
 62
     7
100
AcDbLine
 10
588.025604
 20
423.217422
 11
592.606903
 21
423.217422
  0
LINE
  5
BF
100
AcDbEntity
  8
M1
  6
CONTINUOUS
370
25
 62
     7
100
AcDbLine
 10
588.025497
 20
415.217209
 11
585.716003
 21
419.217331
  0
LINE
  5
C0
100
AcDbEntity
  8
M1
  6
CONTINUOUS
370
25
 62
     7
100
AcDbLine
 10
592.606796
 20
415.217422
 11
594.916199
 21
419.217422
  0
LINE
  5
C1
100
AcDbEntity
  8
M1
  6
CONTINUOUS
370
25
 62
     7
100
AcDbLine
 10
588.025803
 20
423.217636
 11
585.716492
 21
419.217728
  0
LINE
  5
C2
100
AcDbEntity
  8
M1
  6
CONTINUOUS
370
25
 62
     7
100
AcDbLine
 10
588.026291
 20
423.217117
 11
585.716995
 21
419.217331
  0
LINE
  5
C3
100
AcDbEntity
  8
M1
  6
CONTINUOUS
370
25
 62
     7
100
AcDbLine
 10
592.607193
 20
415.217422
 11
594.916595
 21
419.217422
  0
LINE
  5
C4
100
AcDbEntity
  8
M1
  6
CONTINUOUS
370
25
 62
     7
100
AcDbLine
 10
592.606995
 20
423.217514
 11
594.916397
 21
419.217636
  0
LINE
  5
C5
100
AcDbEntity
  8
M1
  6
CONTINUOUS
370
25
 62
     7
100
AcDbLine
 10
588.025604
 20
423.217422
 11
592.606903
 21
423.217422
  0
LINE
  5
C6
100
AcDbEntity
  8
M1
  6
CONTINUOUS
370
25
 62
     7
100
AcDbLine
 10
588.025497
 20
415.217209
 11
585.716003
 21
419.217209
  0
LINE
  5
C7
100
AcDbEntity
  8
M1
  6
CONTINUOUS
370
25
 62
     7
100
AcDbLine
 10
588.025604
 20
415.217422
 11
592.606903
 21
415.217422
  0
LINE
  5
C8
100
AcDbEntity
  8
M1
  6
CONTINUOUS
370
25
 62
     7
100
AcDbLine
 10
540.673691
 20
393.23381
 11
542.983093
 21
389.233932
  0
LINE
  5
C9
100
AcDbEntity
  8
M1
  6
CONTINUOUS
370
25
 62
     7
100
AcDbLine
 10
549.892303
 20
393.201126
 11
547.582901
 21
397.201035
  0
LINE
  5
CA
100
AcDbEntity
  8
M1
  6
CONTINUOUS
370
25
 62
     7
100
AcDbLine
 10
542.964096
 20
397.201431
 11
547.582901
 21
397.201431
  0
LINE
  5
CB
100
AcDbEntity
  8
M1
  6
CONTINUOUS
370
25
 62
     7
100
AcDbLine
 10
540.673401
 20
393.233627
 11
542.964005
 21
397.201218
  0
LINE
  5
CC
100
AcDbEntity
  8
M1
  6
CONTINUOUS
370
25
 62
     7
100
AcDbLine
 10
547.601791
 20
389.233322
 11
542.982895
 21
389.233322
  0
LINE
  5
CD
100
AcDbEntity
  8
M1
  6
CONTINUOUS
370
25
 62
     7
100
AcDbLine
 10
547.6017
 20
389.233627
 11
549.892395
 21
393.201126
  0
LINE
  5
CE
100
AcDbEntity
  8
M1
  6
CONTINUOUS
370
25
 62
     7
100
AcDbLine
 10
542.964096
 20
337.233429
 11
547.582794
 21
337.233429
  0
LINE
  5
CF
100
AcDbEntity
  8
M1
  6
CONTINUOUS
370
25
 62
     7
100
AcDbLine
 10
547.6017
 20
345.200516
 11
542.982895
 21
345.200516
  0
LINE
  5
D0
100
AcDbEntity
  8
M1
  6
CONTINUOUS
370
25
 62
     7
100
AcDbLine
 10
540.673294
 20
341.201324
 11
542.982605
 21
345.201324
  0
LINE
  5
D1
100
AcDbEntity
  8
M1
  6
CONTINUOUS
370
25
 62
     7
100
AcDbLine
 10
542.964005
 20
337.233627
 11
540.673294
 21
341.201126
  0
LINE
  5
D2
100
AcDbEntity
  8
M1
  6
CONTINUOUS
370
25
 62
     7
100
AcDbLine
 10
549.8927
 20
341.233719
 11
547.583298
 21
337.233627
  0
LINE
  5
D3
100
AcDbEntity
  8
M1
  6
CONTINUOUS
370
25
 62
     7
100
AcDbLine
 10
549.892197
 20
341.233521
 11
547.601593
 21
345.201019
  0
LINE
  5
D4
100
AcDbEntity
  8
M1
  6
CONTINUOUS
370
25
 62
     7
100
AcDbLine
 10
592.606995
 20
311.217316
 11
594.916397
 21
315.217224
  0
LINE
  5
D5
100
AcDbEntity
  8
M1
  6
CONTINUOUS
370
25
 62
     7
100
AcDbLine
 10
588.026199
 20
319.217224
 11
585.716904
 21
315.217224
  0
LINE
  5
D6
100
AcDbEntity
  8
M1
  6
CONTINUOUS
370
25
 62
     7
100
AcDbLine
 10
588.025299
 20
311.217224
 11
585.715897
 21
315.217117
  0
LINE
  5
D7
100
AcDbEntity
  8
M1
  6
CONTINUOUS
370
25
 62
     7
100
AcDbLine
 10
592.606903
 20
311.217224
 11
588.025604
 21
311.217224
  0
LINE
  5
D8
100
AcDbEntity
  8
M1
  6
CONTINUOUS
370
25
 62
     7
100
AcDbLine
 10
592.606903
 20
319.217529
 11
594.916306
 21
315.217422
  0
LINE
  5
D9
100
AcDbEntity
  8
M1
  6
CONTINUOUS
370
25
 62
     7
100
AcDbLine
 10
592.606903
 20
319.217224
 11
588.025604
 21
319.217224
  0
LINE
  5
DA
100
AcDbEntity
  8
M1
  6
CONTINUOUS
370
25
 62
     7
100
AcDbLine
 10
639.959091
 20
341.201126
 11
637.649796
 21
345.201019
  0
LINE
  5
DB
100
AcDbEntity
  8
M1
  6
CONTINUOUS
370
25
 62
     7
100
AcDbLine
 10
630.740501
 20
341.233917
 11
633.049896
 21
337.233917
  0
LINE
  5
DC
100
AcDbEntity
  8
M1
  6
CONTINUOUS
370
25
 62
     7
100
AcDbLine
 10
637.668495
 20
337.233215
 11
633.049599
 21
337.233215
  0
LINE
  5
DD
100
AcDbEntity
  8
M1
  6
CONTINUOUS
370
25
 62
     7
100
AcDbLine
 10
639.959122
 20
341.201218
 11
637.668495
 21
337.233719
  0
LINE
  5
DE
100
AcDbEntity
  8
M1
  6
CONTINUOUS
370
25
 62
     7
100
AcDbLine
 10
633.0308
 20
345.201218
 11
637.649696
 21
345.201218
  0
LINE
  5
DF
100
AcDbEntity
  8
M1
  6
CONTINUOUS
370
25
 62
     7
100
AcDbLine
 10
633.030899
 20
345.201218
 11
630.740196
 21
341.233719
  0
LINE
  5
E0
100
AcDbEntity
  8
M1
  6
CONTINUOUS
370
25
 62
     7
100
AcDbLine
 10
637.668495
 20
397.201126
 11
633.049797
 21
397.201126
  0
LINE
  5
E1
100
AcDbEntity
  8
M1
  6
CONTINUOUS
370
25
 62
     7
100
AcDbLine
 10
633.0308
 20
389.233932
 11
637.649498
 21
389.233932
  0
LINE
  5
E2
100
AcDbEntity
  8
M1
  6
CONTINUOUS
370
25
 62
     7
100
AcDbLine
 10
639.959358
 20
393.233627
 11
637.649895
 21
389.233536
  0
LINE
  5
E3
100
AcDbEntity
  8
M1
  6
CONTINUOUS
370
25
 62
     7
100
AcDbLine
 10
637.668396
 20
397.201309
 11
639.959045
 21
393.233719
  0
LINE
  5
E4
100
AcDbEntity
  8
M1
  6
CONTINUOUS
370
25
 62
     7
100
AcDbLine
 10
630.740097
 20
393.201126
 11
633.0495
 21
397.201218
  0
LINE
  5
E5
100
AcDbEntity
  8
M1
  6
CONTINUOUS
370
25
 62
     7
100
AcDbLine
 10
630.740196
 20
393.201218
 11
633.030899
 21
389.233719
  0
LINE
  5
E6
100
AcDbEntity
  8
M1
  6
CONTINUOUS
370
25
 62
     7
100
AcDbLine
 10
616.0541
 20
376.304123
 11
614.861595
 21
375.615723
  0
LINE
  5
E7
100
AcDbEntity
  8
M1
  6
CONTINUOUS
370
25
 62
     7
100
AcDbLine
 10
614.861694
 20
358.819626
 11
616.054199
 21
358.131119
  0
LINE
  5
E8
100
AcDbEntity
  8
M1
  6
CONTINUOUS
370
25
 62
     7
100
AcDbLine
 10
595.316299
 20
394.050217
 11
595.316299
 21
392.673233
  0
LINE
  5
E9
100
AcDbEntity
  8
M1
  6
CONTINUOUS
370
25
 62
     7
100
AcDbLine
 10
609.861694
 20
384.27562
 11
611.054199
 21
384.964127
  0
LINE
  5
EA
100
AcDbEntity
  8
M1
  6
CONTINUOUS
370
25
 62
     7
100
AcDbLine
 10
569.5784
 20
384.964035
 11
570.770905
 21
384.275528
  0
LINE
  5
EB
100
AcDbEntity
  8
M1
  6
CONTINUOUS
370
25
 62
     7
100
AcDbLine
 10
585.316299
 20
392.673233
 11
585.316299
 21
394.050217
  0
LINE
  5
EC
100
AcDbEntity
  8
M1
  6
CONTINUOUS
370
25
 62
     7
100
AcDbLine
 10
564.578293
 20
358.131516
 11
565.770798
 21
358.820023
  0
LINE
  5
ED
100
AcDbEntity
  8
M1
  6
CONTINUOUS
370
25
 62
     7
100
AcDbLine
 10
565.770905
 20
375.615219
 11
564.5784
 21
376.303619
  0
LINE
  5
EE
100
AcDbEntity
  8
M1
  6
CONTINUOUS
370
25
 62
     7
100
AcDbLine
 10
585.316299
 20
340.38472
 11
585.316299
 21
341.761719
  0
LINE
  5
EF
100
AcDbEntity
  8
M1
  6
CONTINUOUS
370
25
 62
     7
100
AcDbLine
 10
570.770798
 20
350.159927
 11
569.5784
 21
349.47142
  0
LINE
  5
F0
100
AcDbEntity
  8
M1
  6
CONTINUOUS
370
25
 62
     7
100
AcDbLine
 10
611.0541
 20
349.470917
 11
609.861603
 21
350.159317
  0
LINE
  5
F1
100
AcDbEntity
  8
M1
  6
CONTINUOUS
370
25
 62
     7
100
AcDbLine
 10
595.316299
 20
341.76152
 11
595.316299
 21
340.384628
  0
LINE
  5
F2
100
AcDbEntity
  8
M1
  6
CONTINUOUS
370
25
 62
     7
100
AcDbLine
 10
602.420395
 20
354.455719
 11
597.460999
 21
357.319016
  0
LINE
  5
F3
100
AcDbEntity
  8
M1
  6
CONTINUOUS
370
25
 62
     7
100
AcDbLine
 10
607.420105
 20
363.115921
 11
602.4608
 21
365.979218
  0
LINE
  5
F4
100
AcDbEntity
  8
M1
  6
CONTINUOUS
370
25
 62
     7
100
AcDbLine
 10
607.420792
 20
363.116028
 11
607.420792
 21
357.342316
  0
LINE
  5
F5
100
AcDbEntity
  8
M1
  6
CONTINUOUS
370
25
 62
     7
100
AcDbLine
 10
602.4646
 20
365.973221
 11
597.464493
 21
363.086319
  0
LINE
  5
F6
100
AcDbEntity
  8
M1
  6
CONTINUOUS
370
25
 62
     7
100
AcDbLine
 10
602.423798
 20
354.449417
 11
607.423996
 21
357.336319
  0
LINE
  5
F7
100
AcDbEntity
  8
M1
  6
CONTINUOUS
370
25
 62
     7
100
AcDbLine
 10
597.468796
 20
357.318726
 11
597.468796
 21
363.092316
  0
LINE
  5
F8
100
AcDbEntity
  8
M1
  6
CONTINUOUS
370
25
 62
     7
100
AcDbLine
 10
595.316498
 20
384.080612
 11
590.316299
 21
386.967422
  0
LINE
  5
F9
100
AcDbEntity
  8
M1
  6
CONTINUOUS
370
25
 62
     7
100
AcDbLine
 10
595.316299
 20
384.080734
 11
595.316299
 21
378.354126
  0
LINE
  5
FA
100
AcDbEntity
  8
M1
  6
CONTINUOUS
370
25
 62
     7
100
AcDbLine
 10
595.316391
 20
378.354126
 11
590.316299
 21
375.467422
  0
LINE
  5
FB
100
AcDbEntity
  8
M1
  6
CONTINUOUS
370
25
 62
     7
100
AcDbLine
 10
585.316193
 20
378.354218
 11
590.316391
 21
375.467422
  0
LINE
  5
FC
100
AcDbEntity
  8
M1
  6
CONTINUOUS
370
25
 62
     7
100
AcDbLine
 10
585.316299
 20
384.080612
 11
585.316299
 21
378.354126
  0
LINE
  5
FD
100
AcDbEntity
  8
M1
  6
CONTINUOUS
370
25
 62
     7
100
AcDbLine
 10
585.316101
 20
384.080917
 11
590.316193
 21
386.967636
  0
LINE
  5
FE
100
AcDbEntity
  8
M1
  6
CONTINUOUS
370
25
 62
     7
100
AcDbLine
 10
573.205093
 20
363.116028
 11
573.205093
 21
357.342316
  0
LINE
  5
FF
100
AcDbEntity
  8
M1
  6
CONTINUOUS
370
25
 62
     7
100
AcDbLine
 10
573.212402
 20
363.115921
 11
578.171692
 21
365.979218
  0
LINE
  5
100
100
AcDbEntity
  8
M1
  6
CONTINUOUS
370
25
 62
     7
100
AcDbLine
 10
578.171402
 20
365.979324
 11
583.1716
 21
363.092422
  0
LINE
  5
101
100
AcDbEntity
  8
M1
  6
CONTINUOUS
370
25
 62
     7
100
AcDbLine
 10
583.164398
 20
357.318726
 11
583.164398
 21
363.092316
  0
LINE
  5
102
100
AcDbEntity
  8
M1
  6
CONTINUOUS
370
25
 62
     7
100
AcDbLine
 10
578.212296
 20
354.455917
 11
583.1716
 21
357.319122
  0
LINE
  5
103
100
AcDbEntity
  8
M1
  6
CONTINUOUS
370
25
 62
     7
100
AcDbLine
 10
578.212402
 20
354.455521
 11
573.212296
 21
357.342422
  0
LINE
  5
104
100
AcDbEntity
  8
M1
  6
CONTINUOUS
370
25
 62
     7
100
AcDbLine
 10
189.662598
 20
369.217422
 11
185.662598
 21
369.217422
  0
LINE
  5
105
100
AcDbEntity
  8
M1
  6
CONTINUOUS
370
25
 62
     7
100
AcDbLine
 10
185.662598
 20
369.217422
 11
185.662598
 21
365.217422
  0
LINE
  5
106
100
AcDbEntity
  8
M1
  6
CONTINUOUS
370
25
 62
     7
100
AcDbLine
 10
189.662598
 20
369.217422
 11
189.662598
 21
365.217422
  0
LINE
  5
107
100
AcDbEntity
  8
M1
  6
CONTINUOUS
370
25
 62
     7
100
AcDbLine
 10
189.662598
 20
365.217422
 11
185.662598
 21
365.217422
  0
LINE
  5
108
100
AcDbEntity
  8
M1
  6
CONTINUOUS
370
25
 62
     7
100
AcDbLine
 10
431.725403
 20
393.892624
 11
433.025513
 21
395.192734
  0
LINE
  5
109
100
AcDbEntity
  8
M1
  6
CONTINUOUS
370
25
 62
     7
100
AcDbLine
 10
431.725708
 20
391.771317
 11
433.025696
 21
393.071335
  0
LINE
  5
10A
100
AcDbEntity
  8
M1
  6
CONTINUOUS
370
25
 62
     7
100
AcDbLine
 10
376.42569
 20
423.817429
 11
376.42569
 21
414.617416
  0
LINE
  5
10B
100
AcDbEntity
  8
M1
  6
CONTINUOUS
370
25
 62
     7
100
AcDbLine
 10
373.329803
 20
423.817429
 11
377.725708
 21
423.817429
  0
LINE
  5
10C
100
AcDbEntity
  8
M1
  6
CONTINUOUS
370
25
 62
     7
100
AcDbLine
 10
373.329803
 20
414.617416
 11
377.725708
 21
414.617416
  0
LINE
  5
10D
100
AcDbEntity
  8
M1
  6
CONTINUOUS
370
25
 62
     7
100
AcDbLine
 10
376.425598
 20
419.517136
 11
377.725586
 21
420.817123
  0
LINE
  5
10E
100
AcDbEntity
  8
M1
  6
CONTINUOUS
370
25
 62
     7
100
AcDbLine
 10
376.425903
 20
417.39592
 11
377.726013
 21
418.695908
  0
LINE
  5
10F
100
AcDbEntity
  8
M1
  6
CONTINUOUS
370
25
 62
     7
100
AcDbLine
 10
372.92569
 20
423.117416
 11
372.92569
 21
415.317429
  0
LINE
  5
110
100
AcDbEntity
  8
M1
  6
CONTINUOUS
370
25
 62
     7
100
AcDbLine
 10
372.925598
 20
423.117508
 11
373.329712
 21
423.817612
  0
LINE
  5
111
100
AcDbEntity
  8
M1
  6
CONTINUOUS
370
25
 62
     7
100
AcDbLine
 10
373.329803
 20
421.717422
 11
376.42569
 21
421.717422
  0
LINE
  5
112
100
AcDbEntity
  8
M1
  6
CONTINUOUS
370
25
 62
     7
100
AcDbLine
 10
373.329803
 20
416.717422
 11
376.42569
 21
416.717422
  0
LINE
  5
113
100
AcDbEntity
  8
M1
  6
CONTINUOUS
370
25
 62
     7
100
AcDbLine
 10
372.925598
 20
415.317429
 11
373.329803
 21
414.617416
  0
LINE
  5
114
100
AcDbEntity
  8
M1
  6
CONTINUOUS
370
25
 62
     7
100
AcDbLine
 10
433.025787
 20
423.817429
 11
433.025787
 21
414.617416
  0
LINE
  5
115
100
AcDbEntity
  8
M1
  6
CONTINUOUS
370
25
 62
     7
100
AcDbLine
 10
431.725586
 20
419.892624
 11
433.025696
 21
421.192612
  0
LINE
  5
116
100
AcDbEntity
  8
M1
  6
CONTINUOUS
370
25
 62
     7
100
AcDbLine
 10
431.725494
 20
417.771133
 11
433.025513
 21
419.071121
  0
LINE
  5
117
100
AcDbEntity
  8
M1
  6
CONTINUOUS
370
25
 62
     7
100
AcDbLine
 10
435.7258
 20
388.617416
 11
435.7258
 21
367.217422
  0
LINE
  5
118
100
AcDbEntity
  8
M1
  6
CONTINUOUS
370
25
 62
     7
100
AcDbLine
 10
360.725708
 20
346.716919
 11
360.725708
 21
367.217422
  0
LINE
  5
119
100
AcDbEntity
  8
M1
  6
CONTINUOUS
370
25
 62
     7
100
AcDbLine
 10
370.725708
 20
346.217422
 11
361.225708
 21
346.217422
  0
LINE
  5
11A
100
AcDbEntity
  8
M1
  6
CONTINUOUS
370
25
 62
     7
100
AcDbLine
 10
370.725708
 20
330.217422
 11
370.725708
 21
367.217422
  0
LINE
  5
11B
100
AcDbEntity
  8
M1
  6
CONTINUOUS
370
25
 62
     7
100
AcDbLine
 10
387.225708
 20
309.217422
 11
378.725708
 21
309.217422
  0
LINE
  5
11C
100
AcDbEntity
  8
M1
  6
CONTINUOUS
370
25
 62
     7
100
AcDbLine
 10
377.725708
 20
310.217422
 11
377.725708
 21
367.217422
  0
LINE
  5
11D
100
AcDbEntity
  8
M1
  6
CONTINUOUS
370
25
 62
     7
100
AcDbLine
 10
361.225403
 20
346.217529
 11
360.725403
 21
346.717422
  0
LINE
  5
11E
100
AcDbEntity
  8
M1
  6
CONTINUOUS
370
25
 62
     7
100
AcDbLine
 10
373.725708
 20
330.217422
 11
370.725708
 21
330.217422
  0
LINE
  5
11F
100
AcDbEntity
  8
M1
  6
CONTINUOUS
370
25
 62
     7
100
AcDbLine
 10
387.225708
 20
300.717422
 11
387.225708
 21
367.217422
  0
LINE
  5
120
100
AcDbEntity
  8
M1
  6
CONTINUOUS
370
25
 62
     7
100
AcDbLine
 10
387.725708
 20
300.217422
 11
423.725708
 21
300.217422
  0
LINE
  5
121
100
AcDbEntity
  8
M1
  6
CONTINUOUS
370
25
 62
     7
100
AcDbLine
 10
424.225708
 20
300.717422
 11
424.225708
 21
367.217422
  0
LINE
  5
122
100
AcDbEntity
  8
M1
  6
CONTINUOUS
370
25
 62
     7
100
AcDbLine
 10
431.725708
 20
309.217422
 11
424.225708
 21
309.217422
  0
LINE
  5
123
100
AcDbEntity
  8
M1
  6
CONTINUOUS
370
25
 62
     7
100
AcDbLine
 10
431.725708
 20
309.217422
 11
431.725708
 21
367.217422
  0
LINE
  5
124
100
AcDbEntity
  8
M1
  6
CONTINUOUS
370
25
 62
     7
100
AcDbLine
 10
432.097595
 20
319.89032
 11
435.725891
 21
336.217316
  0
LINE
  5
125
100
AcDbEntity
  8
M1
  6
CONTINUOUS
370
25
 62
     7
100
AcDbLine
 10
435.7258
 20
336.217728
 11
435.7258
 21
336.609619
  0
LINE
  5
126
100
AcDbEntity
  8
M1
  6
CONTINUOUS
370
25
 62
     7
100
AcDbLine
 10
376.42569
 20
336.617416
 11
376.42569
 21
345.817429
  0
LINE
  5
127
100
AcDbEntity
  8
M1
  6
CONTINUOUS
370
25
 62
     7
100
AcDbLine
 10
373.329803
 20
336.617416
 11
377.725708
 21
336.617416
  0
LINE
  5
128
100
AcDbEntity
  8
M1
  6
CONTINUOUS
370
25
 62
     7
100
AcDbLine
 10
373.329803
 20
345.817429
 11
377.725708
 21
345.817429
  0
LINE
  5
129
100
AcDbEntity
  8
M1
  6
CONTINUOUS
370
25
 62
     7
100
AcDbLine
 10
372.92569
 20
337.317429
 11
372.92569
 21
345.117416
  0
LINE
  5
12A
100
AcDbEntity
  8
M1
  6
CONTINUOUS
370
25
 62
     7
100
AcDbLine
 10
372.925507
 20
337.317322
 11
373.32959
 21
336.617325
  0
LINE
  5
12B
100
AcDbEntity
  8
M1
  6
CONTINUOUS
370
25
 62
     7
100
AcDbLine
 10
373.329803
 20
338.717422
 11
376.42569
 21
338.717422
  0
LINE
  5
12C
100
AcDbEntity
  8
M1
  6
CONTINUOUS
370
25
 62
     7
100
AcDbLine
 10
373.329803
 20
343.717422
 11
376.42569
 21
343.717422
  0
LINE
  5
12D
100
AcDbEntity
  8
M1
  6
CONTINUOUS
370
25
 62
     7
100
AcDbLine
 10
372.92569
 20
345.117325
 11
373.329895
 21
345.817429
  0
LINE
  5
12E
100
AcDbEntity
  8
M1
  6
CONTINUOUS
370
25
 62
     7
100
AcDbLine
 10
433.025787
 20
336.617416
 11
433.025787
 21
345.817429
  0
LINE
  5
12F
100
AcDbEntity
  8
M1
  6
CONTINUOUS
370
25
 62
     7
100
AcDbLine
 10
328.225708
 20
361.217422
 11
328.225708
 21
367.217422
  0
LINE
  5
130
100
AcDbEntity
  8
M1
  6
CONTINUOUS
370
25
 62
     7
100
AcDbLine
 10
354.225708
 20
361.217422
 11
328.225708
 21
361.217422
  0
LINE
  5
131
100
AcDbEntity
  8
M1
  6
CONTINUOUS
370
25
 62
     7
100
AcDbLine
 10
350.225708
 20
365.217422
 11
350.225708
 21
367.217422
  0
LINE
  5
132
100
AcDbEntity
  8
M1
  6
CONTINUOUS
370
25
 62
     7
100
AcDbLine
 10
354.225708
 20
359.717422
 11
354.225708
 21
367.217422
  0
LINE
  5
133
100
AcDbEntity
  8
M1
  6
CONTINUOUS
370
25
 62
     7
100
AcDbLine
 10
350.225708
 20
365.217422
 11
328.225708
 21
365.217422
  0
LINE
  5
134
100
AcDbEntity
  8
M1
  6
CONTINUOUS
370
25
 62
     7
100
AcDbLine
 10
436.235107
 20
357.217422
 11
435.7258
 21
357.217422
  0
LINE
  5
135
100
AcDbEntity
  8
M1
  6
CONTINUOUS
370
25
 62
     7
100
AcDbLine
 10
436.235107
 20
363.217422
 11
435.7258
 21
363.217422
  0
LINE
  5
136
100
AcDbEntity
  8
M1
  6
CONTINUOUS
370
25
 62
     7
100
AcDbLine
 10
436.7258
 20
355.317429
 11
436.7258
 21
365.117416
  0
LINE
  5
137
100
AcDbEntity
  8
M1
  6
CONTINUOUS
370
25
 62
     7
100
AcDbLine
 10
436.235107
 20
354.467422
 11
435.7258
 21
354.467422
  0
LINE
  5
138
100
AcDbEntity
  8
M1
  6
CONTINUOUS
370
25
 62
     7
100
AcDbLine
 10
436.235107
 20
365.967422
 11
435.7258
 21
365.967422
  0
LINE
  5
139
100
AcDbEntity
  8
M1
  6
CONTINUOUS
370
25
 62
     7
100
AcDbLine
 10
436.234497
 20
354.467621
 11
436.725311
 21
355.317719
  0
LINE
  5
13A
100
AcDbEntity
  8
M1
  6
CONTINUOUS
370
25
 62
     7
100
AcDbLine
 10
436.234711
 20
365.967224
 11
436.725494
 21
365.117325
  0
LINE
  5
13B
100
AcDbEntity
  8
M1
  6
CONTINUOUS
370
25
 62
     7
100
AcDbLine
 10
376.42569
 20
310.617416
 11
376.42569
 21
319.817429
  0
LINE
  5
13C
100
AcDbEntity
  8
M1
  6
CONTINUOUS
370
25
 62
     7
100
AcDbLine
 10
373.329803
 20
310.617416
 11
377.725708
 21
310.617416
  0
LINE
  5
13D
100
AcDbEntity
  8
M1
  6
CONTINUOUS
370
25
 62
     7
100
AcDbLine
 10
373.329803
 20
319.817429
 11
377.725708
 21
319.817429
  0
LINE
  5
13E
100
AcDbEntity
  8
M1
  6
CONTINUOUS
370
25
 62
     7
100
AcDbLine
 10
372.92569
 20
311.317429
 11
372.92569
 21
319.117416
  0
LINE
  5
13F
100
AcDbEntity
  8
M1
  6
CONTINUOUS
370
25
 62
     7
100
AcDbLine
 10
372.925903
 20
311.31752
 11
373.330109
 21
310.617523
  0
LINE
  5
140
100
AcDbEntity
  8
M1
  6
CONTINUOUS
370
25
 62
     7
100
AcDbLine
 10
373.329803
 20
312.717422
 11
376.42569
 21
312.717422
  0
LINE
  5
141
100
AcDbEntity
  8
M1
  6
CONTINUOUS
370
25
 62
     7
100
AcDbLine
 10
373.329803
 20
317.717422
 11
376.42569
 21
317.717422
  0
LINE
  5
142
100
AcDbEntity
  8
M1
  6
CONTINUOUS
370
25
 62
     7
100
AcDbLine
 10
372.925812
 20
319.117325
 11
373.329803
 21
319.817322
  0
LINE
  5
143
100
AcDbEntity
  8
M1
  6
CONTINUOUS
370
25
 62
     7
100
AcDbLine
 10
433.025787
 20
310.617416
 11
433.025787
 21
319.817429
  0
LINE
  5
144
100
AcDbEntity
  8
M1
  6
CONTINUOUS
370
25
 62
     7
100
AcDbLine
 10
435.7258
 20
345.817429
 11
435.7258
 21
367.217422
  0
LINE
  5
145
100
AcDbEntity
  8
M1
  6
CONTINUOUS
370
25
 62
     7
100
AcDbLine
 10
387.2258
 20
433.717209
 11
387.725891
 21
434.217331
  0
LINE
  5
146
100
AcDbEntity
  8
M1
  6
CONTINUOUS
370
25
 62
     7
100
AcDbLine
 10
423.725708
 20
434.217514
 11
424.225586
 21
433.717636
  0
LINE
  5
147
100
AcDbEntity
  8
M1
  6
CONTINUOUS
370
25
 62
     7
100
AcDbLine
 10
387.225708
 20
300.717422
 11
387.725708
 21
300.217529
  0
LINE
  5
148
100
AcDbEntity
  8
M1
  6
CONTINUOUS
370
25
 62
     7
100
AcDbLine
 10
424.2258
 20
300.717316
 11
423.7258
 21
300.217316
  0
LINE
  5
149
100
AcDbEntity
  8
M1
  6
CONTINUOUS
370
25
 62
     7
100
AcDbLine
 10
380.773712
 20
432.832321
 11
380.773712
 21
438.823318
  0
LINE
  5
14A
100
AcDbEntity
  8
M1
  6
CONTINUOUS
370
25
 62
     7
100
AcDbLine
 10
377.973602
 20
432.832321
 11
377.973602
 21
440.695328
  0
LINE
  5
14B
100
AcDbEntity
  8
M1
  6
CONTINUOUS
370
25
 62
     7
100
AcDbLine
 10
377.973694
 20
440.695419
 11
380.773804
 21
438.824326
  0
LINE
  5
14C
100
AcDbEntity
  8
M1
  6
CONTINUOUS
370
25
 62
     7
100
AcDbLine
 10
377.973602
 20
444.36821
 11
380.773712
 21
442.325119
  0
LINE
  5
14D
100
AcDbEntity
  8
M1
  6
CONTINUOUS
370
25
 62
     7
100
AcDbLine
 10
380.773712
 20
442.325333
 11
380.773712
 21
449.832321
  0
LINE
  5
14E
100
AcDbEntity
  8
M1
  6
CONTINUOUS
370
25
 62
     7
100
AcDbLine
 10
377.973602
 20
444.368332
 11
377.973602
 21
449.832321
  0
LINE
  5
14F
100
AcDbEntity
  8
M1
  6
CONTINUOUS
370
25
 62
     7
100
AcDbLine
 10
384.973785
 20
461.956528
 11
386.37381
 21
459.531418
  0
LINE
  5
150
100
AcDbEntity
  8
M1
  6
CONTINUOUS
370
25
 62
     7
100
AcDbLine
 10
385.673584
 20
460.744125
 11
391.735504
 21
464.244125
  0
LINE
  5
151
100
AcDbEntity
  8
M1
  6
CONTINUOUS
370
25
 62
     7
100
AcDbLine
 10
373.773804
 20
461.956223
 11
372.37381
 21
459.531235
  0
LINE
  5
152
100
AcDbEntity
  8
M1
  6
CONTINUOUS
370
25
 62
     7
100
AcDbLine
 10
373.0737
 20
460.744431
 11
367.011597
 21
464.244308
  0
LINE
  5
153
100
AcDbEntity
  8
M1
  6
CONTINUOUS
370
25
 62
     7
100
AcDbLine
 10
387.225708
 20
427.032333
 11
383.775604
 21
427.032333
  0
LINE
  5
154
100
AcDbEntity
  8
M1
  6
CONTINUOUS
370
25
 62
     7
100
AcDbLine
 10
387.225708
 20
429.832321
 11
383.775604
 21
429.832321
  0
LINE
  5
155
100
AcDbEntity
  8
M1
  6
CONTINUOUS
370
25
 62
     7
100
AcDbLine
 10
240.813385
 20
456.479721
 11
246.4133
 21
456.479721
  0
LINE
  5
156
100
AcDbEntity
  8
M1
  6
CONTINUOUS
370
25
 62
     7
100
AcDbLine
 10
240.813385
 20
457.599716
 11
240.813385
 21
455.359726
  0
LINE
  5
157
100
AcDbEntity
  8
M1
  6
CONTINUOUS
370
25
 62
     7
100
AcDbLine
 10
231.114288
 20
463.200333
 11
229.174286
 21
462.080307
  0
LINE
  5
158
100
AcDbEntity
  8
M1
  6
CONTINUOUS
370
25
 62
     7
100
AcDbLine
 10
230.145508
 20
462.640213
 11
227.34549
 21
467.490219
  0
LINE
  5
159
100
AcDbEntity
  8
M1
  6
CONTINUOUS
370
25
 62
     7
100
AcDbLine
 10
226.265869
 20
448.080307
 11
229.174805
 21
453.119308
  0
LINE
  5
15A
100
AcDbEntity
  8
M1
  6
CONTINUOUS
370
25
 62
     7
100
AcDbLine
 10
229.631104
 20
444.950729
 11
233.053101
 21
450.879715
  0
LINE
  5
15B
100
AcDbEntity
  8
M1
  6
CONTINUOUS
370
25
 62
     7
100
AcDbLine
 10
231.11499
 20
451.999435
 11
227.949005
 21
446.515427
  0
LINE
  5
15C
100
AcDbEntity
  8
M1
  6
CONTINUOUS
370
25
 62
     7
100
AcDbLine
 10
226.265808
 20
448.081314
 11
229.631805
 21
444.951309
  0
LINE
  5
15D
100
AcDbEntity
  8
M1
  6
CONTINUOUS
370
25
 62
     7
100
AcDbLine
 10
224.61908
 20
445.230331
 11
228.096191
 21
442.292313
  0
LINE
  5
15E
100
AcDbEntity
  8
M1
  6
CONTINUOUS
370
25
 62
     7
100
AcDbLine
 10
211.215271
 20
422.013016
 11
224.620178
 21
445.230026
  0
LINE
  5
15F
100
AcDbEntity
  8
M1
  6
CONTINUOUS
370
25
 62
     7
100
AcDbLine
 10
215.353088
 20
420.220718
 11
228.0961
 21
442.292709
  0
LINE
  5
160
100
AcDbEntity
  8
M1
  6
CONTINUOUS
370
25
 62
     7
100
AcDbLine
 10
226.357605
 20
443.762314
 11
213.213623
 21
420.99733
  0
LINE
  5
161
100
AcDbEntity
  8
M1
  6
CONTINUOUS
370
25
 62
     7
100
AcDbLine
 10
531.665497
 20
456.479721
 11
526.065399
 21
456.479721
  0
LINE
  5
162
100
AcDbEntity
  8
M1
  6
CONTINUOUS
370
25
 62
     7
100
AcDbLine
 10
531.665497
 20
457.599716
 11
531.665497
 21
455.359726
  0
LINE
  5
163
100
AcDbEntity
  8
M1
  6
CONTINUOUS
370
25
 62
     7
100
AcDbLine
 10
541.364502
 20
463.199814
 11
543.304398
 21
462.07991
  0
LINE
  5
164
100
AcDbEntity
  8
M1
  6
CONTINUOUS
370
25
 62
     7
100
AcDbLine
 10
542.335205
 20
462.63942
 11
545.135101
 21
467.489426
  0
LINE
  5
165
100
AcDbEntity
  8
M1
  6
CONTINUOUS
370
25
 62
     7
100
AcDbLine
 10
546.213394
 20
448.080612
 11
543.304398
 21
453.119614
  0
LINE
  5
166
100
AcDbEntity
  8
M1
  6
CONTINUOUS
370
25
 62
     7
100
AcDbLine
 10
542.847702
 20
444.950729
 11
539.425598
 21
450.879837
  0
LINE
  5
167
100
AcDbEntity
  8
M1
  6
CONTINUOUS
370
25
 62
     7
100
AcDbLine
 10
541.364105
 20
451.999527
 11
544.530106
 21
446.515518
  0
LINE
  5
168
100
AcDbEntity
  8
M1
  6
CONTINUOUS
370
25
 62
     7
100
AcDbLine
 10
546.213196
 20
448.080826
 11
542.847305
 21
444.950912
  0
LINE
  5
169
100
AcDbEntity
  8
M1
  6
CONTINUOUS
370
25
 62
     7
100
AcDbLine
 10
547.859299
 20
445.231033
 11
544.382202
 21
442.292923
  0
LINE
  5
16A
100
AcDbEntity
  8
M1
  6
CONTINUOUS
370
25
 62
     7
100
AcDbLine
 10
558.773193
 20
426.327835
 11
547.859192
 21
445.230515
  0
LINE
  5
16B
100
AcDbEntity
  8
M1
  6
CONTINUOUS
370
25
 62
     7
100
AcDbLine
 10
554.893402
 20
424.087631
 11
544.382904
 21
442.292831
  0
LINE
  5
16C
100
AcDbEntity
  8
M1
  6
CONTINUOUS
370
25
 62
     7
100
AcDbLine
 10
546.120605
 20
443.761826
 11
556.81459
 21
425.240128
  0
LINE
  5
16D
100
AcDbEntity
  8
M1
  6
CONTINUOUS
370
25
 62
     7
100
AcDbLine
 10
376.425598
 20
341.476624
 11
377.725708
 21
342.776627
  0
LINE
  5
16E
100
AcDbEntity
  8
M1
  6
CONTINUOUS
370
25
 62
     7
100
AcDbLine
 10
376.425598
 20
316.008514
 11
377.725708
 21
317.308517
  0
LINE
  5
16F
100
AcDbEntity
  8
M1
  6
CONTINUOUS
370
25
 62
     7
100
AcDbLine
 10
431.725708
 20
315.528824
 11
433.025696
 21
316.828827
  0
LINE
  5
170
100
AcDbEntity
  8
M1
  6
CONTINUOUS
370
25
 62
     7
100
AcDbLine
 10
431.725708
 20
313.690323
 11
433.025787
 21
314.990417
  0
LINE
  5
171
100
AcDbEntity
  8
M1
  6
CONTINUOUS
370
25
 62
     7
100
AcDbLine
 10
431.725708
 20
341.033325
 11
433.025696
 21
342.33342
  0
LINE
  5
172
100
AcDbEntity
  8
M1
  6
CONTINUOUS
370
25
 62
     7
100
AcDbLine
 10
431.725708
 20
339.194916
 11
433.025696
 21
340.494919
  0
LINE
  5
173
100
AcDbEntity
  8
M1
  6
CONTINUOUS
370
25
 62
     7
100
AcDbLine
 10
376.42569
 20
314.170029
 11
377.725708
 21
315.470123
  0
LINE
  5
174
100
AcDbEntity
  8
M1
  6
CONTINUOUS
370
25
 62
     7
100
AcDbLine
 10
376.425598
 20
339.638123
 11
377.725708
 21
340.938217
  0
LINE
  5
175
100
AcDbEntity
  8
M1
  6
CONTINUOUS
370
25
 62
     7
100
AcDbLine
 10
436.121613
 20
423.817429
 11
431.725708
 21
423.817429
  0
LINE
  5
176
100
AcDbEntity
  8
M1
  6
CONTINUOUS
370
25
 62
     7
100
AcDbLine
 10
436.121613
 20
421.717422
 11
433.025787
 21
421.717422
  0
LINE
  5
177
100
AcDbEntity
  8
M1
  6
CONTINUOUS
370
25
 62
     7
100
AcDbLine
 10
436.121613
 20
416.717422
 11
433.025787
 21
416.717422
  0
LINE
  5
178
100
AcDbEntity
  8
M1
  6
CONTINUOUS
370
25
 62
     7
100
AcDbLine
 10
436.121613
 20
414.617416
 11
431.725708
 21
414.617416
  0
LINE
  5
179
100
AcDbEntity
  8
M1
  6
CONTINUOUS
370
25
 62
     7
100
AcDbLine
 10
436.525787
 20
423.117416
 11
436.525787
 21
415.317429
  0
LINE
  5
17A
100
AcDbEntity
  8
M1
  6
CONTINUOUS
370
25
 62
     7
100
AcDbLine
 10
436.525787
 20
415.317429
 11
436.121613
 21
414.617416
  0
LINE
  5
17B
100
AcDbEntity
  8
M1
  6
CONTINUOUS
370
25
 62
     7
100
AcDbLine
 10
436.525909
 20
423.117508
 11
436.121704
 21
423.817612
  0
LINE
  5
17C
100
AcDbEntity
  8
M1
  6
CONTINUOUS
370
25
 62
     7
100
AcDbLine
 10
436.525787
 20
397.117416
 11
436.525787
 21
389.317429
  0
LINE
  5
17D
100
AcDbEntity
  8
M1
  6
CONTINUOUS
370
25
 62
     7
100
AcDbLine
 10
436.525787
 20
397.117508
 11
436.121704
 21
397.81752
  0
LINE
  5
17E
100
AcDbEntity
  8
M1
  6
CONTINUOUS
370
25
 62
     7
100
AcDbLine
 10
436.525909
 20
389.317337
 11
436.121704
 21
388.617325
  0
LINE
  5
17F
100
AcDbEntity
  8
M1
  6
CONTINUOUS
370
25
 62
     7
100
AcDbLine
 10
436.121613
 20
345.817429
 11
431.725708
 21
345.817429
  0
LINE
  5
180
100
AcDbEntity
  8
M1
  6
CONTINUOUS
370
25
 62
     7
100
AcDbLine
 10
436.525696
 20
345.117325
 11
436.12149
 21
345.817429
  0
LINE
  5
181
100
AcDbEntity
  8
M1
  6
CONTINUOUS
370
25
 62
     7
100
AcDbLine
 10
436.525787
 20
337.317429
 11
436.525787
 21
345.117416
  0
LINE
  5
182
100
AcDbEntity
  8
M1
  6
CONTINUOUS
370
25
 62
     7
100
AcDbLine
 10
436.121613
 20
343.717422
 11
433.025787
 21
343.717422
  0
LINE
  5
183
100
AcDbEntity
  8
M1
  6
CONTINUOUS
370
25
 62
     7
100
AcDbLine
 10
436.121613
 20
338.717422
 11
433.025787
 21
338.717422
  0
LINE
  5
184
100
AcDbEntity
  8
M1
  6
CONTINUOUS
370
25
 62
     7
100
AcDbLine
 10
436.525909
 20
337.317322
 11
436.121887
 21
336.617325
  0
LINE
  5
185
100
AcDbEntity
  8
M1
  6
CONTINUOUS
370
25
 62
     7
100
AcDbLine
 10
436.121613
 20
336.617416
 11
431.725708
 21
336.617416
  0
LINE
  5
186
100
AcDbEntity
  8
M1
  6
CONTINUOUS
370
25
 62
     7
100
AcDbLine
 10
436.121613
 20
319.817429
 11
431.725708
 21
319.817429
  0
LINE
  5
187
100
AcDbEntity
  8
M1
  6
CONTINUOUS
370
25
 62
     7
100
AcDbLine
 10
436.525696
 20
319.117325
 11
436.121613
 21
319.817429
  0
LINE
  5
188
100
AcDbEntity
  8
M1
  6
CONTINUOUS
370
25
 62
     7
100
AcDbLine
 10
436.121613
 20
317.717422
 11
433.025787
 21
317.717422
  0
LINE
  5
189
100
AcDbEntity
  8
M1
  6
CONTINUOUS
370
25
 62
     7
100
AcDbLine
 10
436.525787
 20
311.317429
 11
436.525787
 21
319.117416
  0
LINE
  5
18A
100
AcDbEntity
  8
M1
  6
CONTINUOUS
370
25
 62
     7
100
AcDbLine
 10
436.121613
 20
312.717422
 11
433.025787
 21
312.717422
  0
LINE
  5
18B
100
AcDbEntity
  8
M1
  6
CONTINUOUS
370
25
 62
     7
100
AcDbLine
 10
436.525513
 20
311.31752
 11
436.121307
 21
310.617523
  0
LINE
  5
18C
100
AcDbEntity
  8
M1
  6
CONTINUOUS
370
25
 62
     7
100
AcDbLine
 10
436.121613
 20
310.617416
 11
431.725708
 21
310.617416
  0
LINE
  5
18D
100
AcDbEntity
  8
M1
  6
CONTINUOUS
370
13
 62
     7
100
AcDbLine
 10
182.162598
 20
370.954224
 11
182.162598
 21
363.83252
  0
LINE
  5
18E
100
AcDbEntity
  8
M1
  6
CONTINUOUS
370
13
 62
     7
100
AcDbLine
 10
182.162598
 20
340.983826
 11
182.162598
 21
331.488327
  0
LINE
  5
18F
100
AcDbEntity
  8
M1
  6
CONTINUOUS
370
13
 62
     7
100
AcDbLine
 10
330.345093
 20
367.217422
 11
319.142212
 21
367.217422
  0
ARC
  5
190
100
AcDbEntity
  8
M1
  6
CONTINUOUS
370
25
 62
     7
100
AcDbCircle
 10
378.725708
 20
424.217422
 40
1.0
100
AcDbArc
 50
90.0
 51
180.0
  0
ARC
  5
191
100
AcDbEntity
  8
M1
  6
CONTINUOUS
370
25
 62
     7
100
AcDbCircle
 10
373.725708
 20
408.217422
 40
4.0
100
AcDbArc
 50
270.0
 51
360.0
  0
ARC
  5
192
100
AcDbEntity
  8
M1
  6
CONTINUOUS
370
25
 62
     7
100
AcDbCircle
 10
377.880402
 20
397.789413
 40
5.000075
100
AcDbArc
 50
187.72377
 51
204.56423
  0
ARC
  5
193
100
AcDbEntity
  8
M1
  6
CONTINUOUS
370
25
 62
     7
100
AcDbCircle
 10
377.880402
 20
388.645432
 40
5.000041
100
AcDbArc
 50
155.43576
 51
172.27622
  0
ARC
  5
194
100
AcDbEntity
  8
M1
  6
CONTINUOUS
370
25
 62
     7
100
AcDbCircle
 10
350.225708
 20
367.217422
 40
2.0
100
AcDbArc
 50
0.0
 51
90.0
  0
ARC
  5
195
100
AcDbEntity
  8
M1
  6
CONTINUOUS
370
25
 62
     7
100
AcDbCircle
 10
433.735504
 20
385.876419
 40
2.999946
100
AcDbArc
 50
326.426331
 51
360.000008
  0
ARC
  5
196
100
AcDbEntity
  8
M1
  6
CONTINUOUS
370
25
 62
     7
100
AcDbCircle
 10
433.735504
 20
376.558426
 40
3.0
100
AcDbArc
 50
0.0
 51
33.573677
  0
ARC
  5
197
100
AcDbEntity
  8
M1
  6
CONTINUOUS
370
25
 62
     7
100
AcDbCircle
 10
182.162598
 20
367.217422
 40
67.0
100
AcDbArc
 50
0.0
 51
58.082241
  0
CIRCLE
  5
198
100
AcDbEntity
  8
M1
  6
CONTINUOUS
370
25
 62
     7
100
AcDbCircle
 10
182.162598
 20
367.217422
 40
58.0
  0
CIRCLE
  5
199
100
AcDbEntity
  8
M1
  6
CONTINUOUS
370
25
 62
     7
100
AcDbCircle
 10
182.162598
 20
367.217422
 40
21.0
  0
CIRCLE
  5
19A
100
AcDbEntity
  8
M1
  6
CONTINUOUS
370
25
 62
     7
100
AcDbCircle
 10
182.162598
 20
367.217422
 40
16.0
  0
ARC
  5
19B
100
AcDbEntity
  8
M1
  6
CONTINUOUS
370
25
 62
     7
100
AcDbCircle
 10
182.162598
 20
367.217422
 40
21.499943
100
AcDbArc
 50
47.330135
 51
72.670012
  0
CIRCLE
  5
19C
100
AcDbEntity
  8
M1
  6
CONTINUOUS
370
25
 62
     7
100
AcDbCircle
 10
227.195892
 20
393.217422
 40
4.0
  0
ARC
  5
19D
100
AcDbEntity
  8
M1
  6
CONTINUOUS
370
25
 62
     7
100
AcDbCircle
 10
209.875427
 20
383.217422
 40
5.000063
100
AcDbArc
 50
299.999573
 51
480.000092
  0
CIRCLE
  5
19E
100
AcDbEntity
  8
M1
  6
CONTINUOUS
370
13
 62
     7
100
AcDbCircle
 10
209.875427
 20
383.217422
 40
2.5
  0
CIRCLE
  5
19F
100
AcDbEntity
  8
M1
  6
CONTINUOUS
370
25
 62
     7
100
AcDbCircle
 10
209.875427
 20
383.217422
 40
2.066956
  0
CIRCLE
  5
1A0
100
AcDbEntity
  8
M1
  6
CONTINUOUS
370
13
 62
     7
100
AcDbCircle
 10
182.162598
 20
399.217422
 40
2.5
  0
CIRCLE
  5
1A1
100
AcDbEntity
  8
M1
  6
CONTINUOUS
370
25
 62
     7
100
AcDbCircle
 10
182.162598
 20
399.217422
 40
2.067017
  0
CIRCLE
  5
1A2
100
AcDbEntity
  8
M1
  6
CONTINUOUS
370
25
 62
     7
100
AcDbCircle
 10
182.162598
 20
419.217422
 40
4.0
  0
ARC
  5
1A3
100
AcDbEntity
  8
M1
  6
CONTINUOUS
370
25
 62
     7
100
AcDbCircle
 10
182.162598
 20
399.217422
 40
5.0
100
AcDbArc
 50
0.0
 51
180.0
  0
CIRCLE
  5
1A4
100
AcDbEntity
  8
M1
  6
CONTINUOUS
370
13
 62
     7
100
AcDbCircle
 10
154.449768
 20
383.217422
 40
2.5
  0
CIRCLE
  5
1A5
100
AcDbEntity
  8
M1
  6
CONTINUOUS
370
25
 62
     7
100
AcDbCircle
 10
154.449768
 20
383.217422
 40
2.067017
  0
CIRCLE
  5
1A6
100
AcDbEntity
  8
M1
  6
CONTINUOUS
370
25
 62
     7
100
AcDbCircle
 10
137.129272
 20
393.217422
 40
4.0
  0
ARC
  5
1A7
100
AcDbEntity
  8
M1
  6
CONTINUOUS
370
25
 62
     7
100
AcDbCircle
 10
154.449768
 20
383.217422
 40
4.999984
100
AcDbArc
 50
59.999893
 51
239.999802
  0
CIRCLE
  5
1A8
100
AcDbEntity
  8
M1
  6
CONTINUOUS
370
13
 62
     7
100
AcDbCircle
 10
154.449768
 20
383.217422
 40
2.5
  0
CIRCLE
  5
1A9
100
AcDbEntity
  8
M1
  6
CONTINUOUS
370
25
 62
     7
100
AcDbCircle
 10
154.449768
 20
383.217422
 40
2.067017
  0
CIRCLE
  5
1AA
100
AcDbEntity
  8
M1
  6
CONTINUOUS
370
25
 62
     7
100
AcDbCircle
 10
137.129272
 20
393.217422
 40
4.0
  0
ARC
  5
1AB
100
AcDbEntity
  8
M1
  6
CONTINUOUS
370
25
 62
     7
100
AcDbCircle
 10
154.449768
 20
383.217422
 40
4.999984
100
AcDbArc
 50
59.999893
 51
239.999802
  0
CIRCLE
  5
1AC
100
AcDbEntity
  8
M1
  6
CONTINUOUS
370
13
 62
     7
100
AcDbCircle
 10
154.449768
 20
351.217422
 40
2.5
  0
CIRCLE
  5
1AD
100
AcDbEntity
  8
M1
  6
CONTINUOUS
370
25
 62
     7
100
AcDbCircle
 10
154.449768
 20
351.217422
 40
2.067017
  0
CIRCLE
  5
1AE
100
AcDbEntity
  8
M1
  6
CONTINUOUS
370
25
 62
     7
100
AcDbCircle
 10
137.129272
 20
341.217422
 40
4.0
  0
ARC
  5
1AF
100
AcDbEntity
  8
M1
  6
CONTINUOUS
370
25
 62
     7
100
AcDbCircle
 10
154.449768
 20
351.217422
 40
5.000063
100
AcDbArc
 50
119.99958
 51
300.000191
  0
CIRCLE
  5
1B0
100
AcDbEntity
  8
M1
  6
CONTINUOUS
370
13
 62
     7
100
AcDbCircle
 10
182.162598
 20
335.217529
 40
2.5
  0
CIRCLE
  5
1B1
100
AcDbEntity
  8
M1
  6
CONTINUOUS
370
25
 62
     7
100
AcDbCircle
 10
182.162598
 20
335.217529
 40
2.067017
  0
CIRCLE
  5
1B2
100
AcDbEntity
  8
M1
  6
CONTINUOUS
370
25
 62
     7
100
AcDbCircle
 10
182.162598
 20
315.217422
 40
4.0
  0
ARC
  5
1B3
100
AcDbEntity
  8
M1
  6
CONTINUOUS
370
25
 62
     7
100
AcDbCircle
 10
182.162598
 20
335.217529
 40
5.0
100
AcDbArc
 50
180.0
 51
360.0
  0
CIRCLE
  5
1B4
100
AcDbEntity
  8
M1
  6
CONTINUOUS
370
13
 62
     7
100
AcDbCircle
 10
209.875427
 20
351.217422
 40
2.5
  0
CIRCLE
  5
1B5
100
AcDbEntity
  8
M1
  6
CONTINUOUS
370
25
 62
     7
100
AcDbCircle
 10
209.875427
 20
351.217422
 40
2.066956
  0
CIRCLE
  5
1B6
100
AcDbEntity
  8
M1
  6
CONTINUOUS
370
25
 62
     7
100
AcDbCircle
 10
227.195892
 20
341.217422
 40
4.0
  0
ARC
  5
1B7
100
AcDbEntity
  8
M1
  6
CONTINUOUS
370
25
 62
     7
100
AcDbCircle
 10
209.875427
 20
351.217422
 40
4.999971
100
AcDbArc
 50
239.999802
 51
420.000412
  0
ARC
  5
1B8
100
AcDbEntity
  8
M1
  6
CONTINUOUS
370
25
 62
     7
100
AcDbCircle
 10
182.162598
 20
367.217422
 40
33.000061
100
AcDbArc
 50
43.050354
 51
52.622025
  0
ARC
  5
1B9
100
AcDbEntity
  8
M1
  6
CONTINUOUS
370
25
 62
     7
100
AcDbCircle
 10
204.815979
 20
388.379318
 40
2.000031
100
AcDbArc
 50
299.999481
 51
403.04985
  0
ARC
  5
1BA
100
AcDbEntity
  8
M1
  6
CONTINUOUS
370
25
 62
     7
100
AcDbCircle
 10
200.981812
 20
391.851608
 40
2.000042
100
AcDbArc
 50
52.621811
 51
149.999199
  0
ARC
  5
1BB
100
AcDbEntity
  8
M1
  6
CONTINUOUS
370
25
 62
     7
100
AcDbCircle
 10
197.190308
 20
385.284531
 40
1.999951
100
AcDbArc
 50
149.999191
 51
230.249496
  0
ARC
  5
1BC
100
AcDbEntity
  8
M1
  6
CONTINUOUS
370
25
 62
     7
100
AcDbCircle
 10
198.090271
 20
384.496231
 40
2.000014
100
AcDbArc
 50
227.328766
 51
299.999062
  0
ARC
  5
1BD
100
AcDbEntity
  8
M1
  6
CONTINUOUS
370
25
 62
     7
100
AcDbCircle
 10
182.162598
 20
367.217422
 40
33.000031
100
AcDbArc
 50
67.444061
 51
76.949935
  0
ARC
  5
1BE
100
AcDbEntity
  8
M1
  6
CONTINUOUS
370
25
 62
     7
100
AcDbCircle
 10
194.053711
 20
395.846115
 40
1.999996
100
AcDbArc
 50
330.003967
 51
427.443008
  0
ARC
  5
1BF
100
AcDbEntity
  8
M1
  6
CONTINUOUS
370
25
 62
     7
100
AcDbCircle
 10
189.162598
 20
397.416824
 40
2.000046
100
AcDbArc
 50
76.950409
 51
180.0
  0
ARC
  5
1C0
100
AcDbEntity
  8
M1
  6
CONTINUOUS
370
25
 62
     7
100
AcDbCircle
 10
190.261475
 20
389.277817
 40
1.999985
100
AcDbArc
 50
249.844055
 51
329.999199
  0
ARC
  5
1C1
100
AcDbEntity
  8
M1
  6
CONTINUOUS
370
25
 62
     7
100
AcDbCircle
 10
189.162598
 20
389.65062
 40
2.0
100
AcDbArc
 50
180.0
 51
252.671272
  0
ARC
  5
1C2
100
AcDbEntity
  8
M1
  6
CONTINUOUS
370
25
 62
     7
100
AcDbCircle
 10
182.162598
 20
367.217422
 40
47.499989
100
AcDbArc
 50
57.970242
 51
62.046305
  0
ARC
  5
1C3
100
AcDbEntity
  8
M1
  6
CONTINUOUS
370
25
 62
     7
100
AcDbCircle
 10
182.162598
 20
367.217422
 40
37.499947
100
AcDbArc
 50
57.970184
 51
62.046312
  0
ARC
  5
1C4
100
AcDbEntity
  8
M1
  6
CONTINUOUS
370
25
 62
     7
100
AcDbCircle
 10
204.702881
 20
403.247726
 40
5.000021
100
AcDbArc
 50
237.970444
 51
417.969894
  0
ARC
  5
1C5
100
AcDbEntity
  8
M1
  6
CONTINUOUS
370
25
 62
     7
100
AcDbCircle
 10
202.084778
 20
404.758835
 40
4.999977
100
AcDbArc
 50
62.045879
 51
242.046658
  0
ARC
  5
1C6
100
AcDbEntity
  8
M1
  6
CONTINUOUS
370
25
 62
     7
100
AcDbCircle
 10
159.611877
 20
403.241226
 40
4.999964
100
AcDbArc
 50
122.045639
 51
302.046234
  0
ARC
  5
1C7
100
AcDbEntity
  8
M1
  6
CONTINUOUS
370
25
 62
     7
100
AcDbCircle
 10
182.162598
 20
367.217422
 40
47.499992
100
AcDbArc
 50
117.970192
 51
122.04628
  0
ARC
  5
1C8
100
AcDbEntity
  8
M1
  6
CONTINUOUS
370
25
 62
     7
100
AcDbCircle
 10
162.229614
 20
404.753036
 40
4.999985
100
AcDbArc
 50
297.970703
 51
477.970383
  0
ARC
  5
1C9
100
AcDbEntity
  8
M1
  6
CONTINUOUS
370
25
 62
     7
100
AcDbCircle
 10
182.162598
 20
367.217422
 40
37.499969
100
AcDbArc
 50
117.9701
 51
122.046373
  0
ARC
  5
1CA
100
AcDbEntity
  8
M1
  6
CONTINUOUS
370
25
 62
     7
100
AcDbCircle
 10
182.162598
 20
367.217422
 40
33.000046
100
AcDbArc
 50
103.050476
 51
112.622104
  0
ARC
  5
1CB
100
AcDbEntity
  8
M1
  6
CONTINUOUS
370
25
 62
     7
100
AcDbCircle
 10
175.162598
 20
397.416733
 40
2.0
100
AcDbArc
 50
0.0
 51
103.053001
  0
ARC
  5
1CC
100
AcDbEntity
  8
M1
  6
CONTINUOUS
370
25
 62
     7
100
AcDbCircle
 10
170.238403
 20
395.832321
 40
2.000056
100
AcDbArc
 50
112.620941
 51
209.996788
  0
ARC
  5
1CD
100
AcDbEntity
  8
M1
  6
CONTINUOUS
370
25
 62
     7
100
AcDbCircle
 10
174.029907
 20
389.265335
 40
1.999951
100
AcDbArc
 50
210.000809
 51
290.24559
  0
ARC
  5
1CE
100
AcDbEntity
  8
M1
  6
CONTINUOUS
370
25
 62
     7
100
AcDbCircle
 10
175.162598
 20
389.65062
 40
1.999986
100
AcDbArc
 50
287.328735
 51
360.000008
  0
ARC
  5
1CF
100
AcDbEntity
  8
M1
  6
CONTINUOUS
370
25
 62
     7
100
AcDbCircle
 10
182.162598
 20
367.217422
 40
21.499977
100
AcDbArc
 50
107.329987
 51
132.670101
  0
ARC
  5
1D0
100
AcDbEntity
  8
M1
  6
CONTINUOUS
370
25
 62
     7
100
AcDbCircle
 10
163.31488
 20
391.829727
 40
2.000103
100
AcDbArc
 50
30.001328
 51
127.440445
  0
ARC
  5
1D1
100
AcDbEntity
  8
M1
  6
CONTINUOUS
370
25
 62
     7
100
AcDbCircle
 10
182.162598
 20
367.217422
 40
32.999973
100
AcDbArc
 50
127.444191
 51
136.949837
  0
ARC
  5
1D2
100
AcDbEntity
  8
M1
  6
CONTINUOUS
370
25
 62
     7
100
AcDbCircle
 10
159.509216
 20
388.379227
 40
2.000083
100
AcDbArc
 50
136.951324
 51
239.999191
  0
ARC
  5
1D3
100
AcDbEntity
  8
M1
  6
CONTINUOUS
370
25
 62
     7
100
AcDbCircle
 10
167.107178
 20
385.261429
 40
1.999967
100
AcDbArc
 50
309.841492
 51
390.000793
  0
ARC
  5
1D4
100
AcDbEntity
  8
M1
  6
CONTINUOUS
370
25
 62
     7
100
AcDbCircle
 10
166.234924
 20
384.496231
 40
2.000057
100
AcDbArc
 50
240.000946
 51
312.671242
  0
ARC
  5
1D5
100
AcDbEntity
  8
M1
  6
CONTINUOUS
370
25
 62
     7
100
AcDbCircle
 10
139.689697
 20
365.699921
 40
5.000017
100
AcDbArc
 50
182.047089
 51
362.045868
  0
ARC
  5
1D6
100
AcDbEntity
  8
M1
  6
CONTINUOUS
370
25
 62
     7
100
AcDbCircle
 10
182.162598
 20
367.217422
 40
47.500019
100
AcDbArc
 50
177.970215
 51
182.046322
  0
ARC
  5
1D7
100
AcDbEntity
  8
M1
  6
CONTINUOUS
370
25
 62
     7
100
AcDbCircle
 10
139.68927
 20
368.722717
 40
5.000082
100
AcDbArc
 50
357.971313
 51
537.970062
  0
ARC
  5
1D8
100
AcDbEntity
  8
M1
  6
CONTINUOUS
370
25
 62
     7
100
AcDbCircle
 10
182.162598
 20
367.217422
 40
37.499912
100
AcDbArc
 50
177.970093
 51
182.046428
  0
ARC
  5
1D9
100
AcDbEntity
  8
M1
  6
CONTINUOUS
370
25
 62
     7
100
AcDbCircle
 10
182.162598
 20
367.217422
 40
32.999996
100
AcDbArc
 50
163.0504
 51
172.622164
  0
ARC
  5
1DA
100
AcDbEntity
  8
M1
  6
CONTINUOUS
370
25
 62
     7
100
AcDbCircle
 10
152.509216
 20
376.254929
 40
2.000031
100
AcDbArc
 50
60.000507
 51
163.052982
  0
ARC
  5
1DB
100
AcDbEntity
  8
M1
  6
CONTINUOUS
370
25
 62
     7
100
AcDbCircle
 10
151.419189
 20
371.198227
 40
2.000074
100
AcDbArc
 50
172.623413
 51
270.0
  0
ARC
  5
1DC
100
AcDbEntity
  8
M1
  6
CONTINUOUS
370
25
 62
     7
100
AcDbCircle
 10
159.002197
 20
371.198227
 40
2.0
100
AcDbArc
 50
270.0
 51
350.247063
  0
ARC
  5
1DD
100
AcDbEntity
  8
M1
  6
CONTINUOUS
370
25
 62
     7
100
AcDbCircle
 10
159.234924
 20
372.371826
 40
2.000003
100
AcDbArc
 50
347.32901
 51
420.00074
  0
ARC
  5
1DE
100
AcDbEntity
  8
M1
  6
CONTINUOUS
370
25
 62
     7
100
AcDbCircle
 10
182.162598
 20
367.217422
 40
21.499914
100
AcDbArc
 50
167.329987
 51
192.670021
  0
ARC
  5
1DF
100
AcDbEntity
  8
M1
  6
CONTINUOUS
370
25
 62
     7
100
AcDbCircle
 10
151.423828
 20
363.201019
 40
2.0
100
AcDbArc
 50
90.0
 51
187.443398
  0
ARC
  5
1E0
100
AcDbEntity
  8
M1
  6
CONTINUOUS
370
25
 62
     7
100
AcDbCircle
 10
182.162598
 20
367.217422
 40
33.000065
100
AcDbArc
 50
187.444183
 51
196.949924
  0
ARC
  5
1E1
100
AcDbEntity
  8
M1
  6
CONTINUOUS
370
25
 62
     7
100
AcDbCircle
 10
152.509216
 20
358.179916
 40
2.000034
100
AcDbArc
 50
196.950455
 51
299.999268
  0
ARC
  5
1E2
100
AcDbEntity
  8
M1
  6
CONTINUOUS
370
25
 62
     7
100
AcDbCircle
 10
159.008301
 20
363.201019
 40
2.000022
100
AcDbArc
 50
9.843057
 51
90.0
  0
ARC
  5
1E3
100
AcDbEntity
  8
M1
  6
CONTINUOUS
370
25
 62
     7
100
AcDbCircle
 10
159.234924
 20
362.063019
 40
2.000044
100
AcDbArc
 50
299.999268
 51
372.670998
  0
ARC
  5
1E4
100
AcDbEntity
  8
M1
  6
CONTINUOUS
370
25
 62
     7
100
AcDbCircle
 10
162.240417
 20
329.676025
 40
4.99999
100
AcDbArc
 50
242.045959
 51
422.045883
  0
ARC
  5
1E5
100
AcDbEntity
  8
M1
  6
CONTINUOUS
370
25
 62
     7
100
AcDbCircle
 10
182.162598
 20
367.217422
 40
47.499989
100
AcDbArc
 50
237.970245
 51
242.046309
  0
ARC
  5
1E6
100
AcDbEntity
  8
M1
  6
CONTINUOUS
370
25
 62
     7
100
AcDbCircle
 10
159.622314
 20
331.187119
 40
5.000034
100
AcDbArc
 50
57.970539
 51
237.969883
  0
ARC
  5
1E7
100
AcDbEntity
  8
M1
  6
CONTINUOUS
370
25
 62
     7
100
AcDbCircle
 10
182.162598
 20
367.217422
 40
37.499996
100
AcDbArc
 50
237.970016
 51
242.046409
  0
ARC
  5
1E8
100
AcDbEntity
  8
M1
  6
CONTINUOUS
370
25
 62
     7
100
AcDbCircle
 10
182.162598
 20
367.217422
 40
33.000072
100
AcDbArc
 50
223.050369
 51
232.622037
  0
ARC
  5
1E9
100
AcDbEntity
  8
M1
  6
CONTINUOUS
370
25
 62
     7
100
AcDbCircle
 10
159.509216
 20
346.055527
 40
2.000044
100
AcDbArc
 50
119.999275
 51
223.050186
  0
ARC
  5
1EA
100
AcDbEntity
  8
M1
  6
CONTINUOUS
370
25
 62
     7
100
AcDbCircle
 10
163.343384
 20
342.583221
 40
1.999945
100
AcDbArc
 50
232.61969
 51
329.999199
  0
ARC
  5
1EB
100
AcDbEntity
  8
M1
  6
CONTINUOUS
370
25
 62
     7
100
AcDbCircle
 10
167.134888
 20
349.15033
 40
1.999951
100
AcDbArc
 50
329.999207
 51
410.247276
  0
ARC
  5
1EC
100
AcDbEntity
  8
M1
  6
CONTINUOUS
370
25
 62
     7
100
AcDbCircle
 10
166.234924
 20
349.938629
 40
1.999991
100
AcDbArc
 50
47.328167
 51
119.999493
  0
ARC
  5
1ED
100
AcDbEntity
  8
M1
  6
CONTINUOUS
370
25
 62
     7
100
AcDbCircle
 10
182.162598
 20
367.217422
 40
21.499954
100
AcDbArc
 50
227.330154
 51
252.670015
  0
ARC
  5
1EE
100
AcDbEntity
  8
M1
  6
CONTINUOUS
370
25
 62
     7
100
AcDbCircle
 10
170.271484
 20
338.588623
 40
2.000057
100
AcDbArc
 50
150.000946
 51
247.442848
  0
ARC
  5
1EF
100
AcDbEntity
  8
M1
  6
CONTINUOUS
370
25
 62
     7
100
AcDbCircle
 10
182.162598
 20
367.217422
 40
33.000031
100
AcDbArc
 50
247.444061
 51
256.949935
  0
ARC
  5
1F0
100
AcDbEntity
  8
M1
  6
CONTINUOUS
370
25
 62
     7
100
AcDbCircle
 10
175.162598
 20
337.018021
 40
2.000046
100
AcDbArc
 50
256.950409
 51
360.0
  0
ARC
  5
1F1
100
AcDbEntity
  8
M1
  6
CONTINUOUS
370
25
 62
     7
100
AcDbCircle
 10
174.063721
 20
345.157028
 40
1.999971
100
AcDbArc
 50
69.843903
 51
149.999199
  0
ARC
  5
1F2
100
AcDbEntity
  8
M1
  6
CONTINUOUS
370
25
 62
     7
100
AcDbCircle
 10
175.162598
 20
344.784225
 40
2.0
100
AcDbArc
 50
0.0
 51
72.671143
  0
ARC
  5
1F3
100
AcDbEntity
  8
M1
  6
CONTINUOUS
370
25
 62
     7
100
AcDbCircle
 10
204.713318
 20
331.193527
 40
4.999887
100
AcDbArc
 50
302.046204
 51
482.045685
  0
ARC
  5
1F4
100
AcDbEntity
  8
M1
  6
CONTINUOUS
370
25
 62
     7
100
AcDbCircle
 10
182.162598
 20
367.217422
 40
47.499992
100
AcDbArc
 50
297.970184
 51
302.046273
  0
ARC
  5
1F5
100
AcDbEntity
  8
M1
  6
CONTINUOUS
370
25
 62
     7
100
AcDbCircle
 10
202.095581
 20
329.681824
 40
5.000052
100
AcDbArc
 50
117.970291
 51
297.970779
  0
ARC
  5
1F6
100
AcDbEntity
  8
M1
  6
CONTINUOUS
370
25
 62
     7
100
AcDbCircle
 10
182.162598
 20
367.217422
 40
37.499985
100
AcDbArc
 50
297.970093
 51
302.046376
  0
ARC
  5
1F7
100
AcDbEntity
  8
M1
  6
CONTINUOUS
370
25
 62
     7
100
AcDbCircle
 10
182.162598
 20
367.217422
 40
33.000046
100
AcDbArc
 50
283.050476
 51
292.622104
  0
ARC
  5
1F8
100
AcDbEntity
  8
M1
  6
CONTINUOUS
370
25
 62
     7
100
AcDbCircle
 10
189.162598
 20
337.018021
 40
2.0
100
AcDbArc
 50
180.0
 51
283.053596
  0
ARC
  5
1F9
100
AcDbEntity
  8
M1
  6
CONTINUOUS
370
25
 62
     7
100
AcDbCircle
 10
194.086792
 20
338.602417
 40
1.999972
100
AcDbArc
 50
292.621948
 51
390.000801
  0
ARC
  5
1FA
100
AcDbEntity
  8
M1
  6
CONTINUOUS
370
25
 62
     7
100
AcDbCircle
 10
190.295288
 20
345.169525
 40
1.999951
100
AcDbArc
 50
30.000805
 51
110.245586
  0
ARC
  5
1FB
100
AcDbEntity
  8
M1
  6
CONTINUOUS
370
25
 62
     7
100
AcDbCircle
 10
189.162598
 20
344.784225
 40
1.999972
100
AcDbArc
 50
107.328857
 51
180.0
  0
ARC
  5
1FC
100
AcDbEntity
  8
M1
  6
CONTINUOUS
370
25
 62
     7
100
AcDbCircle
 10
182.162598
 20
367.217422
 40
21.499992
100
AcDbArc
 50
287.329987
 51
312.669847
  0
ARC
  5
1FD
100
AcDbEntity
  8
M1
  6
CONTINUOUS
370
25
 62
     7
100
AcDbCircle
 10
201.010315
 20
342.605026
 40
2.000057
100
AcDbArc
 50
209.999054
 51
307.441772
  0
ARC
  5
1FE
100
AcDbEntity
  8
M1
  6
CONTINUOUS
370
25
 62
     7
100
AcDbCircle
 10
182.162598
 20
367.217422
 40
32.999973
100
AcDbArc
 50
307.444183
 51
316.949829
  0
ARC
  5
1FF
100
AcDbEntity
  8
M1
  6
CONTINUOUS
370
25
 62
     7
100
AcDbCircle
 10
204.815979
 20
346.055527
 40
2.000021
100
AcDbArc
 50
316.953247
 51
420.000725
  0
ARC
  5
200
100
AcDbEntity
  8
M1
  6
CONTINUOUS
370
25
 62
     7
100
AcDbCircle
 10
197.218018
 20
349.173416
 40
1.999955
100
AcDbArc
 50
129.841782
 51
210.003075
  0
ARC
  5
201
100
AcDbEntity
  8
M1
  6
CONTINUOUS
370
25
 62
     7
100
AcDbCircle
 10
198.090271
 20
349.938629
 40
2.000031
100
AcDbArc
 50
60.000507
 51
132.671833
  0
ARC
  5
202
100
AcDbEntity
  8
M1
  6
CONTINUOUS
370
25
 62
     7
100
AcDbCircle
 10
224.635498
 20
368.734924
 40
4.999987
100
AcDbArc
 50
2.047093
 51
182.045857
  0
ARC
  5
203
100
AcDbEntity
  8
M1
  6
CONTINUOUS
370
25
 62
     7
100
AcDbCircle
 10
182.162598
 20
367.217422
 40
47.500019
100
AcDbArc
 50
357.970215
 51
362.046323
  0
ARC
  5
204
100
AcDbEntity
  8
M1
  6
CONTINUOUS
370
25
 62
     7
100
AcDbCircle
 10
224.635925
 20
365.712128
 40
5.000085
100
AcDbArc
 50
177.970261
 51
357.970016
  0
ARC
  5
205
100
AcDbEntity
  8
M1
  6
CONTINUOUS
370
25
 62
     7
100
AcDbCircle
 10
182.162598
 20
367.217422
 40
37.499912
100
AcDbArc
 50
357.970062
 51
362.046421
  0
ARC
  5
206
100
AcDbEntity
  8
M1
  6
CONTINUOUS
370
25
 62
     7
100
AcDbCircle
 10
182.162598
 20
367.217422
 40
32.999996
100
AcDbArc
 50
343.050415
 51
352.622179
  0
ARC
  5
207
100
AcDbEntity
  8
M1
  6
CONTINUOUS
370
25
 62
     7
100
AcDbCircle
 10
211.815979
 20
358.179916
 40
2.000044
100
AcDbArc
 50
240.000732
 51
343.050056
  0
ARC
  5
208
100
AcDbEntity
  8
M1
  6
CONTINUOUS
370
25
 62
     7
100
AcDbCircle
 10
212.906006
 20
363.236618
 40
2.000087
100
AcDbArc
 50
352.620392
 51
450.0
  0
ARC
  5
209
100
AcDbEntity
  8
M1
  6
CONTINUOUS
370
25
 62
     7
100
AcDbCircle
 10
205.322998
 20
363.236618
 40
2.0
100
AcDbArc
 50
90.0
 51
170.247063
  0
ARC
  5
20A
100
AcDbEntity
  8
M1
  6
CONTINUOUS
370
25
 62
     7
100
AcDbCircle
 10
205.090271
 20
362.063019
 40
2.000003
100
AcDbArc
 50
167.328995
 51
240.000725
  0
ARC
  5
20B
100
AcDbEntity
  8
M1
  6
CONTINUOUS
370
25
 62
     7
100
AcDbCircle
 10
182.162598
 20
367.217422
 40
21.499914
100
AcDbArc
 50
347.329987
 51
372.670021
  0
ARC
  5
20C
100
AcDbEntity
  8
M1
  6
CONTINUOUS
370
25
 62
     7
100
AcDbCircle
 10
212.901428
 20
371.233826
 40
2.0
100
AcDbArc
 50
270.0
 51
367.443619
  0
ARC
  5
20D
100
AcDbEntity
  8
M1
  6
CONTINUOUS
370
25
 62
     7
100
AcDbCircle
 10
182.162598
 20
367.217422
 40
33.000065
100
AcDbArc
 50
7.444183
 51
16.949773
  0
ARC
  5
20E
100
AcDbEntity
  8
M1
  6
CONTINUOUS
370
25
 62
     7
100
AcDbCircle
 10
211.815979
 20
376.254929
 40
2.000034
100
AcDbArc
 50
16.950459
 51
119.999493
  0
ARC
  5
20F
100
AcDbEntity
  8
M1
  6
CONTINUOUS
370
25
 62
     7
100
AcDbCircle
 10
205.316895
 20
371.233826
 40
2.000022
100
AcDbArc
 50
189.843063
 51
270.0
  0
ARC
  5
210
100
AcDbEntity
  8
M1
  6
CONTINUOUS
370
25
 62
     7
100
AcDbCircle
 10
205.090271
 20
372.371826
 40
2.000044
100
AcDbArc
 50
119.999275
 51
192.671005
  0
ARC
  5
211
100
AcDbEntity
  8
M1
  6
CONTINUOUS
370
13
 62
     7
100
AcDbCircle
 10
182.162598
 20
367.217422
 40
31.999943
100
AcDbArc
 50
22.428812
 51
37.395185
  0
ARC
  5
212
100
AcDbEntity
  8
M1
  6
CONTINUOUS
370
13
 62
     7
100
AcDbCircle
 10
182.162598
 20
367.217422
 40
31.999966
100
AcDbArc
 50
82.565941
 51
97.240359
  0
ARC
  5
213
100
AcDbEntity
  8
M1
  6
CONTINUOUS
370
13
 62
     7
100
AcDbCircle
 10
182.162598
 20
367.217422
 40
32.000061
100
AcDbArc
 50
323.098389
 51
337.182896
  0
ARC
  5
214
100
AcDbEntity
  8
M1
  6
CONTINUOUS
370
13
 62
     7
100
AcDbCircle
 10
182.162598
 20
367.217422
 40
32.000057
100
AcDbArc
 50
143.661209
 51
156.877777
  0
ARC
  5
215
100
AcDbEntity
  8
M1
  6
CONTINUOUS
370
13
 62
     7
100
AcDbCircle
 10
182.162598
 20
367.217422
 40
32.000027
100
AcDbArc
 50
262.90802
 51
277.889139
  0
ARC
  5
216
100
AcDbEntity
  8
M1
  6
CONTINUOUS
370
13
 62
     7
100
AcDbCircle
 10
182.162598
 20
367.217422
 40
32.000027
100
AcDbArc
 50
203.702255
 51
216.650104
  0
CIRCLE
  5
217
100
AcDbEntity
  8
M1
  6
CONTINUOUS
370
25
 62
     7
100
AcDbCircle
 10
590.316299
 20
367.217422
 40
66.999992
  0
CIRCLE
  5
218
100
AcDbEntity
  8
M1
  6
CONTINUOUS
370
25
 62
     7
100
AcDbCircle
 10
590.316299
 20
367.217422
 40
57.999992
  0
CIRCLE
  5
219
100
AcDbEntity
  8
M1
  6
CONTINUOUS
370
25
 62
     7
100
AcDbCircle
 10
590.316299
 20
367.217422
 40
48.0
  0
CIRCLE
  5
21A
100
AcDbEntity
  8
M1
  6
CONTINUOUS
370
25
 62
     7
100
AcDbCircle
 10
590.316299
 20
419.217422
 40
4.0
  0
CIRCLE
  5
21B
100
AcDbEntity
  8
M1
  6
CONTINUOUS
370
25
 62
     7
100
AcDbCircle
 10
590.316299
 20
419.217422
 40
4.0
  0
CIRCLE
  5
21C
100
AcDbEntity
  8
M1
  6
CONTINUOUS
370
25
 62
     7
100
AcDbCircle
 10
545.283005
 20
393.217422
 40
4.0
  0
CIRCLE
  5
21D
100
AcDbEntity
  8
M1
  6
CONTINUOUS
370
25
 62
     7
100
AcDbCircle
 10
545.283005
 20
341.217422
 40
4.0
  0
CIRCLE
  5
21E
100
AcDbEntity
  8
M1
  6
CONTINUOUS
370
25
 62
     7
100
AcDbCircle
 10
590.316299
 20
315.217422
 40
4.0
  0
CIRCLE
  5
21F
100
AcDbEntity
  8
M1
  6
CONTINUOUS
370
25
 62
     7
100
AcDbCircle
 10
635.349602
 20
341.217422
 40
4.000008
  0
CIRCLE
  5
220
100
AcDbEntity
  8
M1
  6
CONTINUOUS
370
25
 62
     7
100
AcDbCircle
 10
635.349602
 20
393.217422
 40
4.000008
  0
CIRCLE
  5
221
100
AcDbEntity
  8
M1
  6
CONTINUOUS
370
25
 62
     7
100
AcDbCircle
 10
590.316299
 20
367.217422
 40
23.0
  0
ARC
  5
222
100
AcDbEntity
  8
M1
  6
CONTINUOUS
370
25
 62
     7
100
AcDbCircle
 10
590.316299
 20
367.217422
 40
30.999958
100
AcDbArc
 50
346.601471
 51
373.398344
  0
ARC
  5
223
100
AcDbEntity
  8
M1
  6
CONTINUOUS
370
25
 62
     7
100
AcDbCircle
 10
617.554199
 20
373.705627
 40
3.000054
100
AcDbArc
 50
13.398707
 51
119.999782
  0
ARC
  5
224
100
AcDbEntity
  8
M1
  6
CONTINUOUS
370
25
 62
     7
100
AcDbCircle
 10
616.861694
 20
372.151123
 40
3.999995
100
AcDbArc
 50
120.000038
 51
190.528366
  0
ARC
  5
225
100
AcDbEntity
  8
M1
  6
CONTINUOUS
370
25
 62
     7
100
AcDbCircle
 10
617.554199
 20
360.729218
 40
3.00002
100
AcDbArc
 50
240.000214
 51
346.602989
  0
ARC
  5
226
100
AcDbEntity
  8
M1
  6
CONTINUOUS
370
25
 62
     7
100
AcDbCircle
 10
616.861694
 20
362.283722
 40
4.000055
100
AcDbArc
 50
169.470123
 51
239.999954
  0
ARC
  5
227
100
AcDbEntity
  8
M1
  6
CONTINUOUS
370
25
 62
     7
100
AcDbCircle
 10
599.316299
 20
392.673233
 40
4.0
100
AcDbArc
 50
180.0
 51
250.527695
  0
ARC
  5
228
100
AcDbEntity
  8
M1
  6
CONTINUOUS
370
25
 62
     7
100
AcDbCircle
 10
598.316299
 20
394.050217
 40
3.000067
100
AcDbArc
 50
73.397835
 51
180.0
  0
ARC
  5
229
100
AcDbEntity
  8
M1
  6
CONTINUOUS
370
25
 62
     7
100
AcDbCircle
 10
590.316299
 20
367.217422
 40
31.000011
100
AcDbArc
 50
46.601589
 51
73.398378
  0
ARC
  5
22A
100
AcDbEntity
  8
M1
  6
CONTINUOUS
370
25
 62
     7
100
AcDbCircle
 10
609.554199
 20
387.562027
 40
3.000033
100
AcDbArc
 50
299.999634
 51
406.602051
  0
ARC
  5
22B
100
AcDbEntity
  8
M1
  6
CONTINUOUS
370
25
 62
     7
100
AcDbCircle
 10
607.861694
 20
387.739517
 40
4.000022
100
AcDbArc
 50
229.470062
 51
300.000145
  0
ARC
  5
22C
100
AcDbEntity
  8
M1
  6
CONTINUOUS
370
25
 62
     7
100
AcDbCircle
 10
572.770905
 20
387.739609
 40
4.000061
100
AcDbArc
 50
240.000504
 51
310.527916
  0
ARC
  5
22D
100
AcDbEntity
  8
M1
  6
CONTINUOUS
370
25
 62
     7
100
AcDbCircle
 10
571.0784
 20
387.562027
 40
3.000021
100
AcDbArc
 50
133.398056
 51
240.000366
  0
ARC
  5
22E
100
AcDbEntity
  8
M1
  6
CONTINUOUS
370
25
 62
     7
100
AcDbCircle
 10
590.316299
 20
367.217422
 40
31.000051
100
AcDbArc
 50
106.601646
 51
133.398418
  0
ARC
  5
22F
100
AcDbEntity
  8
M1
  6
CONTINUOUS
370
25
 62
     7
100
AcDbCircle
 10
582.316299
 20
394.050217
 40
3.0
100
AcDbArc
 50
0.0
 51
106.602448
  0
ARC
  5
230
100
AcDbEntity
  8
M1
  6
CONTINUOUS
370
25
 62
     7
100
AcDbCircle
 10
581.316299
 20
392.673233
 40
3.999963
100
AcDbArc
 50
289.470856
 51
359.999992
  0
ARC
  5
231
100
AcDbEntity
  8
M1
  6
CONTINUOUS
370
25
 62
     7
100
AcDbCircle
 10
563.770905
 20
362.283722
 40
3.999995
100
AcDbArc
 50
300.000031
 51
370.528641
  0
ARC
  5
232
100
AcDbEntity
  8
M1
  6
CONTINUOUS
370
25
 62
     7
100
AcDbCircle
 10
563.0784
 20
360.729218
 40
3.000033
100
AcDbArc
 50
193.397003
 51
299.999779
  0
ARC
  5
233
100
AcDbEntity
  8
M1
  6
CONTINUOUS
370
25
 62
     7
100
AcDbCircle
 10
590.316299
 20
367.217422
 40
31.000053
100
AcDbArc
 50
166.601517
 51
193.398304
  0
ARC
  5
234
100
AcDbEntity
  8
M1
  6
CONTINUOUS
370
25
 62
     7
100
AcDbCircle
 10
563.0784
 20
373.705627
 40
3.00002
100
AcDbArc
 50
60.000214
 51
166.601288
  0
ARC
  5
235
100
AcDbEntity
  8
M1
  6
CONTINUOUS
370
25
 62
     7
100
AcDbCircle
 10
563.770905
 20
372.151123
 40
3.99995
100
AcDbArc
 50
349.469849
 51
419.999962
  0
ARC
  5
236
100
AcDbEntity
  8
M1
  6
CONTINUOUS
370
25
 62
     7
100
AcDbCircle
 10
581.316299
 20
341.761627
 40
4.0
100
AcDbArc
 50
0.0
 51
70.527618
  0
ARC
  5
237
100
AcDbEntity
  8
M1
  6
CONTINUOUS
370
25
 62
     7
100
AcDbCircle
 10
582.316299
 20
340.384628
 40
3.000072
100
AcDbArc
 50
253.397552
 51
360.0
  0
ARC
  5
238
100
AcDbEntity
  8
M1
  6
CONTINUOUS
370
25
 62
     7
100
AcDbCircle
 10
590.316299
 20
367.217422
 40
31.000006
100
AcDbArc
 50
226.601563
 51
253.398306
  0
ARC
  5
239
100
AcDbEntity
  8
M1
  6
CONTINUOUS
370
25
 62
     7
100
AcDbCircle
 10
571.0784
 20
346.872818
 40
3.00002
100
AcDbArc
 50
119.999786
 51
226.601753
  0
ARC
  5
23A
100
AcDbEntity
  8
M1
  6
CONTINUOUS
370
25
 62
     7
100
AcDbCircle
 10
572.770905
 20
346.695221
 40
3.999965
100
AcDbArc
 50
49.471367
 51
119.999275
  0
ARC
  5
23B
100
AcDbEntity
  8
M1
  6
CONTINUOUS
370
25
 62
     7
100
AcDbCircle
 10
607.861694
 20
346.695221
 40
3.999995
100
AcDbArc
 50
59.999962
 51
130.527641
  0
ARC
  5
23C
100
AcDbEntity
  8
M1
  6
CONTINUOUS
370
25
 62
     7
100
AcDbCircle
 10
609.554199
 20
346.872818
 40
3.000005
100
AcDbArc
 50
313.398132
 51
420.000198
  0
ARC
  5
23D
100
AcDbEntity
  8
M1
  6
CONTINUOUS
370
25
 62
     7
100
AcDbCircle
 10
590.316299
 20
367.217422
 40
31.000021
100
AcDbArc
 50
286.601471
 51
313.398441
  0
ARC
  5
23E
100
AcDbEntity
  8
M1
  6
CONTINUOUS
370
25
 62
     7
100
AcDbCircle
 10
598.316299
 20
340.384628
 40
3.0
100
AcDbArc
 50
180.0
 51
286.602165
  0
ARC
  5
23F
100
AcDbEntity
  8
M1
  6
CONTINUOUS
370
25
 62
     7
100
AcDbCircle
 10
599.316299
 20
341.761627
 40
3.999949
100
AcDbArc
 50
109.47094
 51
180.0
  0
CIRCLE
  5
240
100
AcDbEntity
  8
M1
  6
CONTINUOUS
370
25
 62
     7
100
AcDbCircle
 10
602.440704
 20
360.217422
 40
5.0
  0
CIRCLE
  5
241
100
AcDbEntity
  8
M1
  6
CONTINUOUS
370
25
 62
     7
100
AcDbCircle
 10
590.316299
 20
381.217422
 40
5.0
  0
CIRCLE
  5
242
100
AcDbEntity
  8
M1
  6
CONTINUOUS
370
25
 62
     7
100
AcDbCircle
 10
578.191895
 20
360.217422
 40
5.0
  0
ARC
  5
243
100
AcDbEntity
  8
M1
  6
CONTINUOUS
370
25
 62
     7
100
AcDbCircle
 10
182.162598
 20
367.217422
 40
6.000063
100
AcDbArc
 50
19.471006
 51
340.52899
  0
ARC
  5
244
100
AcDbEntity
  8
M1
  6
CONTINUOUS
370
25
 62
     7
100
AcDbCircle
 10
377.880402
 20
423.789413
 40
5.000075
100
AcDbArc
 50
187.72377
 51
204.56423
  0
ARC
  5
245
100
AcDbEntity
  8
M1
  6
CONTINUOUS
370
25
 62
     7
100
AcDbCircle
 10
377.880402
 20
414.645432
 40
5.000041
100
AcDbArc
 50
155.43576
 51
172.27622
  0
ARC
  5
246
100
AcDbEntity
  8
M1
  6
CONTINUOUS
370
25
 62
     7
100
AcDbCircle
 10
378.725708
 20
310.217422
 40
1.0
100
AcDbArc
 50
180.0
 51
270.0
  0
ARC
  5
247
100
AcDbEntity
  8
M1
  6
CONTINUOUS
370
25
 62
     7
100
AcDbCircle
 10
373.725708
 20
326.217422
 40
4.0
100
AcDbArc
 50
0.0
 51
90.0
  0
ARC
  5
248
100
AcDbEntity
  8
M1
  6
CONTINUOUS
370
25
 62
     7
100
AcDbCircle
 10
377.880402
 20
336.645416
 40
5.000053
100
AcDbArc
 50
155.43544
 51
172.276045
  0
ARC
  5
249
100
AcDbEntity
  8
M1
  6
CONTINUOUS
370
25
 62
     7
100
AcDbCircle
 10
377.880402
 20
345.789429
 40
5.000077
100
AcDbArc
 50
187.723953
 51
204.564558
  0
ARC
  5
24A
100
AcDbEntity
  8
M1
  6
CONTINUOUS
370
25
 62
     7
100
AcDbCircle
 10
350.225708
 20
367.217422
 40
2.0
100
AcDbArc
 50
270.0
 51
360.0
  0
ARC
  5
24B
100
AcDbEntity
  8
M1
  6
CONTINUOUS
370
25
 62
     7
100
AcDbCircle
 10
433.735504
 20
355.558426
 40
3.0
100
AcDbArc
 50
0.0
 51
33.573677
  0
ARC
  5
24C
100
AcDbEntity
  8
M1
  6
CONTINUOUS
370
25
 62
     7
100
AcDbCircle
 10
433.735504
 20
364.876419
 40
2.999946
100
AcDbArc
 50
326.426331
 51
360.000008
  0
ARC
  5
24D
100
AcDbEntity
  8
M1
  6
CONTINUOUS
370
25
 62
     7
100
AcDbCircle
 10
377.880402
 20
310.645416
 40
5.000053
100
AcDbArc
 50
155.43544
 51
172.276045
  0
ARC
  5
24E
100
AcDbEntity
  8
M1
  6
CONTINUOUS
370
25
 62
     7
100
AcDbCircle
 10
377.880402
 20
319.789429
 40
5.000077
100
AcDbArc
 50
187.723953
 51
204.564558
  0
ARC
  5
24F
100
AcDbEntity
  8
M1
  6
CONTINUOUS
370
25
 62
     7
100
AcDbCircle
 10
366.773712
 20
449.832321
 40
13.999774
100
AcDbArc
 50
25.84025
 51
59.999506
  0
ARC
  5
250
100
AcDbEntity
  8
M1
  6
CONTINUOUS
370
25
 62
     7
100
AcDbCircle
 10
391.973602
 20
449.832321
 40
11.199588
100
AcDbArc
 50
120.001251
 51
179.999996
  0
ARC
  5
251
100
AcDbEntity
  8
M1
  6
CONTINUOUS
370
25
 62
     7
100
AcDbCircle
 10
391.973602
 20
449.832321
 40
13.999686
100
AcDbArc
 50
120.00074
 51
179.999996
  0
ARC
  5
252
100
AcDbEntity
  8
M1
  6
CONTINUOUS
370
25
 62
     7
100
AcDbCircle
 10
366.773712
 20
449.832321
 40
11.199982
100
AcDbArc
 50
0.0
 51
59.998714
  0
ARC
  5
253
100
AcDbEntity
  8
M1
  6
CONTINUOUS
370
25
 62
     7
100
AcDbCircle
 10
383.774689
 20
432.832321
 40
5.799988
100
AcDbArc
 50
180.0
 51
270.0
  0
ARC
  5
254
100
AcDbEntity
  8
M1
  6
CONTINUOUS
370
25
 62
     7
100
AcDbCircle
 10
383.774689
 20
432.832321
 40
3.0
100
AcDbArc
 50
180.0
 51
270.0
  0
ARC
  5
255
100
AcDbEntity
  8
M1
  6
CONTINUOUS
370
25
 62
     7
100
AcDbCircle
 10
240.813385
 20
446.399734
 40
8.959991
100
AcDbArc
 50
90.0
 51
150.0014
  0
ARC
  5
256
100
AcDbEntity
  8
M1
  6
CONTINUOUS
370
25
 62
     7
100
AcDbCircle
 10
240.813385
 20
446.399734
 40
11.199982
100
AcDbArc
 50
90.0
 51
149.998951
  0
ARC
  5
257
100
AcDbEntity
  8
M1
  6
CONTINUOUS
370
25
 62
     7
100
AcDbCircle
 10
213.171387
 20
420.922714
 40
4.000041
100
AcDbArc
 50
94.056435
 51
385.930458
  0
ARC
  5
258
100
AcDbEntity
  8
M1
  6
CONTINUOUS
370
25
 62
     7
100
AcDbCircle
 10
221.414307
 20
457.599716
 40
8.960329
100
AcDbArc
 50
330.001373
 51
389.998821
  0
ARC
  5
259
100
AcDbEntity
  8
M1
  6
CONTINUOUS
370
25
 62
     7
100
AcDbCircle
 10
221.414307
 20
457.599716
 40
11.200434
100
AcDbArc
 50
330.001251
 51
389.99876
  0
ARC
  5
25A
100
AcDbEntity
  8
M1
  6
CONTINUOUS
370
25
 62
     7
100
AcDbCircle
 10
531.665497
 20
446.399734
 40
8.96
100
AcDbArc
 50
29.998505
 51
90.0
  0
ARC
  5
25B
100
AcDbEntity
  8
M1
  6
CONTINUOUS
370
25
 62
     7
100
AcDbCircle
 10
531.665497
 20
446.399734
 40
11.200023
100
AcDbArc
 50
30.001049
 51
90.0
  0
ARC
  5
25C
100
AcDbEntity
  8
M1
  6
CONTINUOUS
370
25
 62
     7
100
AcDbCircle
 10
551.06459
 20
457.599716
 40
8.960358
100
AcDbArc
 50
150.001236
 51
209.998589
  0
ARC
  5
25D
100
AcDbEntity
  8
M1
  6
CONTINUOUS
370
25
 62
     7
100
AcDbCircle
 10
551.06459
 20
457.599716
 40
11.200447
100
AcDbArc
 50
150.001282
 51
209.998714
  0
ARC
  5
25E
100
AcDbEntity
  8
M1
  6
CONTINUOUS
370
25
 62
     7
100
AcDbCircle
 10
182.162598
 20
367.217422
 40
66.999908
100
AcDbArc
 50
61.913738
 51
360.000011
  0
ARC
  5
25F
100
AcDbEntity
  8
M1
  6
CONTINUOUS
370
25
 62
     7
100
AcDbCircle
 10
431.570984
 20
414.645432
 40
5.000075
100
AcDbArc
 50
7.723776
 51
24.564236
  0
ARC
  5
260
100
AcDbEntity
  8
M1
  6
CONTINUOUS
370
25
 62
     7
100
AcDbCircle
 10
431.570984
 20
423.789413
 40
5.000041
100
AcDbArc
 50
335.43576
 51
352.27622
  0
ARC
  5
261
100
AcDbEntity
  8
M1
  6
CONTINUOUS
370
25
 62
     7
100
AcDbCircle
 10
431.570984
 20
388.645432
 40
5.000075
100
AcDbArc
 50
7.723776
 51
24.564236
  0
ARC
  5
262
100
AcDbEntity
  8
M1
  6
CONTINUOUS
370
25
 62
     7
100
AcDbCircle
 10
431.570984
 20
397.789413
 40
5.000041
100
AcDbArc
 50
335.43576
 51
352.27622
  0
ARC
  5
263
100
AcDbEntity
  8
M1
  6
CONTINUOUS
370
25
 62
     7
100
AcDbCircle
 10
431.570984
 20
345.789429
 40
5.000053
100
AcDbArc
 50
335.435455
 51
352.27606
  0
ARC
  5
264
100
AcDbEntity
  8
M1
  6
CONTINUOUS
370
25
 62
     7
100
AcDbCircle
 10
431.570984
 20
336.645416
 40
5.000077
100
AcDbArc
 50
7.723949
 51
24.564554
  0
ARC
  5
265
100
AcDbEntity
  8
M1
  6
CONTINUOUS
370
25
 62
     7
100
AcDbCircle
 10
431.570984
 20
319.789429
 40
5.000053
100
AcDbArc
 50
335.435455
 51
352.27606
  0
ARC
  5
266
100
AcDbEntity
  8
M1
  6
CONTINUOUS
370
25
 62
     7
100
AcDbCircle
 10
431.570984
 20
310.645416
 40
5.000077
100
AcDbArc
 50
7.723949
 51
24.564554
  0
SPLINE
  5
267
100
AcDbEntity
  8
M1
  6
CONTINUOUS
370
25
 62
     7
100
AcDbSpline
210
0.0
220
0.0
230
-1.0
 70
     8
 71
     3
 72
    11
 73
     7
 43
0.0000001
 40
0.0
 40
0.0
 40
0.0
 40
0.0
 40
1.0
 40
1.0
 40
1.0
 40
2.0
 40
2.0
 40
2.0
 40
2.0
 10
373.329803
 20
395.717422
 10
373.070099
 20
394.9142
 10
372.925629
 20
394.065811
 10
372.925629
 20
393.217422
 10
372.92569
 20
392.369034
 10
373.07019
 20
391.520645
 10
373.329865
 20
390.717422
  0
SPLINE
  5
268
100
AcDbEntity
  8
M1
  6
CONTINUOUS
370
25
 62
     7
100
AcDbSpline
210
0.0
220
0.0
230
-1.0
 70
     8
 71
     3
 72
    11
 73
     7
 43
0.0000001
 40
0.0
 40
0.0
 40
0.0
 40
0.0
 40
1.0
 40
1.0
 40
1.0
 40
2.0
 40
2.0
 40
2.0
 40
2.0
 10
436.235107
 20
384.217422
 10
436.550201
 20
383.254349
 10
436.72583
 20
382.235886
 10
436.72583
 20
381.217422
 10
436.7258
 20
380.198959
 10
436.55014
 20
379.180481
 10
436.235077
 20
378.217422
  0
SPLINE
  5
269
100
AcDbEntity
  8
M1
  6
CONTINUOUS
370
25
 62
     7
100
AcDbSpline
210
0.0
220
0.0
230
-1.0
 70
     8
 71
     3
 72
    11
 73
     7
 43
0.0000001
 40
0.0
 40
0.0
 40
0.0
 40
0.0
 40
1.0
 40
1.0
 40
1.0
 40
2.0
 40
2.0
 40
2.0
 40
2.0
 10
373.329803
 20
421.717422
 10
373.070099
 20
420.9142
 10
372.925629
 20
420.065811
 10
372.925629
 20
419.217422
 10
372.92569
 20
418.369034
 10
373.07019
 20
417.520645
 10
373.329865
 20
416.717422
  0
SPLINE
  5
26A
100
AcDbEntity
  8
M1
  6
CONTINUOUS
370
25
 62
     7
100
AcDbSpline
210
0.0
220
0.0
230
-1.0
 70
     8
 71
     3
 72
    11
 73
     7
 43
0.0000001
 40
0.0
 40
0.0
 40
0.0
 40
0.0
 40
1.0
 40
1.0
 40
1.0
 40
2.0
 40
2.0
 40
2.0
 40
2.0
 10
373.329803
 20
338.717422
 10
373.070099
 20
339.52063
 10
372.925629
 20
340.369034
 10
372.925629
 20
341.217422
 10
372.92569
 20
342.065811
 10
373.07019
 20
342.914215
 10
373.329865
 20
343.717422
  0
SPLINE
  5
26B
100
AcDbEntity
  8
M1
  6
CONTINUOUS
370
25
 62
     7
100
AcDbSpline
210
0.0
220
0.0
230
-1.0
 70
     8
 71
     3
 72
    11
 73
     7
 43
0.0000001
 40
0.0
 40
0.0
 40
0.0
 40
0.0
 40
1.0
 40
1.0
 40
1.0
 40
2.0
 40
2.0
 40
2.0
 40
2.0
 10
436.235107
 20
357.217422
 10
436.550201
 20
358.180481
 10
436.72583
 20
359.198959
 10
436.72583
 20
360.217422
 10
436.7258
 20
361.235886
 10
436.55014
 20
362.254364
 10
436.235077
 20
363.217422
  0
SPLINE
  5
26C
100
AcDbEntity
  8
M1
  6
CONTINUOUS
370
25
 62
     7
100
AcDbSpline
210
0.0
220
0.0
230
-1.0
 70
     8
 71
     3
 72
    11
 73
     7
 43
0.0000001
 40
0.0
 40
0.0
 40
0.0
 40
0.0
 40
1.0
 40
1.0
 40
1.0
 40
2.0
 40
2.0
 40
2.0
 40
2.0
 10
373.329803
 20
312.717422
 10
373.070099
 20
313.52063
 10
372.925629
 20
314.369034
 10
372.925629
 20
315.217422
 10
372.92569
 20
316.065811
 10
373.07019
 20
316.914215
 10
373.329865
 20
317.717422
  0
SPLINE
  5
26D
100
AcDbEntity
  8
M1
  6
CONTINUOUS
370
25
 62
     7
100
AcDbSpline
210
0.0
220
0.0
230
-1.0
 70
     8
 71
     3
 72
    11
 73
     7
 43
0.0000001
 40
0.0
 40
0.0
 40
0.0
 40
0.0
 40
1.0
 40
1.0
 40
1.0
 40
2.0
 40
2.0
 40
2.0
 40
2.0
 10
213.171387
 20
420.922714
 10
213.351318
 20
420.440598
 10
213.526245
 20
420.02684
 10
213.872314
 20
419.872726
 10
214.250549
 20
419.7043
 10
214.791565
 20
419.936874
 10
215.353271
 20
420.220718
  0
SPLINE
  5
26E
100
AcDbEntity
  8
M1
  6
CONTINUOUS
370
25
 62
     7
100
AcDbSpline
210
0.0
220
0.0
230
-1.0
 70
     8
 71
     3
 72
    11
 73
     7
 43
0.0000001
 40
0.0
 40
0.0
 40
0.0
 40
0.0
 40
1.0
 40
1.0
 40
1.0
 40
2.0
 40
2.0
 40
2.0
 40
2.0
 10
211.214417
 20
422.013718
 10
211.394836
 20
421.492081
 10
211.620728
 20
421.03215
 10
211.961487
 20
420.877731
 10
212.289001
 20
420.729294
 10
212.737
 20
420.832596
 10
213.214355
 20
420.996719
  0
SPLINE
  5
26F
100
AcDbEntity
  8
M1
  6
CONTINUOUS
370
25
 62
     7
100
AcDbSpline
210
0.0
220
0.0
230
-1.0
 70
     8
 71
     3
 72
    11
 73
     7
 43
0.0000001
 40
0.0
 40
0.0
 40
0.0
 40
0.0
 40
1.0
 40
1.0
 40
1.0
 40
2.0
 40
2.0
 40
2.0
 40
2.0
 10
436.121613
 20
421.717422
 10
436.381317
 20
420.9142
 10
436.525787
 20
420.065811
 10
436.525787
 20
419.217422
 10
436.525787
 20
418.369034
 10
436.381287
 20
417.520645
 10
436.121613
 20
416.717422
  0
SPLINE
  5
270
100
AcDbEntity
  8
M1
  6
CONTINUOUS
370
25
 62
     7
100
AcDbSpline
210
0.0
220
0.0
230
-1.0
 70
     8
 71
     3
 72
    11
 73
     7
 43
0.0000001
 40
0.0
 40
0.0
 40
0.0
 40
0.0
 40
1.0
 40
1.0
 40
1.0
 40
2.0
 40
2.0
 40
2.0
 40
2.0
 10
436.121613
 20
395.717422
 10
436.381317
 20
394.9142
 10
436.525787
 20
394.065811
 10
436.525787
 20
393.217422
 10
436.525787
 20
392.369034
 10
436.381287
 20
391.520645
 10
436.121613
 20
390.717422
  0
SPLINE
  5
271
100
AcDbEntity
  8
M1
  6
CONTINUOUS
370
25
 62
     7
100
AcDbSpline
210
0.0
220
0.0
230
-1.0
 70
     8
 71
     3
 72
    11
 73
     7
 43
0.0000001
 40
0.0
 40
0.0
 40
0.0
 40
0.0
 40
1.0
 40
1.0
 40
1.0
 40
2.0
 40
2.0
 40
2.0
 40
2.0
 10
436.121613
 20
338.717422
 10
436.381317
 20
339.52063
 10
436.525787
 20
340.369034
 10
436.525787
 20
341.217422
 10
436.525787
 20
342.065811
 10
436.381287
 20
342.914215
 10
436.121613
 20
343.717422
  0
SPLINE
  5
272
100
AcDbEntity
  8
M1
  6
CONTINUOUS
370
25
 62
     7
100
AcDbSpline
210
0.0
220
0.0
230
-1.0
 70
     8
 71
     3
 72
    11
 73
     7
 43
0.0000001
 40
0.0
 40
0.0
 40
0.0
 40
0.0
 40
1.0
 40
1.0
 40
1.0
 40
2.0
 40
2.0
 40
2.0
 40
2.0
 10
436.121613
 20
312.717422
 10
436.381317
 20
313.52063
 10
436.525787
 20
314.369034
 10
436.525787
 20
315.217422
 10
436.525787
 20
316.065811
 10
436.381287
 20
316.914215
 10
436.121613
 20
317.717422
  0
ARC
  5
273
100
AcDbEntity
  8
M1
  6
CONTINUOUS
370
25
 62
     7
100
AcDbCircle
 10
183.012598
 20
367.213643
 40
8.5
100
AcDbArc
 50
220.750103
 51
499.249897
  0
ARC
  5
274
100
AcDbEntity
  8
M1
  6
CONTINUOUS
370
25
 62
     7
100
AcDbCircle
 10
175.815741
 20
373.414874
 40
1.0
100
AcDbArc
 50
285.0
 51
319.249897
  0
LINE
  5
275
100
AcDbEntity
  8
M1
  6
CONTINUOUS
370
25
 62
     7
100
AcDbLine
 10
176.07456
 20
372.448948
 11
173.138534
 21
371.662242
  0
ARC
  5
276
100
AcDbEntity
  8
M1
  6
CONTINUOUS
370
25
 62
     7
100
AcDbCircle
 10
173.397353
 20
370.696316
 40
1.0
100
AcDbArc
 50
105.0
 51
180.0
  0
LINE
  5
277
100
AcDbEntity
  8
M1
  6
CONTINUOUS
370
25
 62
     7
100
AcDbLine
 10
172.397353
 20
368.063643
 11
172.397353
 21
370.696316
  0
LINE
  5
278
100
AcDbEntity
  8
M1
  6
CONTINUOUS
370
25
 62
     7
100
AcDbLine
 10
172.397353
 20
368.063643
 11
176.223047
 21
368.063643
  0
CIRCLE
  5
279
100
AcDbEntity
  8
M1
  6
CONTINUOUS
370
25
 62
     7
100
AcDbCircle
 10
174.742739
 20
369.951899
 40
0.85
  0
LINE
  5
27A
100
AcDbEntity
  8
M1
  6
CONTINUOUS
370
25
 62
     7
100
AcDbLine
 10
172.397353
 20
366.363643
 11
176.223047
 21
366.363643
  0
LINE
  5
27B
100
AcDbEntity
  8
M1
  6
CONTINUOUS
370
25
 62
     7
100
AcDbLine
 10
172.397353
 20
363.73097
 11
172.397353
 21
366.363643
  0
ARC
  5
27C
100
AcDbEntity
  8
M1
  6
CONTINUOUS
370
25
 62
     7
100
AcDbCircle
 10
173.397353
 20
363.73097
 40
1.0
100
AcDbArc
 50
180.0
 51
255.0
  0
LINE
  5
27D
100
AcDbEntity
  8
M1
  6
CONTINUOUS
370
25
 62
     7
100
AcDbLine
 10
176.07456
 20
361.978338
 11
173.138534
 21
362.765044
  0
CIRCLE
  5
27E
100
AcDbEntity
  8
M1
  6
CONTINUOUS
370
25
 62
     7
100
AcDbCircle
 10
174.742739
 20
364.475387
 40
0.85
  0
ARC
  5
27F
100
AcDbEntity
  8
M1
  6
CONTINUOUS
370
25
 62
     7
100
AcDbCircle
 10
175.815741
 20
361.012413
 40
1.0
100
AcDbArc
 50
40.750103
 51
75.0
  0
LINE
  5
280
100
AcDbEntity
  8
M1
  6
CONTINUOUS
370
25
 62
     7
100
AcDbLine
 10
359.725708
 20
377.617422
 11
360.725708
 21
377.617422
  0
LINE
  5
281
100
AcDbEntity
  8
M1
  6
CONTINUOUS
370
25
 62
     7
100
AcDbLine
 10
359.725708
 20
356.817422
 11
359.725708
 21
377.617422
  0
LINE
  5
282
100
AcDbEntity
  8
M1
  6
CONTINUOUS
370
25
 62
     7
100
AcDbLine
 10
354.225708
 20
374.717422
 11
359.725708
 21
374.717422
  0
LINE
  5
283
100
AcDbEntity
  8
M1
  6
CONTINUOUS
370
25
 62
     7
100
AcDbLine
 10
354.225708
 20
359.717422
 11
359.725708
 21
359.717422
  0
LINE
  5
284
100
AcDbEntity
  8
M1
  6
CONTINUOUS
370
25
 62
     7
100
AcDbLine
 10
359.725708
 20
356.817422
 11
360.725708
 21
356.817422
  0
TEXT
  5
285
100
AcDbEntity
  8
M2
100
AcDbText
 10
665.972656
 20
138.705322
 40
9.0
  1
ＰＯＢ－０．６
 41
0.713889
  7
STANDARD
100
AcDbText
  0
TEXT
  5
286
100
AcDbEntity
  8
M2
100
AcDbText
 10
175.337158
 20
253.540421
 40
9.0
  1
Ｄ１
 41
0.713889
  7
STANDARD
100
AcDbText
  0
TEXT
  5
287
100
AcDbEntity
  8
M2
100
AcDbText
 10
394.328156
 20
249.089417
 40
9.0
  1
Ｄ２
 41
0.713889
  7
STANDARD
100
AcDbText
  0
TEXT
  5
288
100
AcDbEntity
  8
M2
100
AcDbText
 10
583.943176
 20
253.540421
 40
9.0
  1
Ｄ３
 41
0.713889
  7
STANDARD
100
AcDbText
  0
TEXT
  5
289
100
AcDbEntity
  8
M2
100
AcDbText
 10
656.622742
 20
126.509789
 40
9.0
  1
（ＳＤＫ６１３２）
 41
0.713889
  7
STANDARD
100
AcDbText
  0
ENDSEC
  0
SECTION
  2
OBJECTS
  0
DICTIONARY
  5
C
100
AcDbDictionary
  3
ACAD_GROUP
350
D
  3
ACAD_MLINESTYLE
350
E
  0
DICTIONARY
  5
D
102
{ACAD_REACTORS
330
C
102
}
100
AcDbDictionary
  0
DICTIONARY
  5
E
102
{ACAD_REACTORS
330
C
102
}
100
AcDbDictionary
  3
STANDARD
350
13
  0
MLINESTYLE
  5
13
102
{ACAD_REACTORS
330
E
102
}
100
AcDbMlineStyle
  2
STANDARD
 70
     0
  3

 62
     0
 51
90.0
 52
90.0
 71
     2
 49
0.5
 62
   256
  6
BYLAYER
 49
-0.5
 62
   256
  6
BYLAYER
  0
ENDSEC
  0
EOF
