  0
SECTION
  2
HEADER
  9
$ACADVER
  1
AC1015
  9
$INSBASE
 10
0.0
 20
0.0
  9
$VIEWCTR
 10
7.531722
 20
4.5
  9
$VIEWSIZE
 40
9.0
  9
$SNAPMODE
 70
     0
  9
$SNAPUNIT
 10
1.0
 20
1.0
  9
$SNAPBASE
 10
0.0
 20
0.0
  9
$SNAPANG
 50
0.0
  9
$SNAPSTYLE
 70
     0
  9
$SNAPISOPAIR
 70
     0
  9
$GRIDMODE
 70
     0
  9
$GRIDUNIT
 10
0.0
 20
0.0
  9
$ORTHOMODE
 70
     0
  9
$REGENMODE
 70
     1
  9
$FILLMODE
 70
     1
  9
$QTEXTMODE
 70
     0
  9
$DRAGMODE
 70
     2
  9
$LTSCALE
 40
1.0
  9
$OSMODE
 70
     0
  9
$ATTMODE
 70
     1
  9
$TEXTSIZE
 40
0.2
  9
$TRACEWID
 40
0.05
  9
$TEXTSTYLE
  7
STANDARD
  9
$CELTYPE
  6
BYLAYER
  9
$CECOLOR
 62
   256
  9
$DIMSCALE
 40
1.0
  9
$DIMASZ
 40
0.18
  9
$DIMEXO
 40
0.0625
  9
$DIMDLI
 40
0.38
  9
$DIMRND
 40
0.0
  9
$DIMDLE
 40
0.0
  9
$DIMEXE
 40
0.18
  9
$DIMTP
 40
0.0
  9
$DIMTM
 40
0.0
  9
$DIMTXT
 40
0.18
  9
$DIMCEN
 40
0.09
  9
$DIMTSZ
 40
0.0
  9
$DIMADEC
 70
     0
  9
$DIMALTRND
 40
0.000000
  9
$DIMAZIN
 70
     0
  9
$DIMDSEP
 70
    46
  9
$DIMATFIT
 70
     3
  9
$DIMFRAC
 70
     0
  9
$DIMLDRBLK
  1

  9
$DIMLUNIT
 70
     2
  9
$DIMLWD
 70
   13
  9
$DIMLWE
 70
   13
  9
$DIMTMOVE
 70
     0
  9
$CELWEIGHT
370
    25
  9
$LWDISPLAY
290
    1
  9
$EXTNAMES
290
    1
  9
$DIMTOL
 70
     0
  9
$DIMLIM
 70
     0
  9
$DIMTIH
 70
     1
  9
$DIMTOH
 70
     1
  9
$DIMSE1
 70
     0
  9
$DIMSE2
 70
     0
  9
$DIMTAD
 70
     0
  9
$DIMZIN
 70
     0
  9
$DIMBLK
  1

  9
$LUNITS
 70
     2
  9
$LUPREC
 70
     4
  9
$AXISMODE
 70
     0
  9
$AXISUNIT
 10
0.0
 20
0.0
  9
$SKETCHINC
 40
0.1
  9
$FILLETRAD
 40
0.0
  9
$AUNITS
 70
     0
  9
$AUPREC
 70
     0
  9
$MENU
  1
ACAD
  9
$ELEVATION
 40
0.0
  9
$THICKNESS
 40
0.0
  9
$VIEWDIR
 10
0.0
 20
0.0
 30
1.0
  9
$LIMCHECK
 70
     0
  9
$BLIPMODE
 70
     1
  9
$CHAMFERA
 40
0.0
  9
$CHAMFERB
 40
0.0
  9
$FASTZOOM
 70
     1
  9
$SKPOLY
 70
     0
  9
$TDCREATE
 40
0000000.0000000000
  9
$TDUPDATE
 40
0000000.0000000000
  9
$TDINDWG
 40
0.0000000000
  9
$TDUSRTIMER
 40
0.0000000000
  9
$USRTIMER
 70
     1
  9
$ANGBASE
 50
0.0
  9
$ANGDIR
 70
     0
  9
$PDMODE
 70
     0
  9
$PDSIZE
 40
0.0
  9
$PLINEWID
 40
0.0
  9
$COORDS
 70
     0
  9
$USERI1
 70
     0
  9
$USERI2
 70
     0
  9
$USERI3
 70
     0
  9
$USERI4
 70
     0
  9
$USERI5
 70
     0
  9
$USERR1
 40
0.0
  9
$USERR2
 40
0.0
  9
$USERR3
 40
0.0
  9
$USERR4
 40
0.0
  9
$USERR5
 40
0.0
  9
$CLAYER
  8
M1
  9
$EXTMIN
 10
296.46393
 20
302.745097
  9
$EXTMAX
 10
1411.160671
 20
827.94492
  9
$LIMMIN
 10
0.0
 20
0.0
  9
$LIMMAX
 10
841.0
 20
594.0
  9
$HANDSEED
  5
2D4
  0
ENDSEC
  0
SECTION
  2
CLASSES
  0
ENDSEC
  0
SECTION
  2
TABLES
  0
TABLE
  2
VPORT
  5
8
100
AcDbSymbolTable
 70
     2
  0
VPORT
  5
14
100
AcDbSymbolTableRecord
100
AcDbViewportTableRecord
  2
*ACTIVE
 70
     0
 10
0.0
 20
0.0
 11
1.0
 21
1.0
 12
484.0
 22
297.0
 13
0.0
 23
0.0
 14
1.0
 24
1.0
 15
0.0
 25
0.0
 16
0.0
 26
0.0
 36
1.0
 17
0.0
 27
0.0
 37
0.0
 40
594.0
 41
2.0
 42
50.0
 43
0.0
 44
0.0
 50
0.0
 51
0.0
 71
     0
 72
   100
 73
     1
 74
     1
 75
     0
 76
     0
 77
     0
 78
     0
  0
ENDTAB
  0
TABLE
  2
LTYPE
  5
5
100
AcDbSymbolTable
 70
     5
  0
LTYPE
  5
15
100
AcDbSymbolTableRecord
100
AcDbLinetypeTableRecord
  2
BYBLOCK
 70
     0
  3

 72
    65
 73
     0
 40
0.0
  0
LTYPE
  5
16
100
AcDbSymbolTableRecord
100
AcDbLinetypeTableRecord
  2
BYLAYER
 70
     0
  3

 72
    65
 73
     0
 40
0.0
  0
LTYPE
  5
17
100
AcDbSymbolTableRecord
100
AcDbLinetypeTableRecord
  2
CONTINUOUS
 70
    64
  3
Solid line
 72
    65
 73
     0
 40
0.0
  0
LTYPE
  5
18
100
AcDbSymbolTableRecord
100
AcDbLinetypeTableRecord
  2
DASHED
 70
    64
  3
__ __ __ __ __ __ __ __ __ __ __ __ __ __ __ __
 72
    65
 73
     2
 40
0.75
 49
0.5
 74
     0
 49
-0.25
 74
     0
  0
LTYPE
  5
19
100
AcDbSymbolTableRecord
100
AcDbLinetypeTableRecord
  2
DASHDOT
 70
    64
  3
__ . __ . __ . __ . __ . __ . __ . __ . __ . __
 72
    65
 73
     4
 40
1.0
 49
0.5
 74
     0
 49
-0.25
 74
     0
 49
0.0
 74
     0
 49
-0.25
 74
     0
  0
LTYPE
  5
1A
100
AcDbSymbolTableRecord
100
AcDbLinetypeTableRecord
  2
DIVIDE
 70
    64
  3
____ . . ____ . . ____ . . ____ . . ____ . . __
 72
    65
 73
     6
 40
1.25
 49
0.5
 74
     0
 49
-0.25
 74
     0
 49
0.0
 74
     0
 49
-0.25
 74
     0
 49
0.0
 74
     0
 49
-0.25
 74
     0
  0
LTYPE
  5
1B
100
AcDbSymbolTableRecord
100
AcDbLinetypeTableRecord
  2
DOT
 70
    64
  3
. . . . . . . . . . . . . . . . . . . . . . . .
 72
    65
 73
     2
 40
0.25
 49
0.0
 74
     0
 49
-0.25
 74
     0
  0
ENDTAB
  0
TABLE
  2
LAYER
  5
2
100
AcDbSymbolTable
 70
   102
  0
LAYER
  5
F
100
AcDbSymbolTableRecord
100
AcDbLayerTableRecord
  2
0
 70
     0
 62
     7
  6
CONTINUOUS
370
     -3
390
F
  0
LAYER
  5
1C
100
AcDbSymbolTableRecord
100
AcDbLayerTableRecord
  2
M1
 70
     0
 62
     3
  6
CONTINUOUS
370
     -3
390
F
  0
ENDTAB
  0
TABLE
  2
STYLE
  5
3
100
AcDbSymbolTable
 70
     2
  0
STYLE
  5
10
100
AcDbSymbolTableRecord
100
AcDbTextStyleTableRecord
  2
STANDARD
 70
     0
 40
0.0
 41
1.0
 50
0.0
 71
     0
 42
0.2
  3
txt
  4
BIGFONT
  0
ENDTAB
  0
TABLE
  2
VIEW
  5
6
100
AcDbSymbolTable
 70
     0
  0
ENDTAB
  0
TABLE
  2
UCS
  5
7
100
AcDbSymbolTable
 70
     0
  0
ENDTAB
  0
TABLE
  2
APPID
  5
9
100
AcDbSymbolTable
 70
     1
  0
APPID
  5
11
100
AcDbSymbolTableRecord
100
AcDbRegAppTableRecord
  2
ACAD
 70
     0
  0
ENDTAB
  0
TABLE
  2
DIMSTYLE
  5
A
100
AcDbSymbolTable
 70
     2
100
AcDbDimStyleTable
 71
     1
  0
DIMSTYLE
105
23
100
AcDbSymbolTableRecord
100
AcDbDimStyleTableRecord
  2
STANDARD
 70
     0
  3

  4

  5

  6
_OPEN
  7
_OPEN
 40
1.0
 41
6.0
 42
0.5
 43
8.0
 44
1.5
 45
0.0
 46
0.0
 47
0.0
 48
0.0
140
6.3
141
0.09
142
0.0
143
0.03937
144
1.0
145
0.0
146
1.0
147
1.0
148
0.000000
 71
     0
 72
     0
 73
     0
 74
     0
 75
     0
 76
     0
 77
     3
 78
     8
170
     0
171
     2
172
     0
173
     1
174
     0
175
     0
176
     0
177
     0
178
     0
270
     2
271
     2
272
     4
273
     2
274
     2
340
10
275
     0
278
    46
280
     0
281
     0
282
     0
283
     1
284
     0
285
     0
286
     0
287
     3
288
     0
371
   13
372
   13
  0
DIMSTYLE
105
24
100
AcDbSymbolTableRecord
100
AcDbDimStyleTableRecord
  2
LEADSTYL
 70
     0
  3

  4

  5

  6
_OPEN
  7
_OPEN
 40
1.0
 41
6.0
 42
0.0625
 43
0.38
 44
0.18
 45
0.0
 46
0.0
 47
0.0
 48
0.0
140
6.3
141
0.09
142
0.0
143
25.4
144
1.0
145
0.0
146
1.0
147
1.0
 71
     0
 72
     0
 73
     1
 74
     1
 75
     0
 76
     0
 77
     0
 78
     0
170
     0
171
     2
172
     0
173
     1
174
     0
175
     0
176
     0
177
     0
178
     0
270
     2
271
     4
272
     4
273
     2
274
     2
340
10
275
     0
280
     0
281
     0
282
     0
283
     1
284
     0
285
     0
286
     0
287
     3
288
     0
  0
ENDTAB
  0
TABLE
  2
BLOCK_RECORD
  5
1
100
AcDbSymbolTable
 70
     6
  0
BLOCK_RECORD
  5
1D
100
AcDbSymbolTableRecord
100
AcDbBlockTableRecord
  2
*MODEL_SPACE
  0
BLOCK_RECORD
  5
20
100
AcDbSymbolTableRecord
100
AcDbBlockTableRecord
  2
*PAPER_SPACE
  0
BLOCK_RECORD
  5
25
100
AcDbSymbolTableRecord
100
AcDbBlockTableRecord
  2
_NONE
  0
BLOCK_RECORD
  5
29
100
AcDbSymbolTableRecord
100
AcDbBlockTableRecord
  2
_OPEN
  0
BLOCK_RECORD
  5
2F
100
AcDbSymbolTableRecord
100
AcDbBlockTableRecord
  2
_CLOSED
  0
BLOCK_RECORD
  5
36
100
AcDbSymbolTableRecord
100
AcDbBlockTableRecord
  2
_ORIGIN
  0
BLOCK_RECORD
  5
3B
100
AcDbSymbolTableRecord
100
AcDbBlockTableRecord
  2
_DOT
  0
BLOCK_RECORD
  5
43
100
AcDbSymbolTableRecord
100
AcDbBlockTableRecord
  2
_OBLIQUE
  0
ENDTAB
  0
ENDSEC
  0
SECTION
  2
BLOCKS
  0
BLOCK
  5
1E
100
AcDbEntity
  8
0
100
AcDbBlockBegin
  2
*MODEL_SPACE
 70
     0
 10
0.0
 20
0.0
 30
0.0
  3
*MODEL_SPACE
  1

  0
ENDBLK
  5
1F
100
AcDbEntity
  8
0
100
AcDbBlockEnd
  0
BLOCK
  5
21
100
AcDbEntity
 67
     1
  8
0
100
AcDbBlockBegin
  2
*PAPER_SPACE
 70
     0
 10
0.0
 20
0.0
 30
0.0
  3
*PAPER_SPACE
  1

  0
ENDBLK
  5
22
100
AcDbEntity
 67
     1
  8
0
100
AcDbBlockEnd
  0
BLOCK
  5
26
100
AcDbEntity
  8
0
100
AcDbBlockBegin
  2
_NONE
 70
     0
 10
0.0
 20
0.0
  0
CIRCLE
  5
27
100
AcDbEntity
  8
0
 62
     0
370
13
100
AcDbCircle
 10
0.0
 20
0.0
 40
0.25
  0
ENDBLK
  5
28
100
AcDbEntity
  8
0
100
AcDbBlockEnd
  0
BLOCK
  5
2A
100
AcDbEntity
  8
0
100
AcDbBlockBegin
  2
_OPEN
 70
     0
 10
0.0
 20
0.0
  0
LINE
  5
2B
100
AcDbEntity
  8
0
 62
     0
370
13
100
AcDbLine
 10
-0.965926
 20
0.258819
 11
0.0
 21
0.0
  0
LINE
  5
2C
100
AcDbEntity
  8
0
 62
     0
370
13
100
AcDbLine
 10
0.0
 20
0.0
 11
-0.965926
 21
-0.258819
  0
LINE
  5
2D
100
AcDbEntity
  8
0
 62
     0
370
13
100
AcDbLine
 10
0.0
 20
0.0
 11
-1.0
 21
0.0
  0
ENDBLK
  5
2E
100
AcDbEntity
  8
0
100
AcDbBlockEnd
  0
BLOCK
  5
30
100
AcDbEntity
  8
0
100
AcDbBlockBegin
  2
_CLOSED
 70
     0
 10
0.0
 20
0.0
  0
LINE
  5
31
100
AcDbEntity
  8
0
 62
     0
370
13
100
AcDbLine
 10
-0.965926
 20
0.258819
 11
0.0
 21
0.0
  0
LINE
  5
32
100
AcDbEntity
  8
0
 62
     0
370
13
100
AcDbLine
 10
0.0
 20
0.0
 11
-0.965926
 21
-0.258819
  0
LINE
  5
33
100
AcDbEntity
  8
0
 62
     0
370
13
100
AcDbLine
 10
-0.965926
 20
0.258819
 11
-0.965926
 21
-0.258819
  0
LINE
  5
34
100
AcDbEntity
  8
0
 62
     0
370
13
100
AcDbLine
 10
0.0
 20
0.0
 11
-1.0
 21
0.0
  0
ENDBLK
  5
35
100
AcDbEntity
  8
0
100
AcDbBlockEnd
  0
BLOCK
  5
37
100
AcDbEntity
  8
0
100
AcDbBlockBegin
  2
_ORIGIN
 70
     0
 10
0.0
 20
0.0
  0
CIRCLE
  5
38
100
AcDbEntity
  8
0
 62
     0
370
13
100
AcDbCircle
 10
0.0
 20
0.0
 40
0.5
  0
LINE
  5
39
100
AcDbEntity
  8
0
 62
     0
370
13
100
AcDbLine
 10
0.0
 20
0.0
 11
-1.0
 21
0.0
  0
ENDBLK
  5
3A
100
AcDbEntity
  8
0
100
AcDbBlockEnd
  0
BLOCK
  5
3C
100
AcDbEntity
  8
0
100
AcDbBlockBegin
  2
_DOT
 70
     0
 10
0.0
 20
0.0
  0
POLYLINE
  5
3D
100
AcDbEntity
  8
0
 62
     0
100
AcDb2dPolyline
 66
     1
 70
     1
 40
0.5
 41
0.5
  0
VERTEX
  5
3E
100
AcDbEntity
  8
0
 62
     0
100
AcDbVertex
100
AcDb2dVertex
 10
-0.25
 20
0.0
 42
1.0
  0
VERTEX
  5
3F
100
AcDbEntity
  8
0
 62
     0
100
AcDbVertex
100
AcDb2dVertex
 10
0.25
 20
0.0
 42
1.0
  0
SEQEND
  5
40
100
AcDbEntity
  8
0
 62
     0
  0
LINE
  5
41
100
AcDbEntity
  8
0
 62
     0
370
13
100
AcDbLine
 10
-0.5
 20
0.0
 11
-1.0
 21
0.0
  0
ENDBLK
  5
42
100
AcDbEntity
  8
0
100
AcDbBlockEnd
  0
BLOCK
  5
44
100
AcDbEntity
  8
0
100
AcDbBlockBegin
  2
_OBLIQUE
 70
     0
 10
0.0
 20
0.0
  0
LINE
  5
45
100
AcDbEntity
  8
0
 62
     0
370
13
100
AcDbLine
 10
-0.353553
 20
-0.353553
 11
0.353553
 21
0.353553
  0
ENDBLK
  5
46
100
AcDbEntity
  8
0
100
AcDbBlockEnd
  0
ENDSEC
  0
SECTION
  2
ENTITIES
  0
LINE
  5
47
100
AcDbEntity
  8
M1
  6
CONTINUOUS
370
13
 62
     7
100
AcDbLine
 10
1275.577898
 20
650.433262
 11
1249.917406
 21
650.433262
  0
LINE
  5
48
100
AcDbEntity
  8
M1
  6
CONTINUOUS
370
25
 62
     7
100
AcDbLine
 10
792.73308
 20
699.433262
 11
792.73308
 21
650.433262
  0
LINE
  5
49
100
AcDbEntity
  8
M1
  6
CONTINUOUS
370
25
 62
     7
100
AcDbLine
 10
817.73308
 20
700.433262
 11
793.73308
 21
700.433262
  0
LINE
  5
4A
100
AcDbEntity
  8
M1
  6
CONTINUOUS
370
25
 62
     7
100
AcDbLine
 10
817.73308
 20
730.433262
 11
817.73308
 21
650.433262
  0
LINE
  5
4B
100
AcDbEntity
  8
M1
  6
CONTINUOUS
370
25
 62
     7
100
AcDbLine
 10
824.73308
 20
730.433262
 11
817.73308
 21
730.433262
  0
LINE
  5
4C
100
AcDbEntity
  8
M1
  6
CONTINUOUS
370
25
 62
     7
100
AcDbLine
 10
854.163804
 20
778.433262
 11
834.73308
 21
778.433262
  0
LINE
  5
4D
100
AcDbEntity
  8
M1
  6
CONTINUOUS
370
25
 62
     7
100
AcDbLine
 10
832.73308
 20
776.433262
 11
832.73308
 21
650.433262
  0
LINE
  5
4E
100
AcDbEntity
  8
M1
  6
CONTINUOUS
370
25
 62
     7
100
AcDbLine
 10
793.733384
 20
700.433048
 11
792.733384
 21
699.432956
  0
LINE
  5
4F
100
AcDbEntity
  8
M1
  6
CONTINUOUS
370
25
 62
     7
100
AcDbLine
 10
854.23308
 20
793.433262
 11
854.23308
 21
650.433262
  0
LINE
  5
50
100
AcDbEntity
  8
M1
  6
CONTINUOUS
370
25
 62
     7
100
AcDbLine
 10
856.233384
 20
795.432834
 11
854.233384
 21
793.432742
  0
LINE
  5
51
100
AcDbEntity
  8
M1
  6
CONTINUOUS
370
25
 62
     7
100
AcDbLine
 10
889.48308
 20
795.433262
 11
856.23308
 21
795.433262
  0
LINE
  5
52
100
AcDbEntity
  8
M1
  6
CONTINUOUS
370
25
 62
     7
100
AcDbLine
 10
887.98308
 20
795.433262
 11
921.23308
 21
795.433262
  0
LINE
  5
53
100
AcDbEntity
  8
M1
  6
CONTINUOUS
370
25
 62
     7
100
AcDbLine
 10
921.23308
 20
795.433262
 11
923.233018
 21
793.433262
  0
LINE
  5
54
100
AcDbEntity
  8
M1
  6
CONTINUOUS
370
25
 62
     7
100
AcDbLine
 10
923.23308
 20
793.433262
 11
923.23308
 21
650.433262
  0
LINE
  5
55
100
AcDbEntity
  8
M1
  6
CONTINUOUS
370
25
 62
     7
100
AcDbLine
 10
825.23308
 20
714.233158
 11
825.23308
 21
701.633334
  0
LINE
  5
56
100
AcDbEntity
  8
M1
  6
CONTINUOUS
370
25
 62
     7
100
AcDbLine
 10
830.73308
 20
715.633244
 11
830.73308
 21
700.23325
  0
LINE
  5
57
100
AcDbEntity
  8
M1
  6
CONTINUOUS
370
25
 62
     7
100
AcDbLine
 10
830.73308
 20
700.23325
 11
832.73308
 21
700.23325
  0
LINE
  5
58
100
AcDbEntity
  8
M1
  6
CONTINUOUS
370
25
 62
     7
100
AcDbLine
 10
830.73308
 20
715.633244
 11
832.73308
 21
715.633244
  0
LINE
  5
59
100
AcDbEntity
  8
M1
  6
CONTINUOUS
370
25
 62
     7
100
AcDbLine
 10
830.733384
 20
708.514346
 11
832.733384
 21
710.514346
  0
LINE
  5
5A
100
AcDbEntity
  8
M1
  6
CONTINUOUS
370
25
 62
     7
100
AcDbLine
 10
830.733384
 20
705.685856
 11
832.733506
 21
707.685856
  0
LINE
  5
5B
100
AcDbEntity
  8
M1
  6
CONTINUOUS
370
25
 62
     7
100
AcDbLine
 10
825.926012
 20
711.933262
 11
830.73308
 21
711.933262
  0
LINE
  5
5C
100
AcDbEntity
  8
M1
  6
CONTINUOUS
370
25
 62
     7
100
AcDbLine
 10
825.926012
 20
703.933262
 11
830.73308
 21
703.933262
  0
LINE
  5
5D
100
AcDbEntity
  8
M1
  6
CONTINUOUS
370
25
 62
     7
100
AcDbLine
 10
825.926012
 20
700.433262
 11
830.73308
 21
700.433262
  0
LINE
  5
5E
100
AcDbEntity
  8
M1
  6
CONTINUOUS
370
25
 62
     7
100
AcDbLine
 10
825.926012
 20
715.433262
 11
830.73308
 21
715.433262
  0
LINE
  5
5F
100
AcDbEntity
  8
M1
  6
CONTINUOUS
370
25
 62
     7
100
AcDbLine
 10
825.23259
 20
714.233462
 11
825.925402
 21
715.433536
  0
LINE
  5
60
100
AcDbEntity
  8
M1
  6
CONTINUOUS
370
25
 62
     7
100
AcDbLine
 10
825.23308
 20
701.633548
 11
825.92589
 21
700.433444
  0
LINE
  5
61
100
AcDbEntity
  8
M1
  6
CONTINUOUS
370
25
 62
     7
100
AcDbLine
 10
854.23308
 20
781.295352
 11
849.415086
 21
781.295352
  0
LINE
  5
62
100
AcDbEntity
  8
M1
  6
CONTINUOUS
370
25
 62
     7
100
AcDbLine
 10
854.23308
 20
784.067234
 11
849.877184
 21
784.067234
  0
LINE
  5
63
100
AcDbEntity
  8
M1
  6
CONTINUOUS
370
25
 62
     7
100
AcDbLine
 10
848.38817
 20
785.708256
 11
848.38817
 21
796.18726
  0
LINE
  5
64
100
AcDbEntity
  8
M1
  6
CONTINUOUS
370
25
 62
     7
100
AcDbLine
 10
845.589098
 20
785.013248
 11
845.589098
 21
798.059238
  0
LINE
  5
65
100
AcDbEntity
  8
M1
  6
CONTINUOUS
370
25
 62
     7
100
AcDbLine
 10
845.588976
 20
798.05936
 11
848.387986
 21
796.18735
  0
LINE
  5
66
100
AcDbEntity
  8
M1
  6
CONTINUOUS
370
25
 62
     7
100
AcDbLine
 10
845.590012
 20
801.733462
 11
848.389086
 21
799.690556
  0
LINE
  5
67
100
AcDbEntity
  8
M1
  6
CONTINUOUS
370
25
 62
     7
100
AcDbLine
 10
845.589098
 20
801.732242
 11
845.589098
 21
812.196324
  0
LINE
  5
68
100
AcDbEntity
  8
M1
  6
CONTINUOUS
370
25
 62
     7
100
AcDbLine
 10
848.38817
 20
799.689244
 11
848.38817
 21
812.196324
  0
LINE
  5
69
100
AcDbEntity
  8
M1
  6
CONTINUOUS
370
25
 62
     7
100
AcDbLine
 10
852.58928
 20
823.182468
 11
853.989426
 21
820.75742
  0
LINE
  5
6A
100
AcDbEntity
  8
M1
  6
CONTINUOUS
370
25
 62
     7
100
AcDbLine
 10
853.28917
 20
821.971042
 11
859.351122
 21
825.470066
  0
LINE
  5
6B
100
AcDbEntity
  8
M1
  6
CONTINUOUS
370
25
 62
     7
100
AcDbLine
 10
841.388414
 20
823.181918
 11
839.989488
 21
820.756932
  0
LINE
  5
6C
100
AcDbEntity
  8
M1
  6
CONTINUOUS
370
25
 62
     7
100
AcDbLine
 10
840.689684
 20
821.971652
 11
834.627672
 21
825.470676
  0
LINE
  5
6D
100
AcDbEntity
  8
M1
  6
CONTINUOUS
370
25
 62
     7
100
AcDbLine
 10
714.73308
 20
665.433262
 11
714.73308
 21
650.433262
  0
LINE
  5
6E
100
AcDbEntity
  8
M1
  6
CONTINUOUS
370
25
 62
     7
100
AcDbLine
 10
770.73308
 20
653.933262
 11
770.73308
 21
650.433262
  0
LINE
  5
6F
100
AcDbEntity
  8
M1
  6
CONTINUOUS
370
25
 62
     7
100
AcDbLine
 10
781.73308
 20
666.433262
 11
781.73308
 21
650.433262
  0
LINE
  5
70
100
AcDbEntity
  8
M1
  6
CONTINUOUS
370
25
 62
     7
100
AcDbLine
 10
781.73308
 20
665.433262
 11
714.73308
 21
665.433262
  0
LINE
  5
71
100
AcDbEntity
  8
M1
  6
CONTINUOUS
370
25
 62
     7
100
AcDbLine
 10
770.73308
 20
653.933262
 11
714.73308
 21
653.933262
  0
LINE
  5
72
100
AcDbEntity
  8
M1
  6
CONTINUOUS
370
25
 62
     7
100
AcDbLine
 10
787.685778
 20
685.014256
 11
789.685778
 21
685.014256
  0
LINE
  5
73
100
AcDbEntity
  8
M1
  6
CONTINUOUS
370
25
 62
     7
100
AcDbLine
 10
787.685778
 20
685.014256
 11
787.685778
 21
650.433262
  0
LINE
  5
74
100
AcDbEntity
  8
M1
  6
CONTINUOUS
370
25
 62
     7
100
AcDbLine
 10
782.73308
 20
679.326236
 11
787.685778
 21
679.326236
  0
LINE
  5
75
100
AcDbEntity
  8
M1
  6
CONTINUOUS
370
25
 62
     7
100
AcDbLine
 10
789.685594
 20
685.014164
 11
792.732896
 21
678.479252
  0
LINE
  5
76
100
AcDbEntity
  8
M1
  6
CONTINUOUS
370
25
 62
     7
100
AcDbLine
 10
792.73308
 20
601.433262
 11
792.73308
 21
650.433262
  0
LINE
  5
77
100
AcDbEntity
  8
M1
  6
CONTINUOUS
370
25
 62
     7
100
AcDbLine
 10
817.73308
 20
600.433262
 11
793.73308
 21
600.433262
  0
LINE
  5
78
100
AcDbEntity
  8
M1
  6
CONTINUOUS
370
25
 62
     7
100
AcDbLine
 10
817.73308
 20
570.433262
 11
817.73308
 21
650.433262
  0
LINE
  5
79
100
AcDbEntity
  8
M1
  6
CONTINUOUS
370
25
 62
     7
100
AcDbLine
 10
824.73308
 20
570.433262
 11
817.73308
 21
570.433262
  0
LINE
  5
7A
100
AcDbEntity
  8
M1
  6
CONTINUOUS
370
25
 62
     7
100
AcDbLine
 10
854.163804
 20
522.433246
 11
834.73308
 21
522.433246
  0
LINE
  5
7B
100
AcDbEntity
  8
M1
  6
CONTINUOUS
370
25
 62
     7
100
AcDbLine
 10
832.73308
 20
524.433246
 11
832.73308
 21
650.433262
  0
LINE
  5
7C
100
AcDbEntity
  8
M1
  6
CONTINUOUS
370
25
 62
     7
100
AcDbLine
 10
793.733018
 20
600.43314
 11
792.732896
 21
601.43314
  0
LINE
  5
7D
100
AcDbEntity
  8
M1
  6
CONTINUOUS
370
25
 62
     7
100
AcDbLine
 10
854.23308
 20
507.433246
 11
854.23308
 21
650.433262
  0
LINE
  5
7E
100
AcDbEntity
  8
M1
  6
CONTINUOUS
370
25
 62
     7
100
AcDbLine
 10
856.233384
 20
505.433644
 11
854.233384
 21
507.433644
  0
LINE
  5
7F
100
AcDbEntity
  8
M1
  6
CONTINUOUS
370
25
 62
     7
100
AcDbLine
 10
889.48308
 20
505.433246
 11
856.23308
 21
505.433246
  0
LINE
  5
80
100
AcDbEntity
  8
M1
  6
CONTINUOUS
370
25
 62
     7
100
AcDbLine
 10
887.98308
 20
505.433246
 11
921.23308
 21
505.433246
  0
LINE
  5
81
100
AcDbEntity
  8
M1
  6
CONTINUOUS
370
25
 62
     7
100
AcDbLine
 10
921.233812
 20
505.432742
 11
923.23369
 21
507.432742
  0
LINE
  5
82
100
AcDbEntity
  8
M1
  6
CONTINUOUS
370
25
 62
     7
100
AcDbLine
 10
923.23308
 20
507.433246
 11
923.23308
 21
650.433262
  0
LINE
  5
83
100
AcDbEntity
  8
M1
  6
CONTINUOUS
370
25
 62
     7
100
AcDbLine
 10
825.23308
 20
529.13335
 11
825.23308
 21
541.733142
  0
LINE
  5
84
100
AcDbEntity
  8
M1
  6
CONTINUOUS
370
25
 62
     7
100
AcDbLine
 10
830.73308
 20
527.73325
 11
830.73308
 21
543.133244
  0
LINE
  5
85
100
AcDbEntity
  8
M1
  6
CONTINUOUS
370
25
 62
     7
100
AcDbLine
 10
830.73308
 20
543.133244
 11
832.73308
 21
543.133244
  0
LINE
  5
86
100
AcDbEntity
  8
M1
  6
CONTINUOUS
370
25
 62
     7
100
AcDbLine
 10
830.73308
 20
527.73325
 11
832.73308
 21
527.73325
  0
LINE
  5
87
100
AcDbEntity
  8
M1
  6
CONTINUOUS
370
25
 62
     7
100
AcDbLine
 10
825.926012
 20
531.433246
 11
830.73308
 21
531.433246
  0
LINE
  5
88
100
AcDbEntity
  8
M1
  6
CONTINUOUS
370
25
 62
     7
100
AcDbLine
 10
825.926012
 20
539.433246
 11
830.73308
 21
539.433246
  0
LINE
  5
89
100
AcDbEntity
  8
M1
  6
CONTINUOUS
370
25
 62
     7
100
AcDbLine
 10
825.926012
 20
542.933246
 11
830.73308
 21
542.933246
  0
LINE
  5
8A
100
AcDbEntity
  8
M1
  6
CONTINUOUS
370
25
 62
     7
100
AcDbLine
 10
825.926012
 20
527.933246
 11
830.73308
 21
527.933246
  0
LINE
  5
8B
100
AcDbEntity
  8
M1
  6
CONTINUOUS
370
25
 62
     7
100
AcDbLine
 10
825.232714
 20
529.133044
 11
825.925524
 21
527.932942
  0
LINE
  5
8C
100
AcDbEntity
  8
M1
  6
CONTINUOUS
370
25
 62
     7
100
AcDbLine
 10
825.233628
 20
541.732654
 11
825.926378
 21
542.93285
  0
LINE
  5
8D
100
AcDbEntity
  8
M1
  6
CONTINUOUS
370
25
 62
     7
100
AcDbLine
 10
714.73308
 20
635.433262
 11
714.73308
 21
650.433262
  0
LINE
  5
8E
100
AcDbEntity
  8
M1
  6
CONTINUOUS
370
25
 62
     7
100
AcDbLine
 10
770.73308
 20
646.933262
 11
770.73308
 21
650.433262
  0
LINE
  5
8F
100
AcDbEntity
  8
M1
  6
CONTINUOUS
370
25
 62
     7
100
AcDbLine
 10
781.73308
 20
634.433262
 11
781.73308
 21
650.433262
  0
LINE
  5
90
100
AcDbEntity
  8
M1
  6
CONTINUOUS
370
25
 62
     7
100
AcDbLine
 10
781.73308
 20
635.433262
 11
714.73308
 21
635.433262
  0
LINE
  5
91
100
AcDbEntity
  8
M1
  6
CONTINUOUS
370
25
 62
     7
100
AcDbLine
 10
770.73308
 20
646.933262
 11
714.73308
 21
646.933262
  0
LINE
  5
92
100
AcDbEntity
  8
M1
  6
CONTINUOUS
370
25
 62
     7
100
AcDbLine
 10
787.685778
 20
615.852238
 11
789.685778
 21
615.852238
  0
LINE
  5
93
100
AcDbEntity
  8
M1
  6
CONTINUOUS
370
25
 62
     7
100
AcDbLine
 10
787.685778
 20
615.852238
 11
787.685778
 21
650.433262
  0
LINE
  5
94
100
AcDbEntity
  8
M1
  6
CONTINUOUS
370
25
 62
     7
100
AcDbLine
 10
782.73308
 20
621.540256
 11
787.685778
 21
621.540256
  0
LINE
  5
95
100
AcDbEntity
  8
M1
  6
CONTINUOUS
370
25
 62
     7
100
AcDbLine
 10
789.685778
 20
615.852238
 11
792.73308
 21
622.38715
  0
LINE
  5
96
100
AcDbEntity
  8
M1
  6
CONTINUOUS
370
25
 62
     7
100
AcDbLine
 10
459.46379
 20
646.933262
 11
452.46379
 21
646.933262
  0
LINE
  5
97
100
AcDbEntity
  8
M1
  6
CONTINUOUS
370
25
 62
     7
100
AcDbLine
 10
459.46379
 20
653.933262
 11
452.46379
 21
653.933262
  0
LINE
  5
98
100
AcDbEntity
  8
M1
  6
CONTINUOUS
370
25
 62
     7
100
AcDbLine
 10
452.463912
 20
653.933354
 11
452.463912
 21
646.933354
  0
LINE
  5
99
100
AcDbEntity
  8
M1
  6
CONTINUOUS
370
25
 62
     7
100
AcDbLine
 10
459.463912
 20
653.933354
 11
459.463912
 21
646.933354
  0
LINE
  5
9A
100
AcDbEntity
  8
M1
  6
CONTINUOUS
370
13
 62
     7
100
AcDbLine
 10
447.879624
 20
650.433262
 11
434.154528
 21
650.433262
  0
LINE
  5
9B
100
AcDbEntity
  8
M1
  6
CONTINUOUS
370
13
 62
     7
100
AcDbLine
 10
969.869096
 20
650.433262
 11
942.947496
 21
650.433262
  0
LINE
  5
9C
100
AcDbEntity
  8
M1
  6
CONTINUOUS
370
13
 62
     7
100
AcDbLine
 10
441.463914
 20
728.19556
 11
441.463914
 21
710.29285
  0
LINE
  5
9D
100
AcDbEntity
  8
M1
  6
CONTINUOUS
370
25
 62
     7
100
AcDbLine
 10
505.783312
 20
767.435458
 11
519.227526
 21
790.720646
  0
LINE
  5
9E
100
AcDbEntity
  8
M1
  6
CONTINUOUS
370
25
 62
     7
100
AcDbLine
 10
510.653612
 20
764.669438
 11
523.574204
 21
787.048556
  0
LINE
  5
9F
100
AcDbEntity
  8
M1
  6
CONTINUOUS
370
25
 62
     7
100
AcDbLine
 10
519.228318
 20
790.722934
 11
523.574388
 21
787.050938
  0
LINE
  5
A0
100
AcDbEntity
  8
M1
  6
CONTINUOUS
370
25
 62
     7
100
AcDbLine
 10
521.28502
 20
794.285342
 11
525.49193
 21
790.373356
  0
LINE
  5
A1
100
AcDbEntity
  8
M1
  6
CONTINUOUS
370
25
 62
     7
100
AcDbLine
 10
521.283616
 20
794.284336
 11
530.346482
 21
809.98325
  0
LINE
  5
A2
100
AcDbEntity
  8
M1
  6
CONTINUOUS
370
25
 62
     7
100
AcDbLine
 10
525.49193
 20
790.372256
 11
535.197924
 21
807.183354
  0
LINE
  5
A3
100
AcDbEntity
  8
M1
  6
CONTINUOUS
370
25
 62
     7
100
AcDbLine
 10
531.55797
 20
821.882176
 11
528.05797
 21
827.944064
  0
LINE
  5
A4
100
AcDbEntity
  8
M1
  6
CONTINUOUS
370
25
 62
     7
100
AcDbLine
 10
532.771288
 20
822.58353
 11
530.346422
 21
821.183566
  0
LINE
  5
A5
100
AcDbEntity
  8
M1
  6
CONTINUOUS
370
25
 62
     7
100
AcDbLine
 10
532.77147
 20
808.583134
 11
523.3864
 21
792.32825
  0
LINE
  5
A6
100
AcDbEntity
  8
M1
  6
CONTINUOUS
370
25
 62
     7
100
AcDbLine
 10
521.399706
 20
788.88486
 11
508.25023
 21
766.109134
  0
LINE
  5
A7
100
AcDbEntity
  8
M1
  6
CONTINUOUS
370
25
 62
     7
100
AcDbLine
 10
544.897324
 20
814.183566
 11
551.897324
 21
814.18253
  0
LINE
  5
A8
100
AcDbEntity
  8
M1
  6
CONTINUOUS
370
25
 62
     7
100
AcDbLine
 10
544.895676
 20
815.583348
 11
544.896714
 21
812.78336
  0
LINE
  5
A9
100
AcDbEntity
  8
M1
  6
CONTINUOUS
370
25
 62
     7
100
AcDbLine
 10
534.56212
 20
711.68906
 11
534.56212
 21
704.183354
  0
LINE
  5
AA
100
AcDbEntity
  8
M1
  6
CONTINUOUS
370
25
 62
     7
100
AcDbLine
 10
541.051682
 20
715.436344
 11
534.561326
 21
711.689152
  0
LINE
  5
AB
100
AcDbEntity
  8
M1
  6
CONTINUOUS
370
25
 62
     7
100
AcDbLine
 10
541.052172
 20
715.43616
 11
547.552294
 21
711.683354
  0
LINE
  5
AC
100
AcDbEntity
  8
M1
  6
CONTINUOUS
370
25
 62
     7
100
AcDbLine
 10
547.552598
 20
704.177554
 11
547.552598
 21
711.68314
  0
LINE
  5
AD
100
AcDbEntity
  8
M1
  6
CONTINUOUS
370
25
 62
     7
100
AcDbLine
 10
547.551622
 20
704.177952
 11
541.061326
 21
700.43076
  0
LINE
  5
AE
100
AcDbEntity
  8
M1
  6
CONTINUOUS
370
25
 62
     7
100
AcDbLine
 10
541.060594
 20
700.42905
 11
534.560472
 21
704.18195
  0
LINE
  5
AF
100
AcDbEntity
  8
M1
  6
CONTINUOUS
370
25
 62
     7
100
AcDbLine
 10
434.963486
 20
761.686436
 11
441.46367
 21
757.933658
  0
LINE
  5
B0
100
AcDbEntity
  8
M1
  6
CONTINUOUS
370
25
 62
     7
100
AcDbLine
 10
434.963486
 20
769.180454
 11
434.963486
 21
761.686038
  0
LINE
  5
B1
100
AcDbEntity
  8
M1
  6
CONTINUOUS
370
25
 62
     7
100
AcDbLine
 10
434.963486
 20
769.181338
 11
441.463792
 21
772.934146
  0
LINE
  5
B2
100
AcDbEntity
  8
M1
  6
CONTINUOUS
370
25
 62
     7
100
AcDbLine
 10
447.963792
 20
769.18085
 11
441.46367
 21
772.933658
  0
LINE
  5
B3
100
AcDbEntity
  8
M1
  6
CONTINUOUS
370
25
 62
     7
100
AcDbLine
 10
447.963914
 20
769.180546
 11
447.963914
 21
761.686038
  0
LINE
  5
B4
100
AcDbEntity
  8
M1
  6
CONTINUOUS
370
25
 62
     7
100
AcDbLine
 10
447.96483
 20
761.684452
 11
441.464708
 21
757.931644
  0
LINE
  5
B5
100
AcDbEntity
  8
M1
  6
CONTINUOUS
370
25
 62
     7
100
AcDbLine
 10
341.866442
 20
700.429538
 11
348.366442
 21
704.182346
  0
LINE
  5
B6
100
AcDbEntity
  8
M1
  6
CONTINUOUS
370
25
 62
     7
100
AcDbLine
 10
335.375474
 20
704.177646
 11
341.865464
 21
700.430454
  0
LINE
  5
B7
100
AcDbEntity
  8
M1
  6
CONTINUOUS
370
25
 62
     7
100
AcDbLine
 10
335.375474
 20
704.178044
 11
335.375474
 21
711.683658
  0
LINE
  5
B8
100
AcDbEntity
  8
M1
  6
CONTINUOUS
370
25
 62
     7
100
AcDbLine
 10
341.87645
 20
715.435154
 11
335.37645
 21
711.682346
  0
LINE
  5
B9
100
AcDbEntity
  8
M1
  6
CONTINUOUS
370
25
 62
     7
100
AcDbLine
 10
341.875474
 20
715.435948
 11
348.365464
 21
711.688754
  0
LINE
  5
BA
100
AcDbEntity
  8
M1
  6
CONTINUOUS
370
25
 62
     7
100
AcDbLine
 10
348.36754
 20
711.688846
 11
348.36754
 21
704.183262
  0
LINE
  5
BB
100
AcDbEntity
  8
M1
  6
CONTINUOUS
370
25
 62
     7
100
AcDbLine
 10
348.365464
 20
589.177554
 11
348.365464
 21
596.683262
  0
LINE
  5
BC
100
AcDbEntity
  8
M1
  6
CONTINUOUS
370
25
 62
     7
100
AcDbLine
 10
341.875474
 20
585.431338
 11
348.365464
 21
589.178562
  0
LINE
  5
BD
100
AcDbEntity
  8
M1
  6
CONTINUOUS
370
25
 62
     7
100
AcDbLine
 10
341.875474
 20
585.43024
 11
335.374498
 21
589.183048
  0
LINE
  5
BE
100
AcDbEntity
  8
M1
  6
CONTINUOUS
370
25
 62
     7
100
AcDbLine
 10
335.375474
 20
596.688938
 11
335.375474
 21
589.183354
  0
LINE
  5
BF
100
AcDbEntity
  8
M1
  6
CONTINUOUS
370
25
 62
     7
100
AcDbLine
 10
335.375474
 20
596.689762
 11
341.865464
 21
600.436954
  0
LINE
  5
C0
100
AcDbEntity
  8
M1
  6
CONTINUOUS
370
25
 62
     7
100
AcDbLine
 10
341.866442
 20
600.43726
 11
348.366442
 21
596.684452
  0
LINE
  5
C1
100
AcDbEntity
  8
M1
  6
CONTINUOUS
370
25
 62
     7
100
AcDbLine
 10
447.96367
 20
539.17995
 11
441.46361
 21
542.932742
  0
LINE
  5
C2
100
AcDbEntity
  8
M1
  6
CONTINUOUS
370
25
 62
     7
100
AcDbLine
 10
447.963976
 20
531.686146
 11
447.963976
 21
539.180546
  0
LINE
  5
C3
100
AcDbEntity
  8
M1
  6
CONTINUOUS
370
25
 62
     7
100
AcDbLine
 10
447.963304
 20
531.68645
 11
441.463182
 21
527.933644
  0
LINE
  5
C4
100
AcDbEntity
  8
M1
  6
CONTINUOUS
370
25
 62
     7
100
AcDbLine
 10
434.963486
 20
531.685748
 11
441.463426
 21
527.93285
  0
LINE
  5
C5
100
AcDbEntity
  8
M1
  6
CONTINUOUS
370
25
 62
     7
100
AcDbLine
 10
434.963486
 20
531.686146
 11
434.963486
 21
539.180546
  0
LINE
  5
C6
100
AcDbEntity
  8
M1
  6
CONTINUOUS
370
25
 62
     7
100
AcDbLine
 10
434.96251
 20
539.182544
 11
441.462816
 21
542.935352
  0
LINE
  5
C7
100
AcDbEntity
  8
M1
  6
CONTINUOUS
370
25
 62
     7
100
AcDbLine
 10
541.06157
 20
600.43665
 11
534.56151
 21
596.683842
  0
LINE
  5
C8
100
AcDbEntity
  8
M1
  6
CONTINUOUS
370
25
 62
     7
100
AcDbLine
 10
547.551988
 20
596.688754
 11
541.06157
 21
600.435948
  0
LINE
  5
C9
100
AcDbEntity
  8
M1
  6
CONTINUOUS
370
25
 62
     7
100
AcDbLine
 10
547.552598
 20
596.688542
 11
547.552598
 21
589.182956
  0
LINE
  5
CA
100
AcDbEntity
  8
M1
  6
CONTINUOUS
370
25
 62
     7
100
AcDbLine
 10
541.051622
 20
585.430942
 11
547.551622
 21
589.18375
  0
LINE
  5
CB
100
AcDbEntity
  8
M1
  6
CONTINUOUS
370
25
 62
     7
100
AcDbLine
 10
541.051988
 20
585.430454
 11
534.56157
 21
589.177646
  0
LINE
  5
CC
100
AcDbEntity
  8
M1
  6
CONTINUOUS
370
25
 62
     7
100
AcDbLine
 10
534.560288
 20
589.177738
 11
534.560288
 21
596.683354
  0
LINE
  5
CD
100
AcDbEntity
  8
M1
  6
CONTINUOUS
370
25
 62
     7
100
AcDbLine
 10
825.23308
 20
771.733158
 11
825.23308
 21
759.133334
  0
LINE
  5
CE
100
AcDbEntity
  8
M1
  6
CONTINUOUS
370
25
 62
     7
100
AcDbLine
 10
830.73308
 20
773.133244
 11
830.73308
 21
757.73325
  0
LINE
  5
CF
100
AcDbEntity
  8
M1
  6
CONTINUOUS
370
25
 62
     7
100
AcDbLine
 10
830.73308
 20
757.73325
 11
832.73308
 21
757.73325
  0
LINE
  5
D0
100
AcDbEntity
  8
M1
  6
CONTINUOUS
370
25
 62
     7
100
AcDbLine
 10
830.73308
 20
773.133244
 11
832.73308
 21
773.133244
  0
LINE
  5
D1
100
AcDbEntity
  8
M1
  6
CONTINUOUS
370
25
 62
     7
100
AcDbLine
 10
830.733628
 20
766.014256
 11
832.733628
 21
768.014256
  0
LINE
  5
D2
100
AcDbEntity
  8
M1
  6
CONTINUOUS
370
25
 62
     7
100
AcDbLine
 10
830.733628
 20
763.185642
 11
832.733812
 21
765.185642
  0
LINE
  5
D3
100
AcDbEntity
  8
M1
  6
CONTINUOUS
370
25
 62
     7
100
AcDbLine
 10
825.926012
 20
769.433262
 11
830.73308
 21
769.433262
  0
LINE
  5
D4
100
AcDbEntity
  8
M1
  6
CONTINUOUS
370
25
 62
     7
100
AcDbLine
 10
825.926012
 20
761.433262
 11
830.73308
 21
761.433262
  0
LINE
  5
D5
100
AcDbEntity
  8
M1
  6
CONTINUOUS
370
25
 62
     7
100
AcDbLine
 10
825.926012
 20
757.933262
 11
830.73308
 21
757.933262
  0
LINE
  5
D6
100
AcDbEntity
  8
M1
  6
CONTINUOUS
370
25
 62
     7
100
AcDbLine
 10
825.926012
 20
772.933262
 11
830.73308
 21
772.933262
  0
LINE
  5
D7
100
AcDbEntity
  8
M1
  6
CONTINUOUS
370
25
 62
     7
100
AcDbLine
 10
825.23253
 20
771.733554
 11
825.925278
 21
772.933658
  0
LINE
  5
D8
100
AcDbEntity
  8
M1
  6
CONTINUOUS
370
25
 62
     7
100
AcDbLine
 10
825.23308
 20
759.133548
 11
825.92589
 21
757.933444
  0
LINE
  5
D9
100
AcDbEntity
  8
M1
  6
CONTINUOUS
370
25
 62
     7
100
AcDbLine
 10
825.23308
 20
586.633334
 11
825.23308
 21
599.233158
  0
LINE
  5
DA
100
AcDbEntity
  8
M1
  6
CONTINUOUS
370
25
 62
     7
100
AcDbLine
 10
830.73308
 20
585.23325
 11
830.73308
 21
600.633244
  0
LINE
  5
DB
100
AcDbEntity
  8
M1
  6
CONTINUOUS
370
25
 62
     7
100
AcDbLine
 10
830.73308
 20
600.633244
 11
832.73308
 21
600.633244
  0
LINE
  5
DC
100
AcDbEntity
  8
M1
  6
CONTINUOUS
370
25
 62
     7
100
AcDbLine
 10
830.73308
 20
585.23325
 11
832.73308
 21
585.23325
  0
LINE
  5
DD
100
AcDbEntity
  8
M1
  6
CONTINUOUS
370
25
 62
     7
100
AcDbLine
 10
825.926012
 20
588.933262
 11
830.73308
 21
588.933262
  0
LINE
  5
DE
100
AcDbEntity
  8
M1
  6
CONTINUOUS
370
25
 62
     7
100
AcDbLine
 10
825.926012
 20
596.933262
 11
830.73308
 21
596.933262
  0
LINE
  5
DF
100
AcDbEntity
  8
M1
  6
CONTINUOUS
370
25
 62
     7
100
AcDbLine
 10
825.926012
 20
600.433262
 11
830.73308
 21
600.433262
  0
LINE
  5
E0
100
AcDbEntity
  8
M1
  6
CONTINUOUS
370
25
 62
     7
100
AcDbLine
 10
825.926012
 20
585.433262
 11
830.73308
 21
585.433262
  0
LINE
  5
E1
100
AcDbEntity
  8
M1
  6
CONTINUOUS
370
25
 62
     7
100
AcDbLine
 10
825.232774
 20
586.633152
 11
825.925584
 21
585.433048
  0
LINE
  5
E2
100
AcDbEntity
  8
M1
  6
CONTINUOUS
370
25
 62
     7
100
AcDbLine
 10
825.233506
 20
599.232852
 11
825.926316
 21
600.432956
  0
LINE
  5
E3
100
AcDbEntity
  8
M1
  6
CONTINUOUS
370
25
 62
     7
100
AcDbLine
 10
431.463486
 20
778.042056
 11
431.463486
 21
705.68726
  0
LINE
  5
E4
100
AcDbEntity
  8
M1
  6
CONTINUOUS
370
25
 62
     7
100
AcDbLine
 10
335.951524
 20
722.897556
 11
398.612534
 21
686.720158
  0
LINE
  5
E5
100
AcDbEntity
  8
M1
  6
CONTINUOUS
370
25
 62
     7
100
AcDbLine
 10
451.463914
 20
778.042056
 11
451.463914
 21
705.68726
  0
LINE
  5
E6
100
AcDbEntity
  8
M1
  6
CONTINUOUS
370
25
 62
     7
100
AcDbLine
 10
484.314928
 20
686.721042
 11
546.976
 21
722.898442
  0
LINE
  5
E7
100
AcDbEntity
  8
M1
  6
CONTINUOUS
370
25
 62
     7
100
AcDbLine
 10
408.353502
 20
696.46265
 11
401.546494
 21
705.174838
  0
LINE
  5
E8
100
AcDbEntity
  8
M1
  6
CONTINUOUS
370
25
 62
     7
100
AcDbLine
 10
404.806504
 20
693.692234
 11
398.000474
 21
702.404452
  0
LINE
  5
E9
100
AcDbEntity
  8
M1
  6
CONTINUOUS
370
25
 62
     7
100
AcDbLine
 10
422.325486
 20
703.806644
 11
418.183518
 21
714.05756
  0
LINE
  5
EA
100
AcDbEntity
  8
M1
  6
CONTINUOUS
370
25
 62
     7
100
AcDbLine
 10
418.15349
 20
702.120944
 11
414.01146
 21
712.371738
  0
LINE
  5
EB
100
AcDbEntity
  8
M1
  6
CONTINUOUS
370
25
 62
     7
100
AcDbLine
 10
556.976122
 20
705.577762
 11
494.314928
 21
669.400364
  0
LINE
  5
EC
100
AcDbEntity
  8
M1
  6
CONTINUOUS
370
25
 62
     7
100
AcDbLine
 10
494.314928
 20
631.466342
 11
556.976304
 21
595.288852
  0
LINE
  5
ED
100
AcDbEntity
  8
M1
  6
CONTINUOUS
370
25
 62
     7
100
AcDbLine
 10
546.976182
 20
577.968234
 11
484.314988
 21
614.145634
  0
LINE
  5
EE
100
AcDbEntity
  8
M1
  6
CONTINUOUS
370
25
 62
     7
100
AcDbLine
 10
451.463914
 20
595.179356
 11
451.463914
 21
522.824452
  0
LINE
  5
EF
100
AcDbEntity
  8
M1
  6
CONTINUOUS
370
25
 62
     7
100
AcDbLine
 10
431.463486
 20
522.824344
 11
431.463486
 21
595.179264
  0
LINE
  5
F0
100
AcDbEntity
  8
M1
  6
CONTINUOUS
370
25
 62
     7
100
AcDbLine
 10
398.612534
 20
614.146336
 11
335.951524
 21
577.968846
  0
LINE
  5
F1
100
AcDbEntity
  8
M1
  6
CONTINUOUS
370
25
 62
     7
100
AcDbLine
 10
325.951524
 20
595.28925
 11
388.612534
 21
631.466648
  0
LINE
  5
F2
100
AcDbEntity
  8
M1
  6
CONTINUOUS
370
25
 62
     7
100
AcDbLine
 10
388.612534
 20
669.399754
 11
325.951524
 21
705.577152
  0
LINE
  5
F3
100
AcDbEntity
  8
M1
  6
CONTINUOUS
370
13
 62
     7
100
AcDbLine
 10
373.52855
 20
611.211246
 11
389.296494
 21
620.31464
  0
LINE
  5
F4
100
AcDbEntity
  8
M1
  6
CONTINUOUS
370
13
 62
     7
100
AcDbLine
 10
374.004502
 20
689.38074
 11
388.019518
 21
681.28934
  0
LINE
  5
F5
100
AcDbEntity
  8
M1
  6
CONTINUOUS
370
13
 62
     7
100
AcDbLine
 10
494.36162
 20
619.892552
 11
508.874802
 21
611.51334
  0
LINE
  5
F6
100
AcDbEntity
  8
M1
  6
CONTINUOUS
370
13
 62
     7
100
AcDbLine
 10
494.019274
 20
680.776554
 11
509.03087
 21
689.443454
  0
LINE
  5
F7
100
AcDbEntity
  8
M1
  6
CONTINUOUS
370
25
 62
     7
100
AcDbLine
 10
460.598986
 20
703.808262
 11
464.740586
 21
714.058964
  0
LINE
  5
F8
100
AcDbEntity
  8
M1
  6
CONTINUOUS
370
25
 62
     7
100
AcDbLine
 10
464.770982
 20
702.122256
 11
468.912584
 21
712.37305
  0
LINE
  5
F9
100
AcDbEntity
  8
M1
  6
CONTINUOUS
370
25
 62
     7
100
AcDbLine
 10
474.57219
 20
696.464054
 11
481.37877
 21
705.176242
  0
LINE
  5
FA
100
AcDbEntity
  8
M1
  6
CONTINUOUS
370
25
 62
     7
100
AcDbLine
 10
478.118394
 20
693.693638
 11
484.924974
 21
702.405644
  0
LINE
  5
FB
100
AcDbEntity
  8
M1
  6
CONTINUOUS
370
25
 62
     7
100
AcDbLine
 10
497.255418
 20
660.548252
 11
508.203722
 21
662.086948
  0
LINE
  5
FC
100
AcDbEntity
  8
M1
  6
CONTINUOUS
370
25
 62
     7
100
AcDbLine
 10
497.881516
 20
656.091952
 11
508.82982
 21
657.63065
  0
LINE
  5
FD
100
AcDbEntity
  8
M1
  6
CONTINUOUS
370
25
 62
     7
100
AcDbLine
 10
497.882006
 20
644.776248
 11
508.830308
 21
643.237552
  0
LINE
  5
FE
100
AcDbEntity
  8
M1
  6
CONTINUOUS
370
25
 62
     7
100
AcDbLine
 10
497.255724
 20
640.320042
 11
508.204026
 21
638.781346
  0
LINE
  5
FF
100
AcDbEntity
  8
M1
  6
CONTINUOUS
370
25
 62
     7
100
AcDbLine
 10
478.116502
 20
607.171634
 11
484.923204
 21
598.459446
  0
LINE
  5
100
100
AcDbEntity
  8
M1
  6
CONTINUOUS
370
25
 62
     7
100
AcDbLine
 10
474.570298
 20
604.401248
 11
481.377
 21
595.689152
  0
LINE
  5
101
100
AcDbEntity
  8
M1
  6
CONTINUOUS
370
25
 62
     7
100
AcDbLine
 10
464.774216
 20
598.745334
 11
468.915818
 21
588.49454
  0
LINE
  5
102
100
AcDbEntity
  8
M1
  6
CONTINUOUS
370
25
 62
     7
100
AcDbLine
 10
460.601914
 20
597.059634
 11
464.743578
 21
586.808842
  0
LINE
  5
103
100
AcDbEntity
  8
M1
  6
CONTINUOUS
370
25
 62
     7
100
AcDbLine
 10
422.32152
 20
597.061252
 11
418.17949
 21
586.810458
  0
LINE
  5
104
100
AcDbEntity
  8
M1
  6
CONTINUOUS
370
25
 62
     7
100
AcDbLine
 10
418.149522
 20
598.746952
 11
414.00853
 21
588.496158
  0
LINE
  5
105
100
AcDbEntity
  8
M1
  6
CONTINUOUS
370
25
 62
     7
100
AcDbLine
 10
408.355454
 20
604.402438
 11
401.548448
 21
595.690342
  0
LINE
  5
106
100
AcDbEntity
  8
M1
  6
CONTINUOUS
370
25
 62
     7
100
AcDbLine
 10
404.809556
 20
607.172856
 11
398.00255
 21
598.460758
  0
LINE
  5
107
100
AcDbEntity
  8
M1
  6
CONTINUOUS
370
25
 62
     7
100
AcDbLine
 10
385.671494
 20
640.322238
 11
374.723496
 21
638.783542
  0
LINE
  5
108
100
AcDbEntity
  8
M1
  6
CONTINUOUS
370
25
 62
     7
100
AcDbLine
 10
385.045518
 20
644.778538
 11
374.096544
 21
643.239842
  0
LINE
  5
109
100
AcDbEntity
  8
M1
  6
CONTINUOUS
370
25
 62
     7
100
AcDbLine
 10
385.045518
 20
656.090244
 11
374.09752
 21
657.62894
  0
LINE
  5
10A
100
AcDbEntity
  8
M1
  6
CONTINUOUS
370
25
 62
     7
100
AcDbLine
 10
385.671494
 20
660.546634
 11
374.723496
 21
662.085362
  0
LINE
  5
10B
100
AcDbEntity
  8
M1
  6
CONTINUOUS
370
25
 62
     7
100
AcDbLine
 10
530.305712
 20
660.64954
 11
541.20952
 21
662.18195
  0
LINE
  5
10C
100
AcDbEntity
  8
M1
  6
CONTINUOUS
370
25
 62
     7
100
AcDbLine
 10
530.305712
 20
640.219546
 11
541.20952
 21
638.687046
  0
LINE
  5
10D
100
AcDbEntity
  8
M1
  6
CONTINUOUS
370
25
 62
     7
100
AcDbLine
 10
477.036608
 20
732.480838
 11
481.161486
 21
742.690158
  0
LINE
  5
10E
100
AcDbEntity
  8
M1
  6
CONTINUOUS
370
25
 62
     7
100
AcDbLine
 10
494.730576
 20
722.26566
 11
501.50969
 21
730.942448
  0
LINE
  5
10F
100
AcDbEntity
  8
M1
  6
CONTINUOUS
370
25
 62
     7
100
AcDbLine
 10
388.194444
 20
722.264744
 11
381.415514
 21
730.941562
  0
LINE
  5
110
100
AcDbEntity
  8
M1
  6
CONTINUOUS
370
25
 62
     7
100
AcDbLine
 10
405.88756
 20
732.479434
 11
401.76256
 21
742.688846
  0
LINE
  5
111
100
AcDbEntity
  8
M1
  6
CONTINUOUS
370
25
 62
     7
100
AcDbLine
 10
352.621446
 20
640.22095
 11
341.717516
 21
638.688542
  0
LINE
  5
112
100
AcDbEntity
  8
M1
  6
CONTINUOUS
370
25
 62
     7
100
AcDbLine
 10
352.621446
 20
660.647342
 11
341.718492
 21
662.179752
  0
LINE
  5
113
100
AcDbEntity
  8
M1
  6
CONTINUOUS
370
25
 62
     7
100
AcDbLine
 10
405.88353
 20
568.388554
 11
401.759508
 21
558.179356
  0
LINE
  5
114
100
AcDbEntity
  8
M1
  6
CONTINUOUS
370
25
 62
     7
100
AcDbLine
 10
388.194444
 20
578.60236
 11
381.415514
 21
569.92554
  0
LINE
  5
115
100
AcDbEntity
  8
M1
  6
CONTINUOUS
370
25
 62
     7
100
AcDbLine
 10
494.728014
 20
578.599064
 11
501.507128
 21
569.922244
  0
LINE
  5
116
100
AcDbEntity
  8
M1
  6
CONTINUOUS
370
25
 62
     7
100
AcDbLine
 10
477.036974
 20
568.386142
 11
481.16179
 21
558.176944
  0
LINE
  5
117
100
AcDbEntity
  8
M1
  6
CONTINUOUS
370
13
 62
     7
100
AcDbLine
 10
1261.002396
 20
663.746036
 11
1261.002396
 21
636.295352
  0
LINE
  5
118
100
AcDbEntity
  8
M1
  6
CONTINUOUS
370
25
 62
     7
100
AcDbLine
 10
1190.940202
 20
777.38306
 11
1183.239396
 21
790.72086
  0
LINE
  5
119
100
AcDbEntity
  8
M1
  6
CONTINUOUS
370
25
 62
     7
100
AcDbLine
 10
1186.089906
 20
774.582554
 11
1178.892686
 21
787.048648
  0
LINE
  5
11A
100
AcDbEntity
  8
M1
  6
CONTINUOUS
370
25
 62
     7
100
AcDbLine
 10
1183.238694
 20
790.721958
 11
1178.892504
 21
787.04996
  0
LINE
  5
11B
100
AcDbEntity
  8
M1
  6
CONTINUOUS
370
25
 62
     7
100
AcDbLine
 10
1181.18239
 20
794.284244
 11
1176.975388
 21
790.372256
  0
LINE
  5
11C
100
AcDbEntity
  8
M1
  6
CONTINUOUS
370
25
 62
     7
100
AcDbLine
 10
1181.182512
 20
794.284244
 11
1172.119614
 21
809.983158
  0
LINE
  5
11D
100
AcDbEntity
  8
M1
  6
CONTINUOUS
370
25
 62
     7
100
AcDbLine
 10
1176.975206
 20
790.372562
 11
1167.26909
 21
807.183658
  0
LINE
  5
11E
100
AcDbEntity
  8
M1
  6
CONTINUOUS
370
25
 62
     7
100
AcDbLine
 10
1170.907212
 20
821.882968
 11
1174.407212
 21
827.94492
  0
LINE
  5
11F
100
AcDbEntity
  8
M1
  6
CONTINUOUS
370
25
 62
     7
100
AcDbLine
 10
1169.694292
 20
822.583164
 11
1172.119188
 21
821.183262
  0
LINE
  5
120
100
AcDbEntity
  8
M1
  6
CONTINUOUS
370
25
 62
     7
100
AcDbLine
 10
1169.694414
 20
808.58295
 11
1179.079392
 21
792.327946
  0
LINE
  5
121
100
AcDbEntity
  8
M1
  6
CONTINUOUS
370
25
 62
     7
100
AcDbLine
 10
1181.066788
 20
788.88486
 11
1188.502
 21
776.006656
  0
LINE
  5
122
100
AcDbEntity
  8
M1
  6
CONTINUOUS
370
25
 62
     7
100
AcDbLine
 10
1157.568986
 20
814.18375
 11
1150.568986
 21
814.182774
  0
LINE
  5
123
100
AcDbEntity
  8
M1
  6
CONTINUOUS
370
25
 62
     7
100
AcDbLine
 10
1157.57039
 20
815.583224
 11
1157.569292
 21
812.783238
  0
LINE
  5
124
100
AcDbEntity
  8
M1
  6
CONTINUOUS
370
25
 62
     7
100
AcDbLine
 10
1167.904192
 20
711.68906
 11
1167.904192
 21
704.183354
  0
LINE
  5
125
100
AcDbEntity
  8
M1
  6
CONTINUOUS
370
25
 62
     7
100
AcDbLine
 10
1161.414414
 20
715.436252
 11
1167.904894
 21
711.68906
  0
LINE
  5
126
100
AcDbEntity
  8
M1
  6
CONTINUOUS
370
25
 62
     7
100
AcDbLine
 10
1161.413988
 20
715.436252
 11
1154.913988
 21
711.683444
  0
LINE
  5
127
100
AcDbEntity
  8
M1
  6
CONTINUOUS
370
25
 62
     7
100
AcDbLine
 10
1154.913712
 20
704.177554
 11
1154.913712
 21
711.68314
  0
LINE
  5
128
100
AcDbEntity
  8
M1
  6
CONTINUOUS
370
25
 62
     7
100
AcDbLine
 10
1154.914506
 20
704.177952
 11
1161.404802
 21
700.43076
  0
LINE
  5
129
100
AcDbEntity
  8
M1
  6
CONTINUOUS
370
25
 62
     7
100
AcDbLine
 10
1161.405808
 20
700.428836
 11
1167.905992
 21
704.181644
  0
LINE
  5
12A
100
AcDbEntity
  8
M1
  6
CONTINUOUS
370
25
 62
     7
100
AcDbLine
 10
1267.502504
 20
761.685856
 11
1261.002504
 21
757.933048
  0
LINE
  5
12B
100
AcDbEntity
  8
M1
  6
CONTINUOUS
370
25
 62
     7
100
AcDbLine
 10
1267.502396
 20
769.180454
 11
1267.502396
 21
761.686038
  0
LINE
  5
12C
100
AcDbEntity
  8
M1
  6
CONTINUOUS
370
25
 62
     7
100
AcDbLine
 10
1267.502504
 20
769.181034
 11
1261.002504
 21
772.933842
  0
LINE
  5
12D
100
AcDbEntity
  8
M1
  6
CONTINUOUS
370
25
 62
     7
100
AcDbLine
 10
1254.502596
 20
769.180058
 11
1261.002702
 21
772.932834
  0
LINE
  5
12E
100
AcDbEntity
  8
M1
  6
CONTINUOUS
370
25
 62
     7
100
AcDbLine
 10
1254.502396
 20
769.180546
 11
1254.502396
 21
761.686038
  0
LINE
  5
12F
100
AcDbEntity
  8
M1
  6
CONTINUOUS
370
25
 62
     7
100
AcDbLine
 10
1254.501802
 20
761.685062
 11
1261.001894
 21
757.932254
  0
LINE
  5
130
100
AcDbEntity
  8
M1
  6
CONTINUOUS
370
25
 62
     7
100
AcDbLine
 10
1360.600106
 20
700.43024
 11
1354.100122
 21
704.183048
  0
LINE
  5
131
100
AcDbEntity
  8
M1
  6
CONTINUOUS
370
25
 62
     7
100
AcDbLine
 10
1367.090302
 20
704.178134
 11
1360.599962
 21
700.430942
  0
LINE
  5
132
100
AcDbEntity
  8
M1
  6
CONTINUOUS
370
25
 62
     7
100
AcDbLine
 10
1367.09105
 20
704.178044
 11
1367.09105
 21
711.683658
  0
LINE
  5
133
100
AcDbEntity
  8
M1
  6
CONTINUOUS
370
25
 62
     7
100
AcDbLine
 10
1360.590432
 20
715.436038
 11
1367.090478
 21
711.68314
  0
LINE
  5
134
100
AcDbEntity
  8
M1
  6
CONTINUOUS
370
25
 62
     7
100
AcDbLine
 10
1360.590386
 20
715.436436
 11
1354.100054
 21
711.689334
  0
LINE
  5
135
100
AcDbEntity
  8
M1
  6
CONTINUOUS
370
25
 62
     7
100
AcDbLine
 10
1354.09874
 20
711.688846
 11
1354.09874
 21
704.183262
  0
LINE
  5
136
100
AcDbEntity
  8
M1
  6
CONTINUOUS
370
25
 62
     7
100
AcDbLine
 10
1354.100572
 20
589.177554
 11
1354.100572
 21
596.683262
  0
LINE
  5
137
100
AcDbEntity
  8
M1
  6
CONTINUOUS
370
25
 62
     7
100
AcDbLine
 10
1360.590722
 20
585.43076
 11
1354.100266
 21
589.177952
  0
LINE
  5
138
100
AcDbEntity
  8
M1
  6
CONTINUOUS
370
25
 62
     7
100
AcDbLine
 10
1360.591226
 20
585.429936
 11
1367.091364
 21
589.182742
  0
LINE
  5
139
100
AcDbEntity
  8
M1
  6
CONTINUOUS
370
25
 62
     7
100
AcDbLine
 10
1367.09105
 20
596.688938
 11
1367.09105
 21
589.183354
  0
LINE
  5
13A
100
AcDbEntity
  8
M1
  6
CONTINUOUS
370
25
 62
     7
100
AcDbLine
 10
1367.090646
 20
596.689152
 11
1360.600312
 21
600.436344
  0
LINE
  5
13B
100
AcDbEntity
  8
M1
  6
CONTINUOUS
370
25
 62
     7
100
AcDbLine
 10
1360.599802
 20
600.436954
 11
1354.09968
 21
596.684146
  0
LINE
  5
13C
100
AcDbEntity
  8
M1
  6
CONTINUOUS
370
25
 62
     7
100
AcDbLine
 10
1254.502702
 20
539.179752
 11
1261.002702
 21
542.932544
  0
LINE
  5
13D
100
AcDbEntity
  8
M1
  6
CONTINUOUS
370
25
 62
     7
100
AcDbLine
 10
1254.502306
 20
531.686146
 11
1254.502306
 21
539.180546
  0
LINE
  5
13E
100
AcDbEntity
  8
M1
  6
CONTINUOUS
370
25
 62
     7
100
AcDbLine
 10
1254.502396
 20
531.685352
 11
1261.002504
 21
527.932544
  0
LINE
  5
13F
100
AcDbEntity
  8
M1
  6
CONTINUOUS
370
25
 62
     7
100
AcDbLine
 10
1267.503098
 20
531.685352
 11
1261.003008
 21
527.932544
  0
LINE
  5
140
100
AcDbEntity
  8
M1
  6
CONTINUOUS
370
25
 62
     7
100
AcDbLine
 10
1267.502306
 20
531.686146
 11
1267.502306
 21
539.180546
  0
LINE
  5
141
100
AcDbEntity
  8
M1
  6
CONTINUOUS
370
25
 62
     7
100
AcDbLine
 10
1267.503206
 20
539.181552
 11
1261.003098
 21
542.934452
  0
LINE
  5
142
100
AcDbEntity
  8
M1
  6
CONTINUOUS
370
25
 62
     7
100
AcDbLine
 10
1161.404404
 20
600.435734
 11
1167.904404
 21
596.682956
  0
LINE
  5
143
100
AcDbEntity
  8
M1
  6
CONTINUOUS
370
25
 62
     7
100
AcDbLine
 10
1154.914292
 20
596.689456
 11
1161.404588
 21
600.43665
  0
LINE
  5
144
100
AcDbEntity
  8
M1
  6
CONTINUOUS
370
25
 62
     7
100
AcDbLine
 10
1154.913712
 20
596.688542
 11
1154.913712
 21
589.182956
  0
LINE
  5
145
100
AcDbEntity
  8
M1
  6
CONTINUOUS
370
25
 62
     7
100
AcDbLine
 10
1161.414292
 20
585.429844
 11
1154.91411
 21
589.182652
  0
LINE
  5
146
100
AcDbEntity
  8
M1
  6
CONTINUOUS
370
25
 62
     7
100
AcDbLine
 10
1161.414598
 20
585.430362
 11
1167.904802
 21
589.177646
  0
LINE
  5
147
100
AcDbEntity
  8
M1
  6
CONTINUOUS
370
25
 62
     7
100
AcDbLine
 10
1167.905992
 20
589.177738
 11
1167.905992
 21
596.683354
  0
LINE
  5
148
100
AcDbEntity
  8
M1
  6
CONTINUOUS
370
25
 62
     7
100
AcDbLine
 10
937.73311
 20
778.433262
 11
923.23308
 21
778.433262
  0
LINE
  5
149
100
AcDbEntity
  8
M1
  6
CONTINUOUS
370
25
 62
     7
100
AcDbLine
 10
940.73311
 20
775.433262
 11
940.73311
 21
650.433262
  0
LINE
  5
14A
100
AcDbEntity
  8
M1
  6
CONTINUOUS
370
25
 62
     7
100
AcDbLine
 10
940.733202
 20
754.433354
 11
946.733202
 21
721.433354
  0
LINE
  5
14B
100
AcDbEntity
  8
M1
  6
CONTINUOUS
370
25
 62
     7
100
AcDbLine
 10
946.73311
 20
721.433262
 11
946.73311
 21
715.433262
  0
LINE
  5
14C
100
AcDbEntity
  8
M1
  6
CONTINUOUS
370
25
 62
     7
100
AcDbLine
 10
937.73311
 20
522.433246
 11
923.23308
 21
522.433246
  0
LINE
  5
14D
100
AcDbEntity
  8
M1
  6
CONTINUOUS
370
25
 62
     7
100
AcDbLine
 10
940.73311
 20
525.433246
 11
940.73311
 21
650.433262
  0
LINE
  5
14E
100
AcDbEntity
  8
M1
  6
CONTINUOUS
370
25
 62
     7
100
AcDbLine
 10
940.73311
 20
546.433246
 11
946.73311
 21
579.433262
  0
LINE
  5
14F
100
AcDbEntity
  8
M1
  6
CONTINUOUS
370
25
 62
     7
100
AcDbLine
 10
946.73311
 20
579.433262
 11
946.73311
 21
585.433262
  0
LINE
  5
150
100
AcDbEntity
  8
M1
  6
CONTINUOUS
370
25
 62
     7
100
AcDbLine
 10
948.23311
 20
714.233158
 11
948.23311
 21
701.633334
  0
LINE
  5
151
100
AcDbEntity
  8
M1
  6
CONTINUOUS
370
25
 62
     7
100
AcDbLine
 10
942.73311
 20
715.633244
 11
942.73311
 21
700.23325
  0
LINE
  5
152
100
AcDbEntity
  8
M1
  6
CONTINUOUS
370
25
 62
     7
100
AcDbLine
 10
942.73311
 20
700.23325
 11
940.73311
 21
700.23325
  0
LINE
  5
153
100
AcDbEntity
  8
M1
  6
CONTINUOUS
370
25
 62
     7
100
AcDbLine
 10
942.73311
 20
715.633244
 11
940.73311
 21
715.633244
  0
LINE
  5
154
100
AcDbEntity
  8
M1
  6
CONTINUOUS
370
25
 62
     7
100
AcDbLine
 10
947.5403
 20
711.933262
 11
942.73311
 21
711.933262
  0
LINE
  5
155
100
AcDbEntity
  8
M1
  6
CONTINUOUS
370
25
 62
     7
100
AcDbLine
 10
947.5403
 20
703.933262
 11
942.73311
 21
703.933262
  0
LINE
  5
156
100
AcDbEntity
  8
M1
  6
CONTINUOUS
370
25
 62
     7
100
AcDbLine
 10
947.5403
 20
700.433262
 11
942.73311
 21
700.433262
  0
LINE
  5
157
100
AcDbEntity
  8
M1
  6
CONTINUOUS
370
25
 62
     7
100
AcDbLine
 10
947.5403
 20
715.433262
 11
942.73311
 21
715.433262
  0
LINE
  5
158
100
AcDbEntity
  8
M1
  6
CONTINUOUS
370
25
 62
     7
100
AcDbLine
 10
948.233598
 20
714.233462
 11
947.540788
 21
715.433536
  0
LINE
  5
159
100
AcDbEntity
  8
M1
  6
CONTINUOUS
370
25
 62
     7
100
AcDbLine
 10
948.233202
 20
701.633456
 11
947.540392
 21
700.433354
  0
LINE
  5
15A
100
AcDbEntity
  8
M1
  6
CONTINUOUS
370
25
 62
     7
100
AcDbLine
 10
948.23311
 20
771.733158
 11
948.23311
 21
759.133334
  0
LINE
  5
15B
100
AcDbEntity
  8
M1
  6
CONTINUOUS
370
25
 62
     7
100
AcDbLine
 10
942.73311
 20
773.133244
 11
942.73311
 21
757.73325
  0
LINE
  5
15C
100
AcDbEntity
  8
M1
  6
CONTINUOUS
370
25
 62
     7
100
AcDbLine
 10
942.73311
 20
757.73325
 11
940.73311
 21
757.73325
  0
LINE
  5
15D
100
AcDbEntity
  8
M1
  6
CONTINUOUS
370
25
 62
     7
100
AcDbLine
 10
942.73311
 20
773.133244
 11
940.73311
 21
773.133244
  0
LINE
  5
15E
100
AcDbEntity
  8
M1
  6
CONTINUOUS
370
25
 62
     7
100
AcDbLine
 10
947.5403
 20
769.433262
 11
942.73311
 21
769.433262
  0
LINE
  5
15F
100
AcDbEntity
  8
M1
  6
CONTINUOUS
370
25
 62
     7
100
AcDbLine
 10
947.5403
 20
761.433262
 11
942.73311
 21
761.433262
  0
LINE
  5
160
100
AcDbEntity
  8
M1
  6
CONTINUOUS
370
25
 62
     7
100
AcDbLine
 10
947.5403
 20
757.933262
 11
942.73311
 21
757.933262
  0
LINE
  5
161
100
AcDbEntity
  8
M1
  6
CONTINUOUS
370
25
 62
     7
100
AcDbLine
 10
947.5403
 20
772.933262
 11
942.73311
 21
772.933262
  0
LINE
  5
162
100
AcDbEntity
  8
M1
  6
CONTINUOUS
370
25
 62
     7
100
AcDbLine
 10
948.233812
 20
771.733462
 11
947.54091
 21
772.933658
  0
LINE
  5
163
100
AcDbEntity
  8
M1
  6
CONTINUOUS
370
25
 62
     7
100
AcDbLine
 10
948.233384
 20
759.133334
 11
947.540604
 21
757.933262
  0
LINE
  5
164
100
AcDbEntity
  8
M1
  6
CONTINUOUS
370
25
 62
     7
100
AcDbLine
 10
825.23308
 20
586.633334
 11
825.23308
 21
599.233158
  0
LINE
  5
165
100
AcDbEntity
  8
M1
  6
CONTINUOUS
370
25
 62
     7
100
AcDbLine
 10
830.73308
 20
585.23325
 11
830.73308
 21
600.633244
  0
LINE
  5
166
100
AcDbEntity
  8
M1
  6
CONTINUOUS
370
25
 62
     7
100
AcDbLine
 10
830.73308
 20
600.633244
 11
832.73308
 21
600.633244
  0
LINE
  5
167
100
AcDbEntity
  8
M1
  6
CONTINUOUS
370
25
 62
     7
100
AcDbLine
 10
830.73308
 20
585.23325
 11
832.73308
 21
585.23325
  0
LINE
  5
168
100
AcDbEntity
  8
M1
  6
CONTINUOUS
370
25
 62
     7
100
AcDbLine
 10
825.926012
 20
588.933262
 11
830.73308
 21
588.933262
  0
LINE
  5
169
100
AcDbEntity
  8
M1
  6
CONTINUOUS
370
25
 62
     7
100
AcDbLine
 10
825.926012
 20
596.933262
 11
830.73308
 21
596.933262
  0
LINE
  5
16A
100
AcDbEntity
  8
M1
  6
CONTINUOUS
370
25
 62
     7
100
AcDbLine
 10
825.926012
 20
600.433262
 11
830.73308
 21
600.433262
  0
LINE
  5
16B
100
AcDbEntity
  8
M1
  6
CONTINUOUS
370
25
 62
     7
100
AcDbLine
 10
825.926012
 20
585.433262
 11
830.73308
 21
585.433262
  0
LINE
  5
16C
100
AcDbEntity
  8
M1
  6
CONTINUOUS
370
25
 62
     7
100
AcDbLine
 10
825.23253
 20
586.63306
 11
825.925402
 21
585.432956
  0
LINE
  5
16D
100
AcDbEntity
  8
M1
  6
CONTINUOUS
370
25
 62
     7
100
AcDbLine
 10
825.23308
 20
599.233036
 11
825.926012
 21
600.43314
  0
LINE
  5
16E
100
AcDbEntity
  8
M1
  6
CONTINUOUS
370
25
 62
     7
100
AcDbLine
 10
825.23308
 20
529.13335
 11
825.23308
 21
541.733142
  0
LINE
  5
16F
100
AcDbEntity
  8
M1
  6
CONTINUOUS
370
25
 62
     7
100
AcDbLine
 10
830.73308
 20
527.73325
 11
830.73308
 21
543.133244
  0
LINE
  5
170
100
AcDbEntity
  8
M1
  6
CONTINUOUS
370
25
 62
     7
100
AcDbLine
 10
830.73308
 20
543.133244
 11
832.73308
 21
543.133244
  0
LINE
  5
171
100
AcDbEntity
  8
M1
  6
CONTINUOUS
370
25
 62
     7
100
AcDbLine
 10
830.73308
 20
527.73325
 11
832.73308
 21
527.73325
  0
LINE
  5
172
100
AcDbEntity
  8
M1
  6
CONTINUOUS
370
25
 62
     7
100
AcDbLine
 10
825.926012
 20
531.433246
 11
830.73308
 21
531.433246
  0
LINE
  5
173
100
AcDbEntity
  8
M1
  6
CONTINUOUS
370
25
 62
     7
100
AcDbLine
 10
825.926012
 20
539.433246
 11
830.73308
 21
539.433246
  0
LINE
  5
174
100
AcDbEntity
  8
M1
  6
CONTINUOUS
370
25
 62
     7
100
AcDbLine
 10
825.926012
 20
542.933246
 11
830.73308
 21
542.933246
  0
LINE
  5
175
100
AcDbEntity
  8
M1
  6
CONTINUOUS
370
25
 62
     7
100
AcDbLine
 10
825.926012
 20
527.933246
 11
830.73308
 21
527.933246
  0
LINE
  5
176
100
AcDbEntity
  8
M1
  6
CONTINUOUS
370
25
 62
     7
100
AcDbLine
 10
825.232714
 20
529.133044
 11
825.925524
 21
527.932942
  0
LINE
  5
177
100
AcDbEntity
  8
M1
  6
CONTINUOUS
370
25
 62
     7
100
AcDbLine
 10
825.233324
 20
541.732852
 11
825.926072
 21
542.933048
  0
LINE
  5
178
100
AcDbEntity
  8
M1
  6
CONTINUOUS
370
25
 62
     7
100
AcDbLine
 10
948.23311
 20
586.633334
 11
948.23311
 21
599.233158
  0
LINE
  5
179
100
AcDbEntity
  8
M1
  6
CONTINUOUS
370
25
 62
     7
100
AcDbLine
 10
942.73311
 20
585.23325
 11
942.73311
 21
600.633244
  0
LINE
  5
17A
100
AcDbEntity
  8
M1
  6
CONTINUOUS
370
25
 62
     7
100
AcDbLine
 10
942.73311
 20
600.633244
 11
940.73311
 21
600.633244
  0
LINE
  5
17B
100
AcDbEntity
  8
M1
  6
CONTINUOUS
370
25
 62
     7
100
AcDbLine
 10
942.73311
 20
585.23325
 11
940.73311
 21
585.23325
  0
LINE
  5
17C
100
AcDbEntity
  8
M1
  6
CONTINUOUS
370
25
 62
     7
100
AcDbLine
 10
942.733292
 20
592.351962
 11
940.733292
 21
590.351962
  0
LINE
  5
17D
100
AcDbEntity
  8
M1
  6
CONTINUOUS
370
25
 62
     7
100
AcDbLine
 10
942.733202
 20
595.180454
 11
940.73311
 21
593.180362
  0
LINE
  5
17E
100
AcDbEntity
  8
M1
  6
CONTINUOUS
370
25
 62
     7
100
AcDbLine
 10
947.5403
 20
588.933262
 11
942.73311
 21
588.933262
  0
LINE
  5
17F
100
AcDbEntity
  8
M1
  6
CONTINUOUS
370
25
 62
     7
100
AcDbLine
 10
947.5403
 20
596.933262
 11
942.73311
 21
596.933262
  0
LINE
  5
180
100
AcDbEntity
  8
M1
  6
CONTINUOUS
370
25
 62
     7
100
AcDbLine
 10
947.5403
 20
600.433262
 11
942.73311
 21
600.433262
  0
LINE
  5
181
100
AcDbEntity
  8
M1
  6
CONTINUOUS
370
25
 62
     7
100
AcDbLine
 10
947.5403
 20
585.433262
 11
942.73311
 21
585.433262
  0
LINE
  5
182
100
AcDbEntity
  8
M1
  6
CONTINUOUS
370
25
 62
     7
100
AcDbLine
 10
948.233598
 20
586.63306
 11
947.540788
 21
585.433048
  0
LINE
  5
183
100
AcDbEntity
  8
M1
  6
CONTINUOUS
370
25
 62
     7
100
AcDbLine
 10
948.233202
 20
599.233036
 11
947.540392
 21
600.43314
  0
LINE
  5
184
100
AcDbEntity
  8
M1
  6
CONTINUOUS
370
25
 62
     7
100
AcDbLine
 10
948.23311
 20
529.13335
 11
948.23311
 21
541.733142
  0
LINE
  5
185
100
AcDbEntity
  8
M1
  6
CONTINUOUS
370
25
 62
     7
100
AcDbLine
 10
942.73311
 20
527.73325
 11
942.73311
 21
543.133244
  0
LINE
  5
186
100
AcDbEntity
  8
M1
  6
CONTINUOUS
370
25
 62
     7
100
AcDbLine
 10
942.73311
 20
543.133244
 11
940.73311
 21
543.133244
  0
LINE
  5
187
100
AcDbEntity
  8
M1
  6
CONTINUOUS
370
25
 62
     7
100
AcDbLine
 10
942.73311
 20
527.73325
 11
940.73311
 21
527.73325
  0
LINE
  5
188
100
AcDbEntity
  8
M1
  6
CONTINUOUS
370
25
 62
     7
100
AcDbLine
 10
942.732988
 20
534.852146
 11
940.732988
 21
532.852146
  0
LINE
  5
189
100
AcDbEntity
  8
M1
  6
CONTINUOUS
370
25
 62
     7
100
AcDbLine
 10
942.732804
 20
537.680744
 11
940.732714
 21
535.680652
  0
LINE
  5
18A
100
AcDbEntity
  8
M1
  6
CONTINUOUS
370
25
 62
     7
100
AcDbLine
 10
947.5403
 20
531.433246
 11
942.73311
 21
531.433246
  0
LINE
  5
18B
100
AcDbEntity
  8
M1
  6
CONTINUOUS
370
25
 62
     7
100
AcDbLine
 10
947.5403
 20
539.433246
 11
942.73311
 21
539.433246
  0
LINE
  5
18C
100
AcDbEntity
  8
M1
  6
CONTINUOUS
370
25
 62
     7
100
AcDbLine
 10
947.5403
 20
542.933246
 11
942.73311
 21
542.933246
  0
LINE
  5
18D
100
AcDbEntity
  8
M1
  6
CONTINUOUS
370
25
 62
     7
100
AcDbLine
 10
947.5403
 20
527.933246
 11
942.73311
 21
527.933246
  0
LINE
  5
18E
100
AcDbEntity
  8
M1
  6
CONTINUOUS
370
25
 62
     7
100
AcDbLine
 10
948.23369
 20
529.133044
 11
947.54091
 21
527.933048
  0
LINE
  5
18F
100
AcDbEntity
  8
M1
  6
CONTINUOUS
370
25
 62
     7
100
AcDbLine
 10
948.233292
 20
541.733052
 11
947.540514
 21
542.933246
  0
LINE
  5
190
100
AcDbEntity
  8
M1
  6
CONTINUOUS
370
25
 62
     7
100
AcDbLine
 10
946.73311
 20
700.433262
 11
946.73311
 21
600.433262
  0
LINE
  5
191
100
AcDbEntity
  8
M1
  6
CONTINUOUS
370
25
 62
     7
100
AcDbLine
 10
1300.424196
 20
638.433262
 11
1286.580598
 21
638.433262
  0
LINE
  5
192
100
AcDbEntity
  8
M1
  6
CONTINUOUS
370
25
 62
     7
100
AcDbLine
 10
1300.424196
 20
662.433262
 11
1286.580598
 21
662.433262
  0
LINE
  5
193
100
AcDbEntity
  8
M1
  6
CONTINUOUS
370
25
 62
     7
100
AcDbLine
 10
1300.424196
 20
662.433354
 11
1307.352402
 21
650.433354
  0
LINE
  5
194
100
AcDbEntity
  8
M1
  6
CONTINUOUS
370
25
 62
     7
100
AcDbLine
 10
1286.581102
 20
662.432956
 11
1279.652894
 21
650.432956
  0
LINE
  5
195
100
AcDbEntity
  8
M1
  6
CONTINUOUS
370
25
 62
     7
100
AcDbLine
 10
1300.424806
 20
638.432834
 11
1307.352998
 21
650.432834
  0
LINE
  5
196
100
AcDbEntity
  8
M1
  6
CONTINUOUS
370
25
 62
     7
100
AcDbLine
 10
1286.580506
 20
638.433354
 11
1279.6523
 21
650.433354
  0
LINE
  5
197
100
AcDbEntity
  8
M1
  6
CONTINUOUS
370
25
 62
     7
100
AcDbLine
 10
1273.002396
 20
689.855046
 11
1273.002396
 21
676.011448
  0
LINE
  5
198
100
AcDbEntity
  8
M1
  6
CONTINUOUS
370
25
 62
     7
100
AcDbLine
 10
1249.002396
 20
689.855046
 11
1249.002396
 21
676.011448
  0
LINE
  5
199
100
AcDbEntity
  8
M1
  6
CONTINUOUS
370
25
 62
     7
100
AcDbLine
 10
1249.002504
 20
689.855136
 11
1261.002396
 21
696.78336
  0
LINE
  5
19A
100
AcDbEntity
  8
M1
  6
CONTINUOUS
370
25
 62
     7
100
AcDbLine
 10
1249.002396
 20
676.011234
 11
1261.002306
 21
669.083042
  0
LINE
  5
19B
100
AcDbEntity
  8
M1
  6
CONTINUOUS
370
25
 62
     7
100
AcDbLine
 10
1273.002306
 20
689.854862
 11
1261.002306
 21
696.783146
  0
LINE
  5
19C
100
AcDbEntity
  8
M1
  6
CONTINUOUS
370
25
 62
     7
100
AcDbLine
 10
1273.002504
 20
676.011234
 11
1261.002504
 21
669.08295
  0
LINE
  5
19D
100
AcDbEntity
  8
M1
  6
CONTINUOUS
370
25
 62
     7
100
AcDbLine
 10
1221.580704
 20
662.433262
 11
1235.424302
 21
662.433262
  0
LINE
  5
19E
100
AcDbEntity
  8
M1
  6
CONTINUOUS
370
25
 62
     7
100
AcDbLine
 10
1221.580598
 20
638.433262
 11
1235.424196
 21
638.433262
  0
LINE
  5
19F
100
AcDbEntity
  8
M1
  6
CONTINUOUS
370
25
 62
     7
100
AcDbLine
 10
1221.580598
 20
638.433262
 11
1214.652498
 21
650.433262
  0
LINE
  5
1A0
100
AcDbEntity
  8
M1
  6
CONTINUOUS
370
25
 62
     7
100
AcDbLine
 10
1235.424592
 20
638.433048
 11
1242.3528
 21
650.433048
  0
LINE
  5
1A1
100
AcDbEntity
  8
M1
  6
CONTINUOUS
370
25
 62
     7
100
AcDbLine
 10
1221.580994
 20
662.432956
 11
1214.652802
 21
650.432956
  0
LINE
  5
1A2
100
AcDbEntity
  8
M1
  6
CONTINUOUS
370
25
 62
     7
100
AcDbLine
 10
1235.424302
 20
662.433262
 11
1242.352602
 21
650.433262
  0
LINE
  5
1A3
100
AcDbEntity
  8
M1
  6
CONTINUOUS
370
25
 62
     7
100
AcDbLine
 10
1249.002504
 20
611.01154
 11
1249.002504
 21
624.855136
  0
LINE
  5
1A4
100
AcDbEntity
  8
M1
  6
CONTINUOUS
370
25
 62
     7
100
AcDbLine
 10
1273.002504
 20
611.01154
 11
1273.002504
 21
624.855136
  0
LINE
  5
1A5
100
AcDbEntity
  8
M1
  6
CONTINUOUS
370
25
 62
     7
100
AcDbLine
 10
1273.002198
 20
611.011844
 11
1261.002306
 21
604.083652
  0
LINE
  5
1A6
100
AcDbEntity
  8
M1
  6
CONTINUOUS
370
25
 62
     7
100
AcDbLine
 10
1273.002306
 20
624.854954
 11
1261.002306
 21
631.783146
  0
LINE
  5
1A7
100
AcDbEntity
  8
M1
  6
CONTINUOUS
370
25
 62
     7
100
AcDbLine
 10
1249.002396
 20
611.011234
 11
1261.002396
 21
604.083042
  0
LINE
  5
1A8
100
AcDbEntity
  8
M1
  6
CONTINUOUS
370
25
 62
     7
100
AcDbLine
 10
1249.002396
 20
624.855258
 11
1261.002396
 21
631.78345
  0
LINE
  5
1A9
100
AcDbEntity
  8
M1
  6
CONTINUOUS
370
25
 62
     7
100
AcDbLine
 10
1325.5151
 20
673.823642
 11
1319.309098
 21
670.240634
  0
LINE
  5
1AA
100
AcDbEntity
  8
M1
  6
CONTINUOUS
370
25
 62
     7
100
AcDbLine
 10
1319.309198
 20
630.626254
 11
1325.5152
 21
627.043156
  0
LINE
  5
1AB
100
AcDbEntity
  8
M1
  6
CONTINUOUS
370
25
 62
     7
100
AcDbLine
 10
1273.002396
 20
717.99805
 11
1273.002396
 21
710.831944
  0
LINE
  5
1AC
100
AcDbEntity
  8
M1
  6
CONTINUOUS
370
25
 62
     7
100
AcDbLine
 10
1307.309206
 20
691.025058
 11
1313.5152
 21
694.608036
  0
LINE
  5
1AD
100
AcDbEntity
  8
M1
  6
CONTINUOUS
370
25
 62
     7
100
AcDbLine
 10
1208.489702
 20
694.607944
 11
1214.695696
 21
691.024936
  0
LINE
  5
1AE
100
AcDbEntity
  8
M1
  6
CONTINUOUS
370
25
 62
     7
100
AcDbLine
 10
1249.002396
 20
710.831944
 11
1249.002396
 21
717.99805
  0
LINE
  5
1AF
100
AcDbEntity
  8
M1
  6
CONTINUOUS
370
25
 62
     7
100
AcDbLine
 10
1196.489504
 20
627.043552
 11
1202.695496
 21
630.62656
  0
LINE
  5
1B0
100
AcDbEntity
  8
M1
  6
CONTINUOUS
370
25
 62
     7
100
AcDbLine
 10
1202.695604
 20
670.24036
 11
1196.489594
 21
673.823338
  0
LINE
  5
1B1
100
AcDbEntity
  8
M1
  6
CONTINUOUS
370
25
 62
     7
100
AcDbLine
 10
1249.002396
 20
582.868534
 11
1249.002396
 21
590.03464
  0
LINE
  5
1B2
100
AcDbEntity
  8
M1
  6
CONTINUOUS
370
25
 62
     7
100
AcDbLine
 10
1214.695496
 20
609.841952
 11
1208.489504
 21
606.258854
  0
LINE
  5
1B3
100
AcDbEntity
  8
M1
  6
CONTINUOUS
370
25
 62
     7
100
AcDbLine
 10
1313.5152
 20
606.258548
 11
1307.309206
 21
609.841648
  0
LINE
  5
1B4
100
AcDbEntity
  8
M1
  6
CONTINUOUS
370
25
 62
     7
100
AcDbLine
 10
1273.002396
 20
590.03464
 11
1273.002396
 21
582.868534
  0
LINE
  5
1B5
100
AcDbEntity
  8
M1
  6
CONTINUOUS
370
25
 62
     7
100
AcDbLine
 10
940.732988
 20
766.209842
 11
942.732988
 21
768.209842
  0
LINE
  5
1B6
100
AcDbEntity
  8
M1
  6
CONTINUOUS
370
25
 62
     7
100
AcDbLine
 10
940.732988
 20
708.48914
 11
942.732988
 21
710.48914
  0
LINE
  5
1B7
100
AcDbEntity
  8
M1
  6
CONTINUOUS
370
25
 62
     7
100
AcDbLine
 10
940.732988
 20
763.381352
 11
942.732988
 21
765.381352
  0
LINE
  5
1B8
100
AcDbEntity
  8
M1
  6
CONTINUOUS
370
25
 62
     7
100
AcDbLine
 10
940.732988
 20
705.660648
 11
942.732988
 21
707.660648
  0
LINE
  5
1B9
100
AcDbEntity
  8
M1
  6
CONTINUOUS
370
25
 62
     7
100
AcDbLine
 10
830.733018
 20
593.990146
 11
832.733018
 21
595.990146
  0
LINE
  5
1BA
100
AcDbEntity
  8
M1
  6
CONTINUOUS
370
25
 62
     7
100
AcDbLine
 10
830.733018
 20
536.288348
 11
832.733018
 21
538.288348
  0
LINE
  5
1BB
100
AcDbEntity
  8
M1
  6
CONTINUOUS
370
25
 62
     7
100
AcDbLine
 10
830.733018
 20
591.161656
 11
832.733018
 21
593.161656
  0
LINE
  5
1BC
100
AcDbEntity
  8
M1
  6
CONTINUOUS
370
25
 62
     7
100
AcDbLine
 10
830.73308
 20
533.460056
 11
832.73308
 21
535.460056
  0
LINE
  5
1BD
100
AcDbEntity
  8
M1
  6
CONTINUOUS
370
13
 62
     7
100
AcDbLine
 10
441.463914
 20
658.97205
 11
441.463914
 21
642.859654
  0
LINE
  5
1BE
100
AcDbEntity
  8
M1
  6
CONTINUOUS
370
13
 62
     7
100
AcDbLine
 10
441.463914
 20
594.522556
 11
441.463914
 21
571.24915
  0
LINE
  5
1BF
100
AcDbEntity
  8
M1
  6
CONTINUOUS
370
13
 62
     7
100
AcDbLine
 10
720.395616
 20
650.433262
 11
688.089586
 21
650.433262
  0
LINE
  5
1C0
100
AcDbEntity
  8
M1
  6
CONTINUOUS
370
25
 62
     7
100
AcDbLine
 10
782.73308
 20
679.326236
 11
782.73308
 21
650.433262
  0
LINE
  5
1C1
100
AcDbEntity
  8
M1
  6
CONTINUOUS
370
25
 62
     7
100
AcDbLine
 10
782.73308
 20
621.540256
 11
782.73308
 21
650.433262
  0
LINE
  5
1C2
100
AcDbEntity
  8
M1
  6
CONTINUOUS
370
25
 62
     7
100
AcDbLine
 10
782.73308
 20
666.433262
 11
781.73308
 21
666.433262
  0
LINE
  5
1C3
100
AcDbEntity
  8
M1
  6
CONTINUOUS
370
25
 62
     7
100
AcDbLine
 10
782.73308
 20
634.433262
 11
781.73308
 21
634.433262
  0
ARC
  5
1C4
100
AcDbEntity
  8
M1
  6
CONTINUOUS
370
25
 62
     7
100
AcDbCircle
 10
834.73308
 20
776.433262
 40
2.0
100
AcDbArc
 50
90.0
 51
180.0
  0
ARC
  5
1C5
100
AcDbEntity
  8
M1
  6
CONTINUOUS
370
25
 62
     7
100
AcDbCircle
 10
824.73308
 20
738.433262
 40
8.0
100
AcDbArc
 50
270.0
 51
360.0
  0
ARC
  5
1C6
100
AcDbEntity
  8
M1
  6
CONTINUOUS
370
25
 62
     7
100
AcDbCircle
 10
829.232774
 20
701.682742
 40
3.999906
100
AcDbArc
 50
145.737427
 51
180.707741
  0
ARC
  5
1C7
100
AcDbEntity
  8
M1
  6
CONTINUOUS
370
25
 62
     7
100
AcDbCircle
 10
829.232774
 20
714.183842
 40
3.999998
100
AcDbArc
 50
179.293579
 51
214.263664
  0
ARC
  5
1C8
100
AcDbEntity
  8
M1
  6
CONTINUOUS
370
25
 62
     7
100
AcDbCircle
 10
849.415086
 20
785.123356
 40
3.828002
100
AcDbArc
 50
180.0
 51
270.0
  0
ARC
  5
1C9
100
AcDbEntity
  8
M1
  6
CONTINUOUS
370
25
 62
     7
100
AcDbCircle
 10
834.38817
 20
811.058262
 40
11.20105
100
AcDbArc
 50
0.0
 51
59.994072
  0
ARC
  5
1CA
100
AcDbEntity
  8
M1
  6
CONTINUOUS
370
25
 62
     7
100
AcDbCircle
 10
850.339098
 20
786.047244
 40
1.97998
100
AcDbArc
 50
180.0
 51
270.0
  0
ARC
  5
1CB
100
AcDbEntity
  8
M1
  6
CONTINUOUS
370
25
 62
     7
100
AcDbCircle
 10
859.589098
 20
811.058262
 40
11.199546
100
AcDbArc
 50
120.001198
 51
180.0
  0
ARC
  5
1CC
100
AcDbEntity
  8
M1
  6
CONTINUOUS
370
25
 62
     7
100
AcDbCircle
 10
834.38817
 20
811.058262
 40
14.000708
100
AcDbArc
 50
25.838398
 51
59.999123
  0
ARC
  5
1CD
100
AcDbEntity
  8
M1
  6
CONTINUOUS
370
25
 62
     7
100
AcDbCircle
 10
859.589098
 20
811.058262
 40
13.99966
100
AcDbArc
 50
120.000801
 51
179.999996
  0
ARC
  5
1CE
100
AcDbEntity
  8
M1
  6
CONTINUOUS
370
25
 62
     7
100
AcDbCircle
 10
770.73308
 20
650.433262
 40
3.5
100
AcDbArc
 50
0.0
 51
90.0
  0
ARC
  5
1CF
100
AcDbEntity
  8
M1
  6
CONTINUOUS
370
25
 62
     7
100
AcDbCircle
 10
834.73308
 20
524.433246
 40
2.0
100
AcDbArc
 50
180.0
 51
270.0
  0
ARC
  5
1D0
100
AcDbEntity
  8
M1
  6
CONTINUOUS
370
25
 62
     7
100
AcDbCircle
 10
824.73308
 20
562.433262
 40
8.0
100
AcDbArc
 50
0.0
 51
90.0
  0
ARC
  5
1D1
100
AcDbEntity
  8
M1
  6
CONTINUOUS
370
25
 62
     7
100
AcDbCircle
 10
829.232774
 20
541.683842
 40
3.999998
100
AcDbArc
 50
179.293793
 51
214.263844
  0
ARC
  5
1D2
100
AcDbEntity
  8
M1
  6
CONTINUOUS
370
25
 62
     7
100
AcDbCircle
 10
829.232774
 20
529.182742
 40
3.999914
100
AcDbArc
 50
145.737244
 51
180.70752
  0
ARC
  5
1D3
100
AcDbEntity
  8
M1
  6
CONTINUOUS
370
25
 62
     7
100
AcDbCircle
 10
770.73308
 20
650.433262
 40
3.5
100
AcDbArc
 50
270.0
 51
360.0
  0
ARC
  5
1D4
100
AcDbEntity
  8
M1
  6
CONTINUOUS
370
25
 62
     7
100
AcDbCircle
 10
441.463914
 20
650.433262
 40
14.999926
100
AcDbArc
 50
13.493466
 51
346.506528
  0
CIRCLE
  5
1D5
100
AcDbEntity
  8
M1
  6
CONTINUOUS
370
25
 62
     7
100
AcDbCircle
 10
441.463914
 20
650.433262
 40
128.0
  0
ARC
  5
1D6
100
AcDbEntity
  8
M1
  6
CONTINUOUS
370
25
 62
     7
100
AcDbCircle
 10
544.89702
 20
801.583256
 40
11.199982
100
AcDbArc
 50
90.0
 51
150.001331
  0
ARC
  5
1D7
100
AcDbEntity
  8
M1
  6
CONTINUOUS
370
25
 62
     7
100
AcDbCircle
 10
544.89702
 20
801.583256
 40
13.99997
100
AcDbArc
 50
90.004494
 51
150.001324
  0
ARC
  5
1D8
100
AcDbEntity
  8
M1
  6
CONTINUOUS
370
25
 62
     7
100
AcDbCircle
 10
520.647874
 20
815.583224
 40
11.199606
100
AcDbArc
 50
329.999512
 51
390.001572
  0
ARC
  5
1D9
100
AcDbEntity
  8
M1
  6
CONTINUOUS
370
25
 62
     7
100
AcDbCircle
 10
520.647874
 20
815.583224
 40
13.999802
100
AcDbArc
 50
329.999664
 51
390.000416
  0
CIRCLE
  5
1DA
100
AcDbEntity
  8
M1
  6
CONTINUOUS
370
25
 62
     7
100
AcDbCircle
 10
541.056688
 20
707.933262
 40
6.5
  0
CIRCLE
  5
1DB
100
AcDbEntity
  8
M1
  6
CONTINUOUS
370
25
 62
     7
100
AcDbCircle
 10
441.463914
 20
765.433262
 40
6.5
  0
CIRCLE
  5
1DC
100
AcDbEntity
  8
M1
  6
CONTINUOUS
370
25
 62
     7
100
AcDbCircle
 10
341.87047
 20
707.933262
 40
6.5
  0
CIRCLE
  5
1DD
100
AcDbEntity
  8
M1
  6
CONTINUOUS
370
25
 62
     7
100
AcDbCircle
 10
341.87047
 20
592.933354
 40
6.5
  0
CIRCLE
  5
1DE
100
AcDbEntity
  8
M1
  6
CONTINUOUS
370
25
 62
     7
100
AcDbCircle
 10
441.463914
 20
535.433354
 40
6.5
  0
CIRCLE
  5
1DF
100
AcDbEntity
  8
M1
  6
CONTINUOUS
370
25
 62
     7
100
AcDbCircle
 10
541.056688
 20
592.933262
 40
6.5
  0
ARC
  5
1E0
100
AcDbEntity
  8
M1
  6
CONTINUOUS
370
25
 62
     7
100
AcDbCircle
 10
829.232774
 20
759.182742
 40
3.999906
100
AcDbArc
 50
145.737427
 51
180.707741
  0
ARC
  5
1E1
100
AcDbEntity
  8
M1
  6
CONTINUOUS
370
25
 62
     7
100
AcDbCircle
 10
829.232774
 20
771.683842
 40
3.999998
100
AcDbArc
 50
179.293579
 51
214.263664
  0
ARC
  5
1E2
100
AcDbEntity
  8
M1
  6
CONTINUOUS
370
25
 62
     7
100
AcDbCircle
 10
829.232774
 20
599.183842
 40
3.999998
100
AcDbArc
 50
179.293579
 51
214.263664
  0
ARC
  5
1E3
100
AcDbEntity
  8
M1
  6
CONTINUOUS
370
25
 62
     7
100
AcDbCircle
 10
829.232774
 20
586.682742
 40
3.999906
100
AcDbArc
 50
145.737427
 51
180.707741
  0
CIRCLE
  5
1E4
100
AcDbEntity
  8
M1
  6
CONTINUOUS
370
25
 62
     7
100
AcDbCircle
 10
441.463914
 20
650.433262
 40
50.0
  0
CIRCLE
  5
1E5
100
AcDbEntity
  8
M1
  6
CONTINUOUS
370
25
 62
     7
100
AcDbCircle
 10
441.463914
 20
650.433262
 40
40.0
  0
ARC
  5
1E6
100
AcDbEntity
  8
M1
  6
CONTINUOUS
370
13
 62
     7
100
AcDbCircle
 10
441.463914
 20
650.433262
 40
69.999962
100
AcDbArc
 50
23.730005
 51
36.656736
  0
CIRCLE
  5
1E7
100
AcDbEntity
  8
M1
  6
CONTINUOUS
370
13
 62
     7
100
AcDbCircle
 10
380.842516
 20
685.433262
 40
5.0
  0
CIRCLE
  5
1E8
100
AcDbEntity
  8
M1
  6
CONTINUOUS
370
25
 62
     7
100
AcDbCircle
 10
380.842516
 20
685.433262
 40
4.184936
  0
ARC
  5
1E9
100
AcDbEntity
  8
M1
  6
CONTINUOUS
370
25
 62
     7
100
AcDbCircle
 10
380.842516
 20
685.433262
 40
10.00002
100
AcDbArc
 50
60.000069
 51
239.999901
  0
ARC
  5
1EA
100
AcDbEntity
  8
M1
  6
CONTINUOUS
370
25
 62
     7
100
AcDbCircle
 10
427.463486
 20
705.68726
 40
4.000172
100
AcDbArc
 50
284.226013
 51
360.0
  0
ARC
  5
1EB
100
AcDbEntity
  8
M1
  6
CONTINUOUS
370
25
 62
     7
100
AcDbCircle
 10
426.035508
 20
705.305454
 40
4.000226
100
AcDbArc
 50
201.998489
 51
285.694283
  0
CIRCLE
  5
1EC
100
AcDbEntity
  8
M1
  6
CONTINUOUS
370
13
 62
     7
100
AcDbCircle
 10
441.463914
 20
720.433262
 40
5.0
  0
CIRCLE
  5
1ED
100
AcDbEntity
  8
M1
  6
CONTINUOUS
370
25
 62
     7
100
AcDbCircle
 10
441.463914
 20
720.433262
 40
4.184998
  0
ARC
  5
1EE
100
AcDbEntity
  8
M1
  6
CONTINUOUS
370
25
 62
     7
100
AcDbCircle
 10
441.463914
 20
720.433262
 40
10.0
100
AcDbArc
 50
0.0
 51
180.0
  0
ARC
  5
1EF
100
AcDbEntity
  8
M1
  6
CONTINUOUS
370
25
 62
     7
100
AcDbCircle
 10
400.612534
 20
690.184634
 40
4.000062
100
AcDbArc
 50
240.000504
 51
315.783562
  0
ARC
  5
1F0
100
AcDbEntity
  8
M1
  6
CONTINUOUS
370
25
 62
     7
100
AcDbCircle
 10
401.657456
 20
691.231144
 40
4.000452
100
AcDbArc
 50
314.301819
 51
398.000206
  0
ARC
  5
1F1
100
AcDbEntity
  8
M1
  6
CONTINUOUS
370
25
 62
     7
100
AcDbCircle
 10
411.507554
 20
698.926852
 40
4.000026
100
AcDbArc
 50
217.999161
 51
301.70224
  0
ARC
  5
1F2
100
AcDbEntity
  8
M1
  6
CONTINUOUS
370
25
 62
     7
100
AcDbCircle
 10
414.445542
 20
700.622746
 40
3.999884
100
AcDbArc
 50
298.294098
 51
382.00528
  0
ARC
  5
1F3
100
AcDbEntity
  8
M1
  6
CONTINUOUS
370
25
 62
     7
100
AcDbCircle
 10
441.463914
 20
650.433262
 40
52.99997
100
AcDbArc
 50
104.217964
 51
135.781752
  0
CIRCLE
  5
1F4
100
AcDbEntity
  8
M1
  6
CONTINUOUS
370
13
 62
     7
100
AcDbCircle
 10
502.08568
 20
685.433262
 40
5.0
  0
CIRCLE
  5
1F5
100
AcDbEntity
  8
M1
  6
CONTINUOUS
370
25
 62
     7
100
AcDbCircle
 10
502.08568
 20
685.433262
 40
4.184998
  0
ARC
  5
1F6
100
AcDbEntity
  8
M1
  6
CONTINUOUS
370
25
 62
     7
100
AcDbCircle
 10
502.08568
 20
685.433262
 40
9.999968
100
AcDbArc
 50
300.000092
 51
479.999924
  0
CIRCLE
  5
1F7
100
AcDbEntity
  8
M1
  6
CONTINUOUS
370
13
 62
     7
100
AcDbCircle
 10
502.08568
 20
615.433262
 40
5.0
  0
CIRCLE
  5
1F8
100
AcDbEntity
  8
M1
  6
CONTINUOUS
370
25
 62
     7
100
AcDbCircle
 10
502.08568
 20
615.433262
 40
4.184998
  0
ARC
  5
1F9
100
AcDbEntity
  8
M1
  6
CONTINUOUS
370
25
 62
     7
100
AcDbCircle
 10
502.08568
 20
615.433262
 40
10.000048
100
AcDbArc
 50
240.000153
 51
419.999802
  0
CIRCLE
  5
1FA
100
AcDbEntity
  8
M1
  6
CONTINUOUS
370
13
 62
     7
100
AcDbCircle
 10
441.463914
 20
580.433262
 40
5.0
  0
CIRCLE
  5
1FB
100
AcDbEntity
  8
M1
  6
CONTINUOUS
370
25
 62
     7
100
AcDbCircle
 10
441.463914
 20
580.433262
 40
4.184998
  0
ARC
  5
1FC
100
AcDbEntity
  8
M1
  6
CONTINUOUS
370
25
 62
     7
100
AcDbCircle
 10
441.463914
 20
580.433262
 40
10.000428
100
AcDbArc
 50
180.0
 51
360.0
  0
CIRCLE
  5
1FD
100
AcDbEntity
  8
M1
  6
CONTINUOUS
370
13
 62
     7
100
AcDbCircle
 10
380.842516
 20
615.433262
 40
5.0
  0
CIRCLE
  5
1FE
100
AcDbEntity
  8
M1
  6
CONTINUOUS
370
25
 62
     7
100
AcDbCircle
 10
380.842516
 20
615.433262
 40
4.184936
  0
ARC
  5
1FF
100
AcDbEntity
  8
M1
  6
CONTINUOUS
370
25
 62
     7
100
AcDbCircle
 10
380.842516
 20
615.433262
 40
10.00002
100
AcDbArc
 50
119.999931
 51
300.000099
  0
ARC
  5
200
100
AcDbEntity
  8
M1
  6
CONTINUOUS
370
13
 62
     7
100
AcDbCircle
 10
441.463914
 20
650.433262
 40
70.000152
100
AcDbArc
 50
143.585892
 51
156.592571
  0
ARC
  5
201
100
AcDbEntity
  8
M1
  6
CONTINUOUS
370
13
 62
     7
100
AcDbCircle
 10
441.463914
 20
650.433262
 40
69.999978
100
AcDbArc
 50
83.502083
 51
96.758891
  0
ARC
  5
202
100
AcDbEntity
  8
M1
  6
CONTINUOUS
370
13
 62
     7
100
AcDbCircle
 10
441.463914
 20
650.433262
 40
70.000016
100
AcDbArc
 50
323.83902
 51
336.342739
  0
ARC
  5
203
100
AcDbEntity
  8
M1
  6
CONTINUOUS
370
13
 62
     7
100
AcDbCircle
 10
441.463914
 20
650.433262
 40
69.999946
100
AcDbArc
 50
263.565735
 51
276.173457
  0
ARC
  5
204
100
AcDbEntity
  8
M1
  6
CONTINUOUS
370
13
 62
     7
100
AcDbCircle
 10
441.463914
 20
650.433262
 40
69.999886
100
AcDbArc
 50
203.936829
 51
216.679164
  0
ARC
  5
205
100
AcDbEntity
  8
M1
  6
CONTINUOUS
370
25
 62
     7
100
AcDbCircle
 10
441.463914
 20
650.433262
 40
72.00003
100
AcDbArc
 50
101.881065
 51
106.726175
  0
ARC
  5
206
100
AcDbEntity
  8
M1
  6
CONTINUOUS
370
25
 62
     7
100
AcDbCircle
 10
441.463914
 20
650.433262
 40
71.999772
100
AcDbArc
 50
133.273392
 51
138.118932
  0
ARC
  5
207
100
AcDbEntity
  8
M1
  6
CONTINUOUS
370
25
 62
     7
100
AcDbCircle
 10
441.463914
 20
650.433262
 40
72.00013
100
AcDbArc
 50
117.273712
 51
122.726511
  0
ARC
  5
208
100
AcDbEntity
  8
M1
  6
CONTINUOUS
370
25
 62
     7
100
AcDbCircle
 10
390.835558
 20
695.829258
 40
3.999886
100
AcDbArc
 50
138.118591
 51
240.000076
  0
ARC
  5
209
100
AcDbEntity
  8
M1
  6
CONTINUOUS
370
25
 62
     7
100
AcDbCircle
 10
394.851548
 20
699.943362
 40
3.999912
100
AcDbArc
 50
37.999893
 51
133.274704
  0
ARC
  5
20A
100
AcDbEntity
  8
M1
  6
CONTINUOUS
370
25
 62
     7
100
AcDbCircle
 10
404.701524
 20
707.639042
 40
4.000222
100
AcDbArc
 50
122.732048
 51
218.001274
  0
ARC
  5
20B
100
AcDbEntity
  8
M1
  6
CONTINUOUS
370
25
 62
     7
100
AcDbCircle
 10
410.303452
 20
710.87366
 40
4.000362
100
AcDbArc
 50
21.998644
 51
117.274309
  0
ARC
  5
20C
100
AcDbEntity
  8
M1
  6
CONTINUOUS
370
25
 62
     7
100
AcDbCircle
 10
421.89348
 20
715.556248
 40
3.99999
100
AcDbArc
 50
106.723358
 51
201.998482
  0
ARC
  5
20D
100
AcDbEntity
  8
M1
  6
CONTINUOUS
370
25
 62
     7
100
AcDbCircle
 10
427.463486
 20
716.976536
 40
4.0
100
AcDbArc
 50
0.0
 51
101.873711
  0
ARC
  5
20E
100
AcDbEntity
  8
M1
  6
CONTINUOUS
370
25
 62
     7
100
AcDbCircle
 10
441.463914
 20
650.433262
 40
72.000016
100
AcDbArc
 50
73.273544
 51
78.118981
  0
ARC
  5
20F
100
AcDbEntity
  8
M1
  6
CONTINUOUS
370
25
 62
     7
100
AcDbCircle
 10
455.463914
 20
716.976536
 40
3.999966
100
AcDbArc
 50
78.121155
 51
180.0
  0
ARC
  5
210
100
AcDbEntity
  8
M1
  6
CONTINUOUS
370
25
 62
     7
100
AcDbCircle
 10
461.03441
 20
715.556156
 40
4.000056
100
AcDbArc
 50
338.000519
 51
433.272316
  0
ARC
  5
211
100
AcDbEntity
  8
M1
  6
CONTINUOUS
370
25
 62
     7
100
AcDbCircle
 10
456.892808
 20
705.305362
 40
3.99997
100
AcDbArc
 50
254.293579
 51
337.99987
  0
ARC
  5
212
100
AcDbEntity
  8
M1
  6
CONTINUOUS
370
25
 62
     7
100
AcDbCircle
 10
455.463914
 20
705.68726
 40
4.0
100
AcDbArc
 50
180.0
 51
255.780769
  0
ARC
  5
213
100
AcDbEntity
  8
M1
  6
CONTINUOUS
370
25
 62
     7
100
AcDbCircle
 10
441.463914
 20
650.433262
 40
52.999942
100
AcDbArc
 50
44.218082
 51
75.781969
  0
ARC
  5
214
100
AcDbEntity
  8
M1
  6
CONTINUOUS
370
25
 62
     7
100
AcDbCircle
 10
468.48253
 20
700.622836
 40
4.0
100
AcDbArc
 50
158.000198
 51
241.704987
  0
ARC
  5
215
100
AcDbEntity
  8
M1
  6
CONTINUOUS
370
25
 62
     7
100
AcDbCircle
 10
441.463914
 20
650.433262
 40
71.999938
100
AcDbArc
 50
57.273609
 51
62.726501
  0
ARC
  5
216
100
AcDbEntity
  8
M1
  6
CONTINUOUS
370
25
 62
     7
100
AcDbCircle
 10
472.62407
 20
710.87366
 40
4.000008
100
AcDbArc
 50
62.725689
 51
158.000278
  0
ARC
  5
217
100
AcDbEntity
  8
M1
  6
CONTINUOUS
370
25
 62
     7
100
AcDbCircle
 10
478.22667
 20
707.639042
 40
3.99996
100
AcDbArc
 50
322.000641
 51
417.275276
  0
ARC
  5
218
100
AcDbEntity
  8
M1
  6
CONTINUOUS
370
25
 62
     7
100
AcDbCircle
 10
471.419908
 20
698.926944
 40
4.000066
100
AcDbArc
 50
238.294724
 51
321.998718
  0
ARC
  5
219
100
AcDbEntity
  8
M1
  6
CONTINUOUS
370
25
 62
     7
100
AcDbCircle
 10
481.270128
 20
691.231144
 40
3.999978
100
AcDbArc
 50
142.000305
 51
225.70446
  0
ARC
  5
21A
100
AcDbEntity
  8
M1
  6
CONTINUOUS
370
25
 62
     7
100
AcDbCircle
 10
488.07683
 20
699.94324
 40
3.999944
100
AcDbArc
 50
46.726604
 51
142.000835
  0
ARC
  5
21B
100
AcDbEntity
  8
M1
  6
CONTINUOUS
370
25
 62
     7
100
AcDbCircle
 10
441.463914
 20
650.433262
 40
71.999992
100
AcDbArc
 50
41.881126
 51
46.72634
  0
ARC
  5
21C
100
AcDbEntity
  8
M1
  6
CONTINUOUS
370
25
 62
     7
100
AcDbCircle
 10
492.092028
 20
695.829258
 40
4.000008
100
AcDbArc
 50
299.999939
 51
401.880257
  0
ARC
  5
21D
100
AcDbEntity
  8
M1
  6
CONTINUOUS
370
25
 62
     7
100
AcDbCircle
 10
482.315172
 20
690.184634
 40
4.00001
100
AcDbArc
 50
224.218262
 51
299.999489
  0
ARC
  5
21E
100
AcDbEntity
  8
M1
  6
CONTINUOUS
370
25
 62
     7
100
AcDbCircle
 10
441.463914
 20
650.433262
 40
71.999946
100
AcDbArc
 50
13.273523
 51
18.11893
  0
ARC
  5
21F
100
AcDbEntity
  8
M1
  6
CONTINUOUS
370
25
 62
     7
100
AcDbCircle
 10
506.092028
 20
671.58054
 40
4.00006
100
AcDbArc
 50
18.119503
 51
119.999928
  0
ARC
  5
220
100
AcDbEntity
  8
M1
  6
CONTINUOUS
370
25
 62
     7
100
AcDbCircle
 10
507.647202
 20
666.046146
 40
4.00002
100
AcDbArc
 50
278.000092
 51
373.27243
  0
ARC
  5
221
100
AcDbEntity
  8
M1
  6
CONTINUOUS
370
25
 62
     7
100
AcDbCircle
 10
496.699022
 20
664.50745
 40
4.000058
100
AcDbArc
 50
194.294083
 51
278.000282
  0
ARC
  5
222
100
AcDbEntity
  8
M1
  6
CONTINUOUS
370
25
 62
     7
100
AcDbCircle
 10
496.315172
 20
665.935856
 40
3.999982
100
AcDbArc
 50
120.000153
 51
195.782257
  0
ARC
  5
223
100
AcDbEntity
  8
M1
  6
CONTINUOUS
370
25
 62
     7
100
AcDbCircle
 10
441.463914
 20
650.433262
 40
52.999988
100
AcDbArc
 50
344.218018
 51
375.781853
  0
ARC
  5
224
100
AcDbEntity
  8
M1
  6
CONTINUOUS
370
25
 62
     7
100
AcDbCircle
 10
498.438584
 20
652.129154
 40
4.00002
100
AcDbArc
 50
98.000099
 51
181.705093
  0
ARC
  5
225
100
AcDbEntity
  8
M1
  6
CONTINUOUS
370
25
 62
     7
100
AcDbCircle
 10
441.463914
 20
650.433262
 40
71.999962
100
AcDbArc
 50
357.273499
 51
362.726378
  0
ARC
  5
226
100
AcDbEntity
  8
M1
  6
CONTINUOUS
370
25
 62
     7
100
AcDbCircle
 10
509.386826
 20
653.66785
 40
4.000008
100
AcDbArc
 50
2.72523
 51
98.000094
  0
ARC
  5
227
100
AcDbEntity
  8
M1
  6
CONTINUOUS
370
25
 62
     7
100
AcDbCircle
 10
509.386888
 20
647.198642
 40
4.00002
100
AcDbArc
 50
261.999908
 51
357.273026
  0
ARC
  5
228
100
AcDbEntity
  8
M1
  6
CONTINUOUS
370
25
 62
     7
100
AcDbCircle
 10
498.438584
 20
648.73746
 40
3.99994
100
AcDbArc
 50
178.295349
 51
261.999969
  0
ARC
  5
229
100
AcDbEntity
  8
M1
  6
CONTINUOUS
370
25
 62
     7
100
AcDbCircle
 10
496.699022
 20
636.358952
 40
4.00002
100
AcDbArc
 50
81.999901
 51
165.704643
  0
ARC
  5
22A
100
AcDbEntity
  8
M1
  6
CONTINUOUS
370
25
 62
     7
100
AcDbCircle
 10
507.647202
 20
634.820254
 40
3.999928
100
AcDbArc
 50
346.726288
 51
442.001633
  0
ARC
  5
22B
100
AcDbEntity
  8
M1
  6
CONTINUOUS
370
25
 62
     7
100
AcDbCircle
 10
441.463914
 20
650.433262
 40
71.999954
100
AcDbArc
 50
341.881042
 51
346.726285
  0
ARC
  5
22C
100
AcDbEntity
  8
M1
  6
CONTINUOUS
370
25
 62
     7
100
AcDbCircle
 10
506.092028
 20
629.285954
 40
4.000008
100
AcDbArc
 50
240.000076
 51
341.880501
  0
ARC
  5
22D
100
AcDbEntity
  8
M1
  6
CONTINUOUS
370
25
 62
     7
100
AcDbCircle
 10
496.315172
 20
634.930638
 40
4.00003
100
AcDbArc
 50
164.217987
 51
239.999855
  0
ARC
  5
22E
100
AcDbEntity
  8
M1
  6
CONTINUOUS
370
25
 62
     7
100
AcDbCircle
 10
441.463914
 20
650.433262
 40
71.999962
100
AcDbArc
 50
313.273529
 51
318.118829
  0
ARC
  5
22F
100
AcDbEntity
  8
M1
  6
CONTINUOUS
370
25
 62
     7
100
AcDbCircle
 10
492.092028
 20
605.037234
 40
3.999976
100
AcDbArc
 50
318.119751
 51
420.000069
  0
ARC
  5
230
100
AcDbEntity
  8
M1
  6
CONTINUOUS
370
25
 62
     7
100
AcDbCircle
 10
488.076586
 20
600.923252
 40
3.99993
100
AcDbArc
 50
218.000244
 51
313.27314
  0
ARC
  5
231
100
AcDbEntity
  8
M1
  6
CONTINUOUS
370
25
 62
     7
100
AcDbCircle
 10
481.270006
 20
609.635348
 40
3.999984
100
AcDbArc
 50
134.294922
 51
217.999893
  0
ARC
  5
232
100
AcDbEntity
  8
M1
  6
CONTINUOUS
370
25
 62
     7
100
AcDbCircle
 10
482.315172
 20
610.68195
 40
4.000008
100
AcDbArc
 50
60.000069
 51
135.781418
  0
ARC
  5
233
100
AcDbEntity
  8
M1
  6
CONTINUOUS
370
25
 62
     7
100
AcDbCircle
 10
441.463914
 20
650.433262
 40
53.000016
100
AcDbArc
 50
284.218018
 51
315.781773
  0
ARC
  5
234
100
AcDbEntity
  8
M1
  6
CONTINUOUS
370
25
 62
     7
100
AcDbCircle
 10
471.419908
 20
601.93964
 40
3.999986
100
AcDbArc
 50
38.001274
 51
121.705269
  0
ARC
  5
235
100
AcDbEntity
  8
M1
  6
CONTINUOUS
370
25
 62
     7
100
AcDbCircle
 10
441.463914
 20
650.433262
 40
72.000016
100
AcDbArc
 50
297.273499
 51
302.726402
  0
ARC
  5
236
100
AcDbEntity
  8
M1
  6
CONTINUOUS
370
25
 62
     7
100
AcDbCircle
 10
478.226488
 20
593.227542
 40
4.000042
100
AcDbArc
 50
302.72644
 51
397.999176
  0
ARC
  5
237
100
AcDbEntity
  8
M1
  6
CONTINUOUS
370
25
 62
     7
100
AcDbCircle
 10
472.62407
 20
589.992862
 40
3.999942
100
AcDbArc
 50
202.000122
 51
297.274109
  0
ARC
  5
238
100
AcDbEntity
  8
M1
  6
CONTINUOUS
370
25
 62
     7
100
AcDbCircle
 10
468.48253
 20
600.243748
 40
4.000022
100
AcDbArc
 50
118.295013
 51
201.999802
  0
ARC
  5
239
100
AcDbEntity
  8
M1
  6
CONTINUOUS
370
25
 62
     7
100
AcDbCircle
 10
456.892686
 20
595.56116
 40
3.999988
100
AcDbArc
 50
21.999392
 51
105.704493
  0
ARC
  5
23A
100
AcDbEntity
  8
M1
  6
CONTINUOUS
370
25
 62
     7
100
AcDbCircle
 10
461.034288
 20
585.310336
 40
4.000012
100
AcDbArc
 50
286.726013
 51
381.999809
  0
ARC
  5
23B
100
AcDbEntity
  8
M1
  6
CONTINUOUS
370
25
 62
     7
100
AcDbCircle
 10
441.463914
 20
650.433262
 40
71.999962
100
AcDbArc
 50
281.881042
 51
286.726276
  0
ARC
  5
23C
100
AcDbEntity
  8
M1
  6
CONTINUOUS
370
25
 62
     7
100
AcDbCircle
 10
455.463914
 20
583.889958
 40
4.0
100
AcDbArc
 50
180.0
 51
281.878845
  0
ARC
  5
23D
100
AcDbEntity
  8
M1
  6
CONTINUOUS
370
25
 62
     7
100
AcDbCircle
 10
455.463914
 20
595.179356
 40
3.999934
100
AcDbArc
 50
104.219658
 51
180.0
  0
ARC
  5
23E
100
AcDbEntity
  8
M1
  6
CONTINUOUS
370
25
 62
     7
100
AcDbCircle
 10
441.463914
 20
650.433262
 40
71.999938
100
AcDbArc
 50
253.273834
 51
258.118927
  0
ARC
  5
23F
100
AcDbEntity
  8
M1
  6
CONTINUOUS
370
25
 62
     7
100
AcDbCircle
 10
427.463486
 20
583.889958
 40
3.99989
100
AcDbArc
 50
258.126282
 51
359.999992
  0
ARC
  5
240
100
AcDbEntity
  8
M1
  6
CONTINUOUS
370
25
 62
     7
100
AcDbCircle
 10
421.89348
 20
585.310336
 40
4.00026
100
AcDbArc
 50
158.00029
 51
253.276131
  0
ARC
  5
241
100
AcDbEntity
  8
M1
  6
CONTINUOUS
370
25
 62
     7
100
AcDbCircle
 10
426.03447
 20
595.56116
 40
4.000078
100
AcDbArc
 50
74.291298
 51
157.995132
  0
ARC
  5
242
100
AcDbEntity
  8
M1
  6
CONTINUOUS
370
25
 62
     7
100
AcDbCircle
 10
427.463486
 20
595.179356
 40
4.0
100
AcDbArc
 50
0.0
 51
75.773987
  0
ARC
  5
243
100
AcDbEntity
  8
M1
  6
CONTINUOUS
370
25
 62
     7
100
AcDbCircle
 10
441.463914
 20
650.433262
 40
52.999856
100
AcDbArc
 50
224.21817
 51
255.782038
  0
ARC
  5
244
100
AcDbEntity
  8
M1
  6
CONTINUOUS
370
25
 62
     7
100
AcDbCircle
 10
414.445542
 20
600.243748
 40
3.999264
100
AcDbArc
 50
337.995941
 51
421.706528
  0
ARC
  5
245
100
AcDbEntity
  8
M1
  6
CONTINUOUS
370
25
 62
     7
100
AcDbCircle
 10
441.463914
 20
650.433262
 40
72.000038
100
AcDbArc
 50
237.273483
 51
242.726293
  0
ARC
  5
246
100
AcDbEntity
  8
M1
  6
CONTINUOUS
370
25
 62
     7
100
AcDbCircle
 10
410.303452
 20
589.992954
 40
4.000008
100
AcDbArc
 50
242.725693
 51
338.002174
  0
ARC
  5
247
100
AcDbEntity
  8
M1
  6
CONTINUOUS
370
25
 62
     7
100
AcDbCircle
 10
404.701524
 20
593.227452
 40
3.999912
100
AcDbArc
 50
142.000107
 51
237.267715
  0
ARC
  5
248
100
AcDbEntity
  8
M1
  6
CONTINUOUS
370
25
 62
     7
100
AcDbCircle
 10
411.507554
 20
601.93964
 40
3.999904
100
AcDbArc
 50
58.29845
 51
142.000835
  0
ARC
  5
249
100
AcDbEntity
  8
M1
  6
CONTINUOUS
370
25
 62
     7
100
AcDbCircle
 10
401.657456
 20
609.63544
 40
4.000064
100
AcDbArc
 50
322.000153
 51
405.698196
  0
ARC
  5
24A
100
AcDbEntity
  8
M1
  6
CONTINUOUS
370
25
 62
     7
100
AcDbCircle
 10
394.85045
 20
600.923344
 40
4.00003
100
AcDbArc
 50
226.726563
 51
322.008408
  0
ARC
  5
24B
100
AcDbEntity
  8
M1
  6
CONTINUOUS
370
25
 62
     7
100
AcDbCircle
 10
441.463914
 20
650.433262
 40
72.000106
100
AcDbArc
 50
221.881073
 51
226.725979
  0
ARC
  5
24C
100
AcDbEntity
  8
M1
  6
CONTINUOUS
370
25
 62
     7
100
AcDbCircle
 10
390.835558
 20
605.037234
 40
4.000008
100
AcDbArc
 50
119.999931
 51
221.881416
  0
ARC
  5
24D
100
AcDbEntity
  8
M1
  6
CONTINUOUS
370
25
 62
     7
100
AcDbCircle
 10
400.612534
 20
610.68195
 40
4.000162
100
AcDbArc
 50
44.216751
 51
119.999931
  0
ARC
  5
24E
100
AcDbEntity
  8
M1
  6
CONTINUOUS
370
25
 62
     7
100
AcDbCircle
 10
441.463914
 20
650.433262
 40
71.99984
100
AcDbArc
 50
193.273575
 51
198.119034
  0
ARC
  5
24F
100
AcDbEntity
  8
M1
  6
CONTINUOUS
370
25
 62
     7
100
AcDbCircle
 10
376.835558
 20
629.285954
 40
3.999422
100
AcDbArc
 50
198.122498
 51
299.999931
  0
ARC
  5
250
100
AcDbEntity
  8
M1
  6
CONTINUOUS
370
25
 62
     7
100
AcDbCircle
 10
375.280504
 20
634.820438
 40
3.99997
100
AcDbArc
 50
98.004608
 51
193.274117
  0
ARC
  5
251
100
AcDbEntity
  8
M1
  6
CONTINUOUS
370
25
 62
     7
100
AcDbCircle
 10
386.228502
 20
636.359134
 40
3.99982
100
AcDbArc
 50
14.294945
 51
98.004547
  0
ARC
  5
252
100
AcDbEntity
  8
M1
  6
CONTINUOUS
370
25
 62
     7
100
AcDbCircle
 10
386.612534
 20
634.930638
 40
3.999982
100
AcDbArc
 50
300.000153
 51
375.782967
  0
ARC
  5
253
100
AcDbEntity
  8
M1
  6
CONTINUOUS
370
25
 62
     7
100
AcDbCircle
 10
441.463914
 20
650.433262
 40
53.00024
100
AcDbArc
 50
164.218246
 51
195.781775
  0
ARC
  5
254
100
AcDbEntity
  8
M1
  6
CONTINUOUS
370
25
 62
     7
100
AcDbCircle
 10
384.489488
 20
648.737338
 40
3.999834
100
AcDbArc
 50
277.990753
 51
361.706451
  0
ARC
  5
255
100
AcDbEntity
  8
M1
  6
CONTINUOUS
370
25
 62
     7
100
AcDbCircle
 10
441.463914
 20
650.433262
 40
71.9999
100
AcDbArc
 50
177.273529
 51
182.726413
  0
ARC
  5
256
100
AcDbEntity
  8
M1
  6
CONTINUOUS
370
25
 62
     7
100
AcDbCircle
 10
373.540514
 20
647.198734
 40
3.999524
100
AcDbArc
 50
182.726868
 51
278.004417
  0
ARC
  5
257
100
AcDbEntity
  8
M1
  6
CONTINUOUS
370
25
 62
     7
100
AcDbCircle
 10
373.540514
 20
653.66785
 40
4.000062
100
AcDbArc
 50
81.995575
 51
177.27269
  0
ARC
  5
258
100
AcDbEntity
  8
M1
  6
CONTINUOUS
370
25
 62
     7
100
AcDbCircle
 10
384.489488
 20
652.129154
 40
3.999818
100
AcDbArc
 50
358.294861
 51
442.00943
  0
ARC
  5
259
100
AcDbEntity
  8
M1
  6
CONTINUOUS
370
25
 62
     7
100
AcDbCircle
 10
386.228502
 20
664.507664
 40
3.999956
100
AcDbArc
 50
262.009491
 51
345.703789
  0
ARC
  5
25A
100
AcDbEntity
  8
M1
  6
CONTINUOUS
370
25
 62
     7
100
AcDbCircle
 10
375.280504
 20
666.046238
 40
3.999808
100
AcDbArc
 50
166.725891
 51
261.995575
  0
ARC
  5
25B
100
AcDbEntity
  8
M1
  6
CONTINUOUS
370
25
 62
     7
100
AcDbCircle
 10
441.463914
 20
650.433262
 40
71.999656
100
AcDbArc
 50
161.880997
 51
166.726315
  0
ARC
  5
25C
100
AcDbEntity
  8
M1
  6
CONTINUOUS
370
25
 62
     7
100
AcDbCircle
 10
376.835558
 20
671.58054
 40
4.000008
100
AcDbArc
 50
60.000069
 51
161.877502
  0
ARC
  5
25D
100
AcDbEntity
  8
M1
  6
CONTINUOUS
370
25
 62
     7
100
AcDbCircle
 10
386.612534
 20
665.935856
 40
3.999762
100
AcDbArc
 50
344.218719
 51
419.999855
  0
ARC
  5
25E
100
AcDbEntity
  8
M1
  6
CONTINUOUS
370
25
 62
     7
100
AcDbCircle
 10
441.463914
 20
650.433262
 40
102.499962
100
AcDbArc
 50
354.423676
 51
365.576334
  0
ARC
  5
25F
100
AcDbEntity
  8
M1
  6
CONTINUOUS
370
25
 62
     7
100
AcDbCircle
 10
441.463914
 20
650.433262
 40
87.499938
100
AcDbArc
 50
354.72171
 51
365.278272
  0
ARC
  5
260
100
AcDbEntity
  8
M1
  6
CONTINUOUS
370
25
 62
     7
100
AcDbCircle
 10
541.488328
 20
660.19904
 40
1.999948
100
AcDbArc
 50
5.578013
 51
98.002879
  0
ARC
  5
261
100
AcDbEntity
  8
M1
  6
CONTINUOUS
370
25
 62
     7
100
AcDbCircle
 10
530.584276
 20
658.66666
 40
1.999952
100
AcDbArc
 50
97.997681
 51
185.279442
  0
ARC
  5
262
100
AcDbEntity
  8
M1
  6
CONTINUOUS
370
25
 62
     7
100
AcDbCircle
 10
541.488328
 20
640.667546
 40
2.000068
100
AcDbArc
 50
261.997498
 51
354.421997
  0
ARC
  5
263
100
AcDbEntity
  8
M1
  6
CONTINUOUS
370
25
 62
     7
100
AcDbCircle
 10
530.584276
 20
642.199864
 40
1.999944
100
AcDbArc
 50
174.718811
 51
262.002434
  0
ARC
  5
264
100
AcDbEntity
  8
M1
  6
CONTINUOUS
370
25
 62
     7
100
AcDbCircle
 10
441.463914
 20
650.433262
 40
102.499954
100
AcDbArc
 50
54.423729
 51
65.576356
  0
ARC
  5
265
100
AcDbEntity
  8
M1
  6
CONTINUOUS
370
25
 62
     7
100
AcDbCircle
 10
441.463914
 20
650.433262
 40
87.500022
100
AcDbArc
 50
54.721783
 51
65.278275
  0
ARC
  5
266
100
AcDbEntity
  8
M1
  6
CONTINUOUS
370
25
 62
     7
100
AcDbCircle
 10
483.018724
 20
741.939854
 40
1.999938
100
AcDbArc
 50
65.577316
 51
158.000854
  0
ARC
  5
267
100
AcDbEntity
  8
M1
  6
CONTINUOUS
370
25
 62
     7
100
AcDbCircle
 10
478.893784
 20
731.730564
 40
1.999988
100
AcDbArc
 50
158.001007
 51
245.27993
  0
ARC
  5
268
100
AcDbEntity
  8
M1
  6
CONTINUOUS
370
25
 62
     7
100
AcDbCircle
 10
499.933518
 20
732.174046
 40
1.999956
100
AcDbArc
 50
322.000092
 51
414.426941
  0
ARC
  5
269
100
AcDbEntity
  8
M1
  6
CONTINUOUS
370
25
 62
     7
100
AcDbCircle
 10
493.154404
 20
723.497134
 40
1.999978
100
AcDbArc
 50
234.721481
 51
322.002251
  0
ARC
  5
26A
100
AcDbEntity
  8
M1
  6
CONTINUOUS
370
25
 62
     7
100
AcDbCircle
 10
441.463914
 20
650.433262
 40
102.499856
100
AcDbArc
 50
114.423492
 51
125.576414
  0
ARC
  5
26B
100
AcDbEntity
  8
M1
  6
CONTINUOUS
370
25
 62
     7
100
AcDbCircle
 10
441.463914
 20
650.433262
 40
87.49997
100
AcDbArc
 50
114.721687
 51
125.278283
  0
ARC
  5
26C
100
AcDbEntity
  8
M1
  6
CONTINUOUS
370
25
 62
     7
100
AcDbCircle
 10
382.994492
 20
732.174136
 40
2.00016
100
AcDbArc
 50
125.585945
 51
217.998817
  0
ARC
  5
26D
100
AcDbEntity
  8
M1
  6
CONTINUOUS
370
25
 62
     7
100
AcDbCircle
 10
389.773546
 20
723.497134
 40
2.000004
100
AcDbArc
 50
217.998825
 51
305.274239
  0
ARC
  5
26E
100
AcDbEntity
  8
M1
  6
CONTINUOUS
370
25
 62
     7
100
AcDbCircle
 10
399.909532
 20
741.939762
 40
1.999694
100
AcDbArc
 50
22.006161
 51
114.424778
  0
ARC
  5
26F
100
AcDbEntity
  8
M1
  6
CONTINUOUS
370
25
 62
     7
100
AcDbCircle
 10
404.033556
 20
731.730564
 40
2.000216
100
AcDbArc
 50
294.734344
 51
381.995667
  0
ARC
  5
270
100
AcDbEntity
  8
M1
  6
CONTINUOUS
370
25
 62
     7
100
AcDbCircle
 10
441.463914
 20
650.433262
 40
102.500504
100
AcDbArc
 50
174.423706
 51
185.576304
  0
ARC
  5
271
100
AcDbEntity
  8
M1
  6
CONTINUOUS
370
25
 62
     7
100
AcDbCircle
 10
441.463914
 20
650.433262
 40
87.50048
100
AcDbArc
 50
174.721756
 51
185.278192
  0
ARC
  5
272
100
AcDbEntity
  8
M1
  6
CONTINUOUS
370
25
 62
     7
100
AcDbCircle
 10
341.43944
 20
640.667546
 40
2.000434
100
AcDbArc
 50
185.57666
 51
277.992126
  0
ARC
  5
273
100
AcDbEntity
  8
M1
  6
CONTINUOUS
370
25
 62
     7
100
AcDbCircle
 10
352.343492
 20
642.199954
 40
2.00003
100
AcDbArc
 50
277.988525
 51
365.279846
  0
ARC
  5
274
100
AcDbEntity
  8
M1
  6
CONTINUOUS
370
25
 62
     7
100
AcDbCircle
 10
341.43944
 20
660.19904
 40
1.999926
100
AcDbArc
 50
82.007515
 51
174.425957
  0
ARC
  5
275
100
AcDbEntity
  8
M1
  6
CONTINUOUS
370
25
 62
     7
100
AcDbCircle
 10
352.343492
 20
658.66666
 40
1.999454
100
AcDbArc
 50
354.719269
 51
442.010971
  0
ARC
  5
276
100
AcDbEntity
  8
M1
  6
CONTINUOUS
370
25
 62
     7
100
AcDbCircle
 10
441.463914
 20
650.433262
 40
102.500054
100
AcDbArc
 50
234.423553
 51
245.576511
  0
ARC
  5
277
100
AcDbEntity
  8
M1
  6
CONTINUOUS
370
25
 62
     7
100
AcDbCircle
 10
441.463914
 20
650.433262
 40
87.500008
100
AcDbArc
 50
234.721725
 51
245.278317
  0
ARC
  5
278
100
AcDbEntity
  8
M1
  6
CONTINUOUS
370
25
 62
     7
100
AcDbCircle
 10
399.909532
 20
558.926762
 40
2.0001
100
AcDbArc
 50
245.575577
 51
337.993835
  0
ARC
  5
279
100
AcDbEntity
  8
M1
  6
CONTINUOUS
370
25
 62
     7
100
AcDbCircle
 10
404.033556
 20
569.13596
 40
2.000566
100
AcDbArc
 50
338.006744
 51
425.266731
  0
ARC
  5
27A
100
AcDbEntity
  8
M1
  6
CONTINUOUS
370
25
 62
     7
100
AcDbCircle
 10
382.994492
 20
568.692448
 40
2.000078
100
AcDbArc
 50
141.998428
 51
234.413544
  0
ARC
  5
27B
100
AcDbEntity
  8
M1
  6
CONTINUOUS
370
25
 62
     7
100
AcDbCircle
 10
389.773546
 20
577.369358
 40
1.999872
100
AcDbArc
 50
54.725769
 51
142.001183
  0
ARC
  5
27C
100
AcDbEntity
  8
M1
  6
CONTINUOUS
370
25
 62
     7
100
AcDbCircle
 10
441.463914
 20
650.433262
 40
102.500008
100
AcDbArc
 50
294.423645
 51
305.576309
  0
ARC
  5
27D
100
AcDbEntity
  8
M1
  6
CONTINUOUS
370
25
 62
     7
100
AcDbCircle
 10
441.463914
 20
650.433262
 40
87.500022
100
AcDbArc
 50
294.72171
 51
305.278234
  0
ARC
  5
27E
100
AcDbEntity
  8
M1
  6
CONTINUOUS
370
25
 62
     7
100
AcDbCircle
 10
499.933518
 20
568.692448
 40
1.999922
100
AcDbArc
 50
305.577911
 51
397.999878
  0
ARC
  5
27F
100
AcDbEntity
  8
M1
  6
CONTINUOUS
370
25
 62
     7
100
AcDbCircle
 10
493.154404
 20
577.369358
 40
1.999956
100
AcDbArc
 50
37.999893
 51
125.278511
  0
ARC
  5
280
100
AcDbEntity
  8
M1
  6
CONTINUOUS
370
25
 62
     7
100
AcDbCircle
 10
483.018724
 20
558.926762
 40
2.00009
100
AcDbArc
 50
202.001572
 51
294.421234
  0
ARC
  5
281
100
AcDbEntity
  8
M1
  6
CONTINUOUS
370
25
 62
     7
100
AcDbCircle
 10
478.893784
 20
569.13596
 40
2.00007
100
AcDbArc
 50
114.718964
 51
201.999794
  0
CIRCLE
  5
282
100
AcDbEntity
  8
M1
  6
CONTINUOUS
370
25
 62
     7
100
AcDbCircle
 10
1261.002396
 20
650.433262
 40
145.00003
  0
ARC
  5
283
100
AcDbEntity
  8
M1
  6
CONTINUOUS
370
25
 62
     7
100
AcDbCircle
 10
1157.569292
 20
801.583256
 40
11.20001
100
AcDbArc
 50
29.998745
 51
90.0
  0
ARC
  5
284
100
AcDbEntity
  8
M1
  6
CONTINUOUS
370
25
 62
     7
100
AcDbCircle
 10
1157.569292
 20
801.583256
 40
13.999982
100
AcDbArc
 50
29.998598
 51
89.995878
  0
ARC
  5
285
100
AcDbEntity
  8
M1
  6
CONTINUOUS
370
25
 62
     7
100
AcDbCircle
 10
1181.818314
 20
815.583224
 40
11.199554
100
AcDbArc
 50
149.998108
 51
210.000713
  0
ARC
  5
286
100
AcDbEntity
  8
M1
  6
CONTINUOUS
370
25
 62
     7
100
AcDbCircle
 10
1181.818314
 20
815.583224
 40
13.999712
100
AcDbArc
 50
149.999313
 51
210.000565
  0
CIRCLE
  5
287
100
AcDbEntity
  8
M1
  6
CONTINUOUS
370
25
 62
     7
100
AcDbCircle
 10
1161.409502
 20
707.933262
 40
6.5
  0
CIRCLE
  5
288
100
AcDbEntity
  8
M1
  6
CONTINUOUS
370
25
 62
     7
100
AcDbCircle
 10
1261.002396
 20
765.433262
 40
6.5
  0
CIRCLE
  5
289
100
AcDbEntity
  8
M1
  6
CONTINUOUS
370
25
 62
     7
100
AcDbCircle
 10
1360.595322
 20
707.933262
 40
6.5
  0
CIRCLE
  5
28A
100
AcDbEntity
  8
M1
  6
CONTINUOUS
370
25
 62
     7
100
AcDbCircle
 10
1360.595322
 20
592.933354
 40
6.5
  0
CIRCLE
  5
28B
100
AcDbEntity
  8
M1
  6
CONTINUOUS
370
25
 62
     7
100
AcDbCircle
 10
1261.002396
 20
535.433354
 40
6.5
  0
CIRCLE
  5
28C
100
AcDbEntity
  8
M1
  6
CONTINUOUS
370
25
 62
     7
100
AcDbCircle
 10
1161.409502
 20
592.933262
 40
6.5
  0
ARC
  5
28D
100
AcDbEntity
  8
M1
  6
CONTINUOUS
370
25
 62
     7
100
AcDbCircle
 10
508.249986
 20
766.109256
 40
4.999548
100
AcDbArc
 50
94.060349
 51
385.939713
  0
ARC
  5
28E
100
AcDbEntity
  8
M1
  6
CONTINUOUS
370
25
 62
     7
100
AcDbCircle
 10
441.463914
 20
650.433262
 40
144.999984
100
AcDbArc
 50
61.106174
 51
418.892918
  0
ARC
  5
28F
100
AcDbEntity
  8
M1
  6
CONTINUOUS
370
25
 62
     7
100
AcDbCircle
 10
937.73311
 20
775.433262
 40
3.0
100
AcDbArc
 50
0.0
 51
90.0
  0
ARC
  5
290
100
AcDbEntity
  8
M1
  6
CONTINUOUS
370
25
 62
     7
100
AcDbCircle
 10
937.73311
 20
525.433246
 40
3.0
100
AcDbArc
 50
270.0
 51
360.0
  0
ARC
  5
291
100
AcDbEntity
  8
M1
  6
CONTINUOUS
370
25
 62
     7
100
AcDbCircle
 10
944.233384
 20
771.683842
 40
4.000058
100
AcDbArc
 50
325.737335
 51
360.706432
  0
ARC
  5
292
100
AcDbEntity
  8
M1
  6
CONTINUOUS
370
25
 62
     7
100
AcDbCircle
 10
944.233384
 20
701.682742
 40
4.00003
100
AcDbArc
 50
359.292267
 51
394.261593
  0
ARC
  5
293
100
AcDbEntity
  8
M1
  6
CONTINUOUS
370
25
 62
     7
100
AcDbCircle
 10
944.233384
 20
714.183842
 40
4.000058
100
AcDbArc
 50
325.737335
 51
360.706432
  0
ARC
  5
294
100
AcDbEntity
  8
M1
  6
CONTINUOUS
370
25
 62
     7
100
AcDbCircle
 10
944.233384
 20
759.182742
 40
4.00003
100
AcDbArc
 50
359.292267
 51
394.261593
  0
ARC
  5
295
100
AcDbEntity
  8
M1
  6
CONTINUOUS
370
25
 62
     7
100
AcDbCircle
 10
829.232774
 20
529.182742
 40
3.999914
100
AcDbArc
 50
145.737244
 51
180.70752
  0
ARC
  5
296
100
AcDbEntity
  8
M1
  6
CONTINUOUS
370
25
 62
     7
100
AcDbCircle
 10
829.232774
 20
599.183842
 40
3.999998
100
AcDbArc
 50
179.293579
 51
214.263664
  0
ARC
  5
297
100
AcDbEntity
  8
M1
  6
CONTINUOUS
370
25
 62
     7
100
AcDbCircle
 10
829.232774
 20
586.682742
 40
3.999906
100
AcDbArc
 50
145.737427
 51
180.707741
  0
ARC
  5
298
100
AcDbEntity
  8
M1
  6
CONTINUOUS
370
25
 62
     7
100
AcDbCircle
 10
829.232774
 20
541.683842
 40
3.999998
100
AcDbArc
 50
179.293793
 51
214.263844
  0
ARC
  5
299
100
AcDbEntity
  8
M1
  6
CONTINUOUS
370
25
 62
     7
100
AcDbCircle
 10
944.233384
 20
529.182742
 40
4.00003
100
AcDbArc
 50
359.29248
 51
394.261768
  0
ARC
  5
29A
100
AcDbEntity
  8
M1
  6
CONTINUOUS
370
25
 62
     7
100
AcDbCircle
 10
944.233384
 20
599.183842
 40
4.000058
100
AcDbArc
 50
325.737335
 51
360.706432
  0
ARC
  5
29B
100
AcDbEntity
  8
M1
  6
CONTINUOUS
370
25
 62
     7
100
AcDbCircle
 10
944.233384
 20
586.682742
 40
4.00003
100
AcDbArc
 50
359.292267
 51
394.261593
  0
ARC
  5
29C
100
AcDbEntity
  8
M1
  6
CONTINUOUS
370
25
 62
     7
100
AcDbCircle
 10
944.233384
 20
541.683842
 40
4.000066
100
AcDbArc
 50
325.737152
 51
360.706211
  0
CIRCLE
  5
29D
100
AcDbEntity
  8
M1
  6
CONTINUOUS
370
25
 62
     7
100
AcDbCircle
 10
1261.002396
 20
650.433262
 40
128.00003
  0
CIRCLE
  5
29E
100
AcDbEntity
  8
M1
  6
CONTINUOUS
370
25
 62
     7
100
AcDbCircle
 10
1261.002396
 20
650.433262
 40
104.00003
  0
CIRCLE
  5
29F
100
AcDbEntity
  8
M1
  6
CONTINUOUS
370
25
 62
     7
100
AcDbCircle
 10
1293.502396
 20
650.433262
 40
12.0
  0
CIRCLE
  5
2A0
100
AcDbEntity
  8
M1
  6
CONTINUOUS
370
25
 62
     7
100
AcDbCircle
 10
1261.002396
 20
682.933262
 40
12.0
  0
CIRCLE
  5
2A1
100
AcDbEntity
  8
M1
  6
CONTINUOUS
370
25
 62
     7
100
AcDbCircle
 10
1228.502504
 20
650.433262
 40
12.0
  0
CIRCLE
  5
2A2
100
AcDbEntity
  8
M1
  6
CONTINUOUS
370
25
 62
     7
100
AcDbCircle
 10
1261.002396
 20
617.933354
 40
12.0
  0
CIRCLE
  5
2A3
100
AcDbEntity
  8
M1
  6
CONTINUOUS
370
25
 62
     7
100
AcDbCircle
 10
1261.002396
 20
650.433262
 40
60.0
  0
ARC
  5
2A4
100
AcDbEntity
  8
M1
  6
CONTINUOUS
370
25
 62
     7
100
AcDbCircle
 10
1261.002396
 20
650.433262
 40
71.000068
100
AcDbArc
 50
341.706512
 51
378.293472
  0
ARC
  5
2A5
100
AcDbEntity
  8
M1
  6
CONTINUOUS
370
25
 62
     7
100
AcDbCircle
 10
1326.5152
 20
672.091252
 40
2.000088
100
AcDbArc
 50
18.293819
 51
119.999493
  0
ARC
  5
2A6
100
AcDbEntity
  8
M1
  6
CONTINUOUS
370
25
 62
     7
100
AcDbCircle
 10
1320.309198
 20
668.508244
 40
2.000056
100
AcDbArc
 50
119.999054
 51
196.950836
  0
ARC
  5
2A7
100
AcDbEntity
  8
M1
  6
CONTINUOUS
370
25
 62
     7
100
AcDbCircle
 10
1326.5152
 20
628.77515
 40
2.00003
100
AcDbArc
 50
240.000504
 51
341.706177
  0
ARC
  5
2A8
100
AcDbEntity
  8
M1
  6
CONTINUOUS
370
25
 62
     7
100
AcDbCircle
 10
1320.309198
 20
632.35825
 40
1.99999
100
AcDbArc
 50
163.049164
 51
239.999199
  0
ARC
  5
2A9
100
AcDbEntity
  8
M1
  6
CONTINUOUS
370
25
 62
     7
100
AcDbCircle
 10
1275.002396
 20
710.831944
 40
2.0
100
AcDbArc
 50
180.0
 51
256.949814
  0
ARC
  5
2AA
100
AcDbEntity
  8
M1
  6
CONTINUOUS
370
25
 62
     7
100
AcDbCircle
 10
1275.002396
 20
717.99805
 40
2.000006
100
AcDbArc
 50
78.293228
 51
180.0
  0
ARC
  5
2AB
100
AcDbEntity
  8
M1
  6
CONTINUOUS
370
25
 62
     7
100
AcDbCircle
 10
1261.002396
 20
650.433262
 40
71.000054
100
AcDbArc
 50
41.70649
 51
78.293484
  0
ARC
  5
2AC
100
AcDbEntity
  8
M1
  6
CONTINUOUS
370
25
 62
     7
100
AcDbCircle
 10
1312.515298
 20
696.34006
 40
2.000056
100
AcDbArc
 50
299.999054
 51
401.706215
  0
ARC
  5
2AD
100
AcDbEntity
  8
M1
  6
CONTINUOUS
370
25
 62
     7
100
AcDbCircle
 10
1306.309206
 20
692.756962
 40
2.000026
100
AcDbArc
 50
223.051392
 51
300.000359
  0
ARC
  5
2AE
100
AcDbEntity
  8
M1
  6
CONTINUOUS
370
25
 62
     7
100
AcDbCircle
 10
1215.695604
 20
692.756962
 40
1.999978
100
AcDbArc
 50
239.999634
 51
316.950394
  0
ARC
  5
2AF
100
AcDbEntity
  8
M1
  6
CONTINUOUS
370
25
 62
     7
100
AcDbCircle
 10
1209.489594
 20
696.34006
 40
1.99995
100
AcDbArc
 50
138.293488
 51
240.000938
  0
ARC
  5
2B0
100
AcDbEntity
  8
M1
  6
CONTINUOUS
370
25
 62
     7
100
AcDbCircle
 10
1261.002396
 20
650.433262
 40
70.999992
100
AcDbArc
 50
101.706429
 51
138.293446
  0
ARC
  5
2B1
100
AcDbEntity
  8
M1
  6
CONTINUOUS
370
25
 62
     7
100
AcDbCircle
 10
1247.002396
 20
717.99805
 40
2.0
100
AcDbArc
 50
0.0
 51
101.706345
  0
ARC
  5
2B2
100
AcDbEntity
  8
M1
  6
CONTINUOUS
370
25
 62
     7
100
AcDbCircle
 10
1247.002396
 20
710.831944
 40
1.999956
100
AcDbArc
 50
283.050201
 51
360.000015
  0
ARC
  5
2B3
100
AcDbEntity
  8
M1
  6
CONTINUOUS
370
25
 62
     7
100
AcDbCircle
 10
1201.695604
 20
632.35825
 40
1.999952
100
AcDbArc
 50
300.000793
 51
376.950066
  0
ARC
  5
2B4
100
AcDbEntity
  8
M1
  6
CONTINUOUS
370
25
 62
     7
100
AcDbCircle
 10
1195.489594
 20
628.775242
 40
1.999986
100
AcDbArc
 50
198.294785
 51
299.999496
  0
ARC
  5
2B5
100
AcDbEntity
  8
M1
  6
CONTINUOUS
370
25
 62
     7
100
AcDbCircle
 10
1261.002396
 20
650.433262
 40
70.999984
100
AcDbArc
 50
161.706436
 51
198.293518
  0
ARC
  5
2B6
100
AcDbEntity
  8
M1
  6
CONTINUOUS
370
25
 62
     7
100
AcDbCircle
 10
1195.489594
 20
672.091342
 40
1.999952
100
AcDbArc
 50
59.999195
 51
161.705219
  0
ARC
  5
2B7
100
AcDbEntity
  8
M1
  6
CONTINUOUS
370
25
 62
     7
100
AcDbCircle
 10
1201.695604
 20
668.508244
 40
2.000078
100
AcDbArc
 50
343.049927
 51
420.000946
  0
ARC
  5
2B8
100
AcDbEntity
  8
M1
  6
CONTINUOUS
370
25
 62
     7
100
AcDbCircle
 10
1247.002396
 20
590.03455
 40
2.0
100
AcDbArc
 50
0.0
 51
76.950409
  0
ARC
  5
2B9
100
AcDbEntity
  8
M1
  6
CONTINUOUS
370
25
 62
     7
100
AcDbCircle
 10
1247.002396
 20
582.868534
 40
1.999974
100
AcDbArc
 50
258.293488
 51
360.000008
  0
ARC
  5
2BA
100
AcDbEntity
  8
M1
  6
CONTINUOUS
370
25
 62
     7
100
AcDbCircle
 10
1261.002396
 20
650.433262
 40
70.999992
100
AcDbArc
 50
221.706573
 51
258.293507
  0
ARC
  5
2BB
100
AcDbEntity
  8
M1
  6
CONTINUOUS
370
25
 62
     7
100
AcDbCircle
 10
1209.489504
 20
604.526554
 40
1.999952
100
AcDbArc
 50
120.000801
 51
221.708824
  0
ARC
  5
2BC
100
AcDbEntity
  8
M1
  6
CONTINUOUS
370
25
 62
     7
100
AcDbCircle
 10
1215.695604
 20
608.109562
 40
2.000006
100
AcDbArc
 50
43.050758
 51
119.999489
  0
ARC
  5
2BD
100
AcDbEntity
  8
M1
  6
CONTINUOUS
370
25
 62
     7
100
AcDbCircle
 10
1306.309206
 20
608.109562
 40
2.00003
100
AcDbArc
 50
60.000507
 51
136.949238
  0
ARC
  5
2BE
100
AcDbEntity
  8
M1
  6
CONTINUOUS
370
25
 62
     7
100
AcDbCircle
 10
1312.5152
 20
604.526554
 40
2.000042
100
AcDbArc
 50
318.291168
 51
419.999191
  0
ARC
  5
2BF
100
AcDbEntity
  8
M1
  6
CONTINUOUS
370
25
 62
     7
100
AcDbCircle
 10
1261.002396
 20
650.433262
 40
71.000038
100
AcDbArc
 50
281.706512
 51
318.293495
  0
ARC
  5
2C0
100
AcDbEntity
  8
M1
  6
CONTINUOUS
370
25
 62
     7
100
AcDbCircle
 10
1275.002396
 20
582.868442
 40
2.0
100
AcDbArc
 50
180.0
 51
281.706772
  0
ARC
  5
2C1
100
AcDbEntity
  8
M1
  6
CONTINUOUS
370
25
 62
     7
100
AcDbCircle
 10
1275.002396
 20
590.03455
 40
2.000046
100
AcDbArc
 50
103.049591
 51
180.0
  0
SPLINE
  5
2C2
100
AcDbEntity
  8
M1
  6
CONTINUOUS
370
25
 62
     7
100
AcDbSpline
210
0.0
220
0.0
230
-1.0
 70
     8
 71
     3
 72
    11
 73
     7
 43
0.0000001
 40
0.0
 40
0.0
 40
0.0
 40
0.0
 40
1.0
 40
1.0
 40
1.0
 40
2.0
 40
2.0
 40
2.0
 40
2.0
 10
825.926012
 20
711.933262
 10
825.483018
 20
710.654636
 10
825.23314
 20
709.293948
 10
825.23314
 20
707.933262
 10
825.23308
 20
706.572574
 10
825.482958
 20
705.211888
 10
825.92595
 20
703.933262
  0
SPLINE
  5
2C3
100
AcDbEntity
  8
M1
  6
CONTINUOUS
370
25
 62
     7
100
AcDbSpline
210
0.0
220
0.0
230
-1.0
 70
     8
 71
     3
 72
    11
 73
     7
 43
0.0000001
 40
0.0
 40
0.0
 40
0.0
 40
0.0
 40
1.0
 40
1.0
 40
1.0
 40
2.0
 40
2.0
 40
2.0
 40
2.0
 10
825.926012
 20
531.433246
 10
825.483018
 20
532.711888
 10
825.23314
 20
534.07256
 10
825.23314
 20
535.433246
 10
825.23308
 20
536.793934
 10
825.482958
 20
538.154606
 10
825.92595
 20
539.433246
  0
SPLINE
  5
2C4
100
AcDbEntity
  8
M1
  6
CONTINUOUS
370
25
 62
     7
100
AcDbSpline
210
0.0
220
0.0
230
-1.0
 70
     8
 71
     3
 72
    11
 73
     7
 43
0.0000001
 40
0.0
 40
0.0
 40
0.0
 40
0.0
 40
1.0
 40
1.0
 40
1.0
 40
2.0
 40
2.0
 40
2.0
 40
2.0
 10
825.926012
 20
769.433262
 10
825.483018
 20
768.154636
 10
825.23314
 20
766.793948
 10
825.23314
 20
765.433262
 10
825.23308
 20
764.072574
 10
825.482958
 20
762.711888
 10
825.92595
 20
761.433262
  0
SPLINE
  5
2C5
100
AcDbEntity
  8
M1
  6
CONTINUOUS
370
25
 62
     7
100
AcDbSpline
210
0.0
220
0.0
230
-1.0
 70
     8
 71
     3
 72
    11
 73
     7
 43
0.0000001
 40
0.0
 40
0.0
 40
0.0
 40
0.0
 40
1.0
 40
1.0
 40
1.0
 40
2.0
 40
2.0
 40
2.0
 40
2.0
 10
825.926012
 20
588.933262
 10
825.483018
 20
590.211888
 10
825.23314
 20
591.572574
 10
825.23314
 20
592.933262
 10
825.23308
 20
594.293948
 10
825.482958
 20
595.654636
 10
825.92595
 20
596.933262
  0
SPLINE
  5
2C6
100
AcDbEntity
  8
M1
  6
CONTINUOUS
370
25
 62
     7
100
AcDbSpline
210
0.0
220
0.0
230
-1.0
 70
     8
 71
     3
 72
    11
 73
     7
 43
0.0000001
 40
0.0
 40
0.0
 40
0.0
 40
0.0
 40
1.0
 40
1.0
 40
1.0
 40
2.0
 40
2.0
 40
2.0
 40
2.0
 10
505.78203
 20
767.436252
 10
506.099718
 20
766.859928
 10
506.495104
 20
766.33649
 10
506.931932
 20
766.167332
 10
507.318894
 20
766.01746
 10
507.793932
 20
766.07169
 10
508.293932
 20
766.186282
  0
SPLINE
  5
2C7
100
AcDbEntity
  8
M1
  6
CONTINUOUS
370
25
 62
     7
100
AcDbSpline
210
0.0
220
0.0
230
-1.0
 70
     8
 71
     3
 72
    11
 73
     7
 43
0.0000001
 40
0.0
 40
0.0
 40
0.0
 40
0.0
 40
1.0
 40
1.0
 40
1.0
 40
2.0
 40
2.0
 40
2.0
 40
2.0
 10
508.249986
 20
766.109256
 10
508.485338
 20
765.507602
 10
508.799546
 20
764.954746
 10
509.178942
 20
764.76929
 10
509.510484
 20
764.607182
 10
510.087266
 20
764.679142
 10
510.444566
 20
764.771884
  0
SPLINE
  5
2C8
100
AcDbEntity
  8
M1
  6
CONTINUOUS
370
25
 62
     7
100
AcDbSpline
210
0.0
220
0.0
230
-1.0
 70
     8
 71
     3
 72
    11
 73
     7
 43
0.0000001
 40
0.0
 40
0.0
 40
0.0
 40
0.0
 40
1.0
 40
1.0
 40
1.0
 40
2.0
 40
2.0
 40
2.0
 40
2.0
 10
947.5403
 20
711.933262
 10
947.983262
 20
710.654636
 10
948.23317
 20
709.293948
 10
948.23317
 20
707.933262
 10
948.23311
 20
706.572574
 10
947.983202
 20
705.211888
 10
947.540238
 20
703.933262
  0
SPLINE
  5
2C9
100
AcDbEntity
  8
M1
  6
CONTINUOUS
370
25
 62
     7
100
AcDbSpline
210
0.0
220
0.0
230
-1.0
 70
     8
 71
     3
 72
    11
 73
     7
 43
0.0000001
 40
0.0
 40
0.0
 40
0.0
 40
0.0
 40
1.0
 40
1.0
 40
1.0
 40
2.0
 40
2.0
 40
2.0
 40
2.0
 10
947.5403
 20
769.433262
 10
947.983262
 20
768.154636
 10
948.23317
 20
766.793948
 10
948.23317
 20
765.433262
 10
948.23311
 20
764.072574
 10
947.983202
 20
762.711888
 10
947.540238
 20
761.433262
  0
SPLINE
  5
2CA
100
AcDbEntity
  8
M1
  6
CONTINUOUS
370
25
 62
     7
100
AcDbSpline
210
0.0
220
0.0
230
-1.0
 70
     8
 71
     3
 72
    11
 73
     7
 43
0.0000001
 40
0.0
 40
0.0
 40
0.0
 40
0.0
 40
1.0
 40
1.0
 40
1.0
 40
2.0
 40
2.0
 40
2.0
 40
2.0
 10
825.926012
 20
588.933262
 10
825.483018
 20
590.211888
 10
825.23314
 20
591.572574
 10
825.23314
 20
592.933262
 10
825.23308
 20
594.293948
 10
825.482958
 20
595.654636
 10
825.92595
 20
596.933262
  0
SPLINE
  5
2CB
100
AcDbEntity
  8
M1
  6
CONTINUOUS
370
25
 62
     7
100
AcDbSpline
210
0.0
220
0.0
230
-1.0
 70
     8
 71
     3
 72
    11
 73
     7
 43
0.0000001
 40
0.0
 40
0.0
 40
0.0
 40
0.0
 40
1.0
 40
1.0
 40
1.0
 40
2.0
 40
2.0
 40
2.0
 40
2.0
 10
825.926012
 20
531.433246
 10
825.483018
 20
532.711888
 10
825.23314
 20
534.07256
 10
825.23314
 20
535.433246
 10
825.23308
 20
536.793934
 10
825.482958
 20
538.154606
 10
825.92595
 20
539.433246
  0
SPLINE
  5
2CC
100
AcDbEntity
  8
M1
  6
CONTINUOUS
370
25
 62
     7
100
AcDbSpline
210
0.0
220
0.0
230
-1.0
 70
     8
 71
     3
 72
    11
 73
     7
 43
0.0000001
 40
0.0
 40
0.0
 40
0.0
 40
0.0
 40
1.0
 40
1.0
 40
1.0
 40
2.0
 40
2.0
 40
2.0
 40
2.0
 10
947.5403
 20
588.933262
 10
947.983262
 20
590.211888
 10
948.23317
 20
591.572574
 10
948.23317
 20
592.933262
 10
948.23311
 20
594.293948
 10
947.983202
 20
595.654636
 10
947.540238
 20
596.933262
  0
SPLINE
  5
2CD
100
AcDbEntity
  8
M1
  6
CONTINUOUS
370
25
 62
     7
100
AcDbSpline
210
0.0
220
0.0
230
-1.0
 70
     8
 71
     3
 72
    11
 73
     7
 43
0.0000001
 40
0.0
 40
0.0
 40
0.0
 40
0.0
 40
1.0
 40
1.0
 40
1.0
 40
2.0
 40
2.0
 40
2.0
 40
2.0
 10
947.5403
 20
531.433246
 10
947.983262
 20
532.711888
 10
948.23317
 20
534.07256
 10
948.23317
 20
535.433246
 10
948.23311
 20
536.793934
 10
947.983202
 20
538.154606
 10
947.540238
 20
539.433246
  0
TEXT
  5
2CE
100
AcDbEntity
  8
M1
100
AcDbText
 10
1322.608716
 20
326.693339
 40
12.5
  1
ＰＯＢ－１０
 41
0.833333
  7
STANDARD
100
AcDbText
  0
TEXT
  5
2CF
100
AcDbEntity
  8
M1
100
AcDbText
 10
417.378736
 20
422.341959
 40
12.5
  1
Ｄ１
 41
0.833333
  7
STANDARD
100
AcDbText
  0
TEXT
  5
2D0
100
AcDbEntity
  8
M1
100
AcDbText
 10
866.035779
 20
430.353953
 40
12.5
  1
Ｄ２
 41
0.833333
  7
STANDARD
100
AcDbText
  0
TEXT
  5
2D1
100
AcDbEntity
  8
M1
100
AcDbText
 10
1265.293775
 20
439.700938
 40
12.5
  1
Ｄ３
 41
0.833333
  7
STANDARD
100
AcDbText
  0
TEXT
  5
2D2
100
AcDbEntity
  8
M1
100
AcDbText
 10
1298.660718
 20
302.745097
 40
12.5
  1
（ＳＤＫ６１３６）
 41
0.833333
  7
STANDARD
100
AcDbText
  0
ENDSEC
  0
SECTION
  2
OBJECTS
  0
DICTIONARY
  5
C
100
AcDbDictionary
  3
ACAD_GROUP
350
D
  3
ACAD_MLINESTYLE
350
E
  0
DICTIONARY
  5
D
102
{ACAD_REACTORS
330
C
102
}
100
AcDbDictionary
  0
DICTIONARY
  5
E
102
{ACAD_REACTORS
330
C
102
}
100
AcDbDictionary
  3
STANDARD
350
13
  0
MLINESTYLE
  5
13
102
{ACAD_REACTORS
330
E
102
}
100
AcDbMlineStyle
  2
STANDARD
 70
     0
  3

 62
     0
 51
90.0
 52
90.0
 71
     2
 49
0.5
 62
   256
  6
BYLAYER
 49
-0.5
 62
   256
  6
BYLAYER
  0
ENDSEC
  0
EOF
