  0
SECTION
  2
HEADER
  9
$ACADVER
  1
AC1015
  9
$INSBASE
 10
0.0
 20
0.0
  9
$VIEWCTR
 10
7.531722
 20
4.5
  9
$VIEWSIZE
 40
9.0
  9
$SNAPMODE
 70
     0
  9
$SNAPUNIT
 10
1.0
 20
1.0
  9
$SNAPBASE
 10
0.0
 20
0.0
  9
$SNAPANG
 50
0.0
  9
$SNAPSTYLE
 70
     0
  9
$SNAPISOPAIR
 70
     0
  9
$GRIDMODE
 70
     0
  9
$GRIDUNIT
 10
0.0
 20
0.0
  9
$ORTHOMODE
 70
     0
  9
$REGENMODE
 70
     1
  9
$FILLMODE
 70
     1
  9
$QTEXTMODE
 70
     0
  9
$DRAGMODE
 70
     2
  9
$LTSCALE
 40
1.0
  9
$OSMODE
 70
     0
  9
$ATTMODE
 70
     1
  9
$TEXTSIZE
 40
0.2
  9
$TRACEWID
 40
0.05
  9
$TEXTSTYLE
  7
STANDARD
  9
$CELTYPE
  6
BYLAYER
  9
$CECOLOR
 62
   256
  9
$DIMSCALE
 40
1.0
  9
$DIMASZ
 40
0.18
  9
$DIMEXO
 40
0.0625
  9
$DIMDLI
 40
0.38
  9
$DIMRND
 40
0.0
  9
$DIMDLE
 40
0.0
  9
$DIMEXE
 40
0.18
  9
$DIMTP
 40
0.0
  9
$DIMTM
 40
0.0
  9
$DIMTXT
 40
0.18
  9
$DIMCEN
 40
0.09
  9
$DIMTSZ
 40
0.0
  9
$DIMADEC
 70
     0
  9
$DIMALTRND
 40
0.000000
  9
$DIMAZIN
 70
     0
  9
$DIMDSEP
 70
    46
  9
$DIMATFIT
 70
     3
  9
$DIMFRAC
 70
     0
  9
$DIMLDRBLK
  1

  9
$DIMLUNIT
 70
     2
  9
$DIMLWD
 70
   13
  9
$DIMLWE
 70
   13
  9
$DIMTMOVE
 70
     0
  9
$CELWEIGHT
370
    25
  9
$LWDISPLAY
290
    1
  9
$EXTNAMES
290
    1
  9
$DIMTOL
 70
     0
  9
$DIMLIM
 70
     0
  9
$DIMTIH
 70
     1
  9
$DIMTOH
 70
     1
  9
$DIMSE1
 70
     0
  9
$DIMSE2
 70
     0
  9
$DIMTAD
 70
     0
  9
$DIMZIN
 70
     0
  9
$DIMBLK
  1

  9
$LUNITS
 70
     2
  9
$LUPREC
 70
     4
  9
$AXISMODE
 70
     0
  9
$AXISUNIT
 10
0.0
 20
0.0
  9
$SKETCHINC
 40
0.1
  9
$FILLETRAD
 40
0.0
  9
$AUNITS
 70
     0
  9
$AUPREC
 70
     0
  9
$MENU
  1
ACAD
  9
$ELEVATION
 40
0.0
  9
$THICKNESS
 40
0.0
  9
$VIEWDIR
 10
0.0
 20
0.0
 30
1.0
  9
$LIMCHECK
 70
     0
  9
$BLIPMODE
 70
     1
  9
$CHAMFERA
 40
0.0
  9
$CHAMFERB
 40
0.0
  9
$FASTZOOM
 70
     1
  9
$SKPOLY
 70
     0
  9
$TDCREATE
 40
0000000.0000000000
  9
$TDUPDATE
 40
0000000.0000000000
  9
$TDINDWG
 40
0.0000000000
  9
$TDUSRTIMER
 40
0.0000000000
  9
$USRTIMER
 70
     1
  9
$ANGBASE
 50
0.0
  9
$ANGDIR
 70
     0
  9
$PDMODE
 70
     0
  9
$PDSIZE
 40
0.0
  9
$PLINEWID
 40
0.0
  9
$COORDS
 70
     0
  9
$USERI1
 70
     0
  9
$USERI2
 70
     0
  9
$USERI3
 70
     0
  9
$USERI4
 70
     0
  9
$USERI5
 70
     0
  9
$USERR1
 40
0.0
  9
$USERR2
 40
0.0
  9
$USERR3
 40
0.0
  9
$USERR4
 40
0.0
  9
$USERR5
 40
0.0
  9
$CLAYER
  8
M0
  9
$EXTMIN
 10
0.0
 20
0.0
  9
$EXTMAX
 10
841.0
 20
594.0
  9
$LIMMIN
 10
0.0
 20
0.0
  9
$LIMMAX
 10
841.0
 20
594.0
  9
$HANDSEED
  5
2F0
  0
ENDSEC
  0
SECTION
  2
CLASSES
  0
ENDSEC
  0
SECTION
  2
TABLES
  0
TABLE
  2
VPORT
  5
8
100
AcDbSymbolTable
 70
     2
  0
VPORT
  5
14
100
AcDbSymbolTableRecord
100
AcDbViewportTableRecord
  2
*ACTIVE
 70
     0
 10
0.0
 20
0.0
 11
1.0
 21
1.0
 12
484.0
 22
297.0
 13
0.0
 23
0.0
 14
1.0
 24
1.0
 15
0.0
 25
0.0
 16
0.0
 26
0.0
 36
1.0
 17
0.0
 27
0.0
 37
0.0
 40
594.0
 41
2.0
 42
50.0
 43
0.0
 44
0.0
 50
0.0
 51
0.0
 71
     0
 72
   100
 73
     1
 74
     1
 75
     0
 76
     0
 77
     0
 78
     0
  0
ENDTAB
  0
TABLE
  2
LTYPE
  5
5
100
AcDbSymbolTable
 70
     5
  0
LTYPE
  5
15
100
AcDbSymbolTableRecord
100
AcDbLinetypeTableRecord
  2
BYBLOCK
 70
     0
  3

 72
    65
 73
     0
 40
0.0
  0
LTYPE
  5
16
100
AcDbSymbolTableRecord
100
AcDbLinetypeTableRecord
  2
BYLAYER
 70
     0
  3

 72
    65
 73
     0
 40
0.0
  0
LTYPE
  5
17
100
AcDbSymbolTableRecord
100
AcDbLinetypeTableRecord
  2
CONTINUOUS
 70
    64
  3
Solid line
 72
    65
 73
     0
 40
0.0
  0
LTYPE
  5
18
100
AcDbSymbolTableRecord
100
AcDbLinetypeTableRecord
  2
DASHED
 70
    64
  3
__ __ __ __ __ __ __ __ __ __ __ __ __ __ __ __
 72
    65
 73
     2
 40
0.75
 49
0.5
 74
     0
 49
-0.25
 74
     0
  0
LTYPE
  5
19
100
AcDbSymbolTableRecord
100
AcDbLinetypeTableRecord
  2
DASHDOT
 70
    64
  3
__ . __ . __ . __ . __ . __ . __ . __ . __ . __
 72
    65
 73
     4
 40
1.0
 49
0.5
 74
     0
 49
-0.25
 74
     0
 49
0.0
 74
     0
 49
-0.25
 74
     0
  0
LTYPE
  5
1A
100
AcDbSymbolTableRecord
100
AcDbLinetypeTableRecord
  2
DIVIDE
 70
    64
  3
____ . . ____ . . ____ . . ____ . . ____ . . __
 72
    65
 73
     6
 40
1.25
 49
0.5
 74
     0
 49
-0.25
 74
     0
 49
0.0
 74
     0
 49
-0.25
 74
     0
 49
0.0
 74
     0
 49
-0.25
 74
     0
  0
LTYPE
  5
1B
100
AcDbSymbolTableRecord
100
AcDbLinetypeTableRecord
  2
DOT
 70
    64
  3
. . . . . . . . . . . . . . . . . . . . . . . .
 72
    65
 73
     2
 40
0.25
 49
0.0
 74
     0
 49
-0.25
 74
     0
  0
ENDTAB
  0
TABLE
  2
LAYER
  5
2
100
AcDbSymbolTable
 70
   102
  0
LAYER
  5
F
100
AcDbSymbolTableRecord
100
AcDbLayerTableRecord
  2
0
 70
     0
 62
     7
  6
CONTINUOUS
370
     -3
390
F
  0
LAYER
  5
1C
100
AcDbSymbolTableRecord
100
AcDbLayerTableRecord
  2
M0
 70
     0
 62
     7
  6
CONTINUOUS
370
     -3
390
F
  0
ENDTAB
  0
TABLE
  2
STYLE
  5
3
100
AcDbSymbolTable
 70
     2
  0
STYLE
  5
10
100
AcDbSymbolTableRecord
100
AcDbTextStyleTableRecord
  2
STANDARD
 70
     0
 40
0.0
 41
1.0
 50
0.0
 71
     0
 42
0.2
  3
txt
  4
BIGFONT
  0
ENDTAB
  0
TABLE
  2
VIEW
  5
6
100
AcDbSymbolTable
 70
     0
  0
ENDTAB
  0
TABLE
  2
UCS
  5
7
100
AcDbSymbolTable
 70
     0
  0
ENDTAB
  0
TABLE
  2
APPID
  5
9
100
AcDbSymbolTable
 70
     1
  0
APPID
  5
11
100
AcDbSymbolTableRecord
100
AcDbRegAppTableRecord
  2
ACAD
 70
     0
  0
ENDTAB
  0
TABLE
  2
DIMSTYLE
  5
A
100
AcDbSymbolTable
 70
     2
100
AcDbDimStyleTable
 71
     1
  0
DIMSTYLE
105
23
100
AcDbSymbolTableRecord
100
AcDbDimStyleTableRecord
  2
STANDARD
 70
     0
  3

  4

  5

  6
_OPEN
  7
_OPEN
 40
1.0
 41
3.0
 42
0.5
 43
8.0
 44
1.5
 45
0.0
 46
0.0
 47
0.0
 48
0.0
140
3.15
141
0.09
142
0.0
143
0.03937
144
1.0
145
0.0
146
1.0
147
1.0
148
0.000000
 71
     0
 72
     0
 73
     0
 74
     0
 75
     0
 76
     0
 77
     3
 78
     8
170
     0
171
     2
172
     0
173
     1
174
     0
175
     0
176
     0
177
     0
178
     0
270
     2
271
     2
272
     4
273
     2
274
     2
340
10
275
     0
278
    46
280
     0
281
     0
282
     0
283
     1
284
     0
285
     0
286
     0
287
     3
288
     0
371
   13
372
   13
  0
DIMSTYLE
105
24
100
AcDbSymbolTableRecord
100
AcDbDimStyleTableRecord
  2
LEADSTYL
 70
     0
  3

  4

  5

  6
_OPEN
  7
_OPEN
 40
1.0
 41
3.0
 42
0.0625
 43
0.38
 44
0.18
 45
0.0
 46
0.0
 47
0.0
 48
0.0
140
3.15
141
0.09
142
0.0
143
25.4
144
1.0
145
0.0
146
1.0
147
1.0
 71
     0
 72
     0
 73
     1
 74
     1
 75
     0
 76
     0
 77
     0
 78
     0
170
     0
171
     2
172
     0
173
     1
174
     0
175
     0
176
     0
177
     0
178
     0
270
     2
271
     4
272
     4
273
     2
274
     2
340
10
275
     0
280
     0
281
     0
282
     0
283
     1
284
     0
285
     0
286
     0
287
     3
288
     0
  0
ENDTAB
  0
TABLE
  2
BLOCK_RECORD
  5
1
100
AcDbSymbolTable
 70
     6
  0
BLOCK_RECORD
  5
1D
100
AcDbSymbolTableRecord
100
AcDbBlockTableRecord
  2
*MODEL_SPACE
  0
BLOCK_RECORD
  5
20
100
AcDbSymbolTableRecord
100
AcDbBlockTableRecord
  2
*PAPER_SPACE
  0
BLOCK_RECORD
  5
25
100
AcDbSymbolTableRecord
100
AcDbBlockTableRecord
  2
_NONE
  0
BLOCK_RECORD
  5
29
100
AcDbSymbolTableRecord
100
AcDbBlockTableRecord
  2
_OPEN
  0
BLOCK_RECORD
  5
2F
100
AcDbSymbolTableRecord
100
AcDbBlockTableRecord
  2
_CLOSED
  0
BLOCK_RECORD
  5
36
100
AcDbSymbolTableRecord
100
AcDbBlockTableRecord
  2
_ORIGIN
  0
BLOCK_RECORD
  5
3B
100
AcDbSymbolTableRecord
100
AcDbBlockTableRecord
  2
_DOT
  0
BLOCK_RECORD
  5
43
100
AcDbSymbolTableRecord
100
AcDbBlockTableRecord
  2
_OBLIQUE
  0
ENDTAB
  0
ENDSEC
  0
SECTION
  2
BLOCKS
  0
BLOCK
  5
1E
100
AcDbEntity
  8
0
100
AcDbBlockBegin
  2
*MODEL_SPACE
 70
     0
 10
0.0
 20
0.0
 30
0.0
  3
*MODEL_SPACE
  1

  0
ENDBLK
  5
1F
100
AcDbEntity
  8
0
100
AcDbBlockEnd
  0
BLOCK
  5
21
100
AcDbEntity
 67
     1
  8
0
100
AcDbBlockBegin
  2
*PAPER_SPACE
 70
     0
 10
0.0
 20
0.0
 30
0.0
  3
*PAPER_SPACE
  1

  0
ENDBLK
  5
22
100
AcDbEntity
 67
     1
  8
0
100
AcDbBlockEnd
  0
BLOCK
  5
26
100
AcDbEntity
  8
0
100
AcDbBlockBegin
  2
_NONE
 70
     0
 10
0.0
 20
0.0
  0
CIRCLE
  5
27
100
AcDbEntity
  8
0
 62
     0
370
13
100
AcDbCircle
 10
0.0
 20
0.0
 40
0.25
  0
ENDBLK
  5
28
100
AcDbEntity
  8
0
100
AcDbBlockEnd
  0
BLOCK
  5
2A
100
AcDbEntity
  8
0
100
AcDbBlockBegin
  2
_OPEN
 70
     0
 10
0.0
 20
0.0
  0
LINE
  5
2B
100
AcDbEntity
  8
0
 62
     0
370
13
100
AcDbLine
 10
-0.965926
 20
0.258819
 11
0.0
 21
0.0
  0
LINE
  5
2C
100
AcDbEntity
  8
0
 62
     0
370
13
100
AcDbLine
 10
0.0
 20
0.0
 11
-0.965926
 21
-0.258819
  0
LINE
  5
2D
100
AcDbEntity
  8
0
 62
     0
370
13
100
AcDbLine
 10
0.0
 20
0.0
 11
-1.0
 21
0.0
  0
ENDBLK
  5
2E
100
AcDbEntity
  8
0
100
AcDbBlockEnd
  0
BLOCK
  5
30
100
AcDbEntity
  8
0
100
AcDbBlockBegin
  2
_CLOSED
 70
     0
 10
0.0
 20
0.0
  0
LINE
  5
31
100
AcDbEntity
  8
0
 62
     0
370
13
100
AcDbLine
 10
-0.965926
 20
0.258819
 11
0.0
 21
0.0
  0
LINE
  5
32
100
AcDbEntity
  8
0
 62
     0
370
13
100
AcDbLine
 10
0.0
 20
0.0
 11
-0.965926
 21
-0.258819
  0
LINE
  5
33
100
AcDbEntity
  8
0
 62
     0
370
13
100
AcDbLine
 10
-0.965926
 20
0.258819
 11
-0.965926
 21
-0.258819
  0
LINE
  5
34
100
AcDbEntity
  8
0
 62
     0
370
13
100
AcDbLine
 10
0.0
 20
0.0
 11
-1.0
 21
0.0
  0
ENDBLK
  5
35
100
AcDbEntity
  8
0
100
AcDbBlockEnd
  0
BLOCK
  5
37
100
AcDbEntity
  8
0
100
AcDbBlockBegin
  2
_ORIGIN
 70
     0
 10
0.0
 20
0.0
  0
CIRCLE
  5
38
100
AcDbEntity
  8
0
 62
     0
370
13
100
AcDbCircle
 10
0.0
 20
0.0
 40
0.5
  0
LINE
  5
39
100
AcDbEntity
  8
0
 62
     0
370
13
100
AcDbLine
 10
0.0
 20
0.0
 11
-1.0
 21
0.0
  0
ENDBLK
  5
3A
100
AcDbEntity
  8
0
100
AcDbBlockEnd
  0
BLOCK
  5
3C
100
AcDbEntity
  8
0
100
AcDbBlockBegin
  2
_DOT
 70
     0
 10
0.0
 20
0.0
  0
POLYLINE
  5
3D
100
AcDbEntity
  8
0
 62
     0
100
AcDb2dPolyline
 66
     1
 70
     1
 40
0.5
 41
0.5
  0
VERTEX
  5
3E
100
AcDbEntity
  8
0
 62
     0
100
AcDbVertex
100
AcDb2dVertex
 10
-0.25
 20
0.0
 42
1.0
  0
VERTEX
  5
3F
100
AcDbEntity
  8
0
 62
     0
100
AcDbVertex
100
AcDb2dVertex
 10
0.25
 20
0.0
 42
1.0
  0
SEQEND
  5
40
100
AcDbEntity
  8
0
 62
     0
  0
LINE
  5
41
100
AcDbEntity
  8
0
 62
     0
370
13
100
AcDbLine
 10
-0.5
 20
0.0
 11
-1.0
 21
0.0
  0
ENDBLK
  5
42
100
AcDbEntity
  8
0
100
AcDbBlockEnd
  0
BLOCK
  5
44
100
AcDbEntity
  8
0
100
AcDbBlockBegin
  2
_OBLIQUE
 70
     0
 10
0.0
 20
0.0
  0
LINE
  5
45
100
AcDbEntity
  8
0
 62
     0
370
13
100
AcDbLine
 10
-0.353553
 20
-0.353553
 11
0.353553
 21
0.353553
  0
ENDBLK
  5
46
100
AcDbEntity
  8
0
100
AcDbBlockEnd
  0
ENDSEC
  0
SECTION
  2
ENTITIES
  0
LINE
  5
47
100
AcDbEntity
  8
M0
  6
CONTINUOUS
370
25
100
AcDbLine
 10
364.80462
 20
325.393343
 11
364.80462
 21
321.393343
  0
LINE
  5
48
100
AcDbEntity
  8
M0
  6
CONTINUOUS
370
25
100
AcDbLine
 10
390.30462
 20
306.393343
 11
390.30462
 21
300.393343
  0
LINE
  5
49
100
AcDbEntity
  8
M0
  6
CONTINUOUS
370
25
100
AcDbLine
 10
432.30462
 20
306.393343
 11
432.30462
 21
300.393343
  0
LINE
  5
4A
100
AcDbEntity
  8
M0
  6
CONTINUOUS
370
25
100
AcDbLine
 10
457.80462
 20
324.893343
 11
457.80462
 21
321.393343
  0
LINE
  5
4B
100
AcDbEntity
  8
M0
  6
CONTINUOUS
370
25
100
AcDbLine
 10
392.30462
 20
325.393343
 11
394.80462
 21
325.393343
  0
LINE
  5
4C
100
AcDbEntity
  8
M0
  6
CONTINUOUS
370
25
100
AcDbLine
 10
364.80462
 20
306.393343
 11
390.30462
 21
306.393343
  0
LINE
  5
4D
100
AcDbEntity
  8
M0
  6
CONTINUOUS
370
25
100
AcDbLine
 10
364.80462
 20
307.893343
 11
457.80462
 21
307.893343
  0
LINE
  5
4E
100
AcDbEntity
  8
M0
  6
CONTINUOUS
370
25
100
AcDbLine
 10
390.55462
 20
306.643343
 11
432.05462
 21
306.643343
  0
LINE
  5
4F
100
AcDbEntity
  8
M0
  6
CONTINUOUS
370
25
100
AcDbLine
 10
432.30462
 20
306.393343
 11
457.80462
 21
306.393343
  0
LINE
  5
50
100
AcDbEntity
  8
M0
  6
CONTINUOUS
370
25
100
AcDbLine
 10
432.05462
 20
306.643358
 11
432.30462
 21
306.393343
  0
LINE
  5
51
100
AcDbEntity
  8
M0
  6
CONTINUOUS
370
25
100
AcDbLine
 10
390.30465
 20
306.393312
 11
390.55465
 21
306.643312
  0
LINE
  5
52
100
AcDbEntity
  8
M0
  6
CONTINUOUS
370
25
100
AcDbLine
 10
397.80462
 20
319.393343
 11
397.80462
 21
312.893343
  0
LINE
  5
53
100
AcDbEntity
  8
M0
  6
CONTINUOUS
370
25
100
AcDbLine
 10
394.80462
 20
332.893343
 11
394.80462
 21
319.393343
  0
LINE
  5
54
100
AcDbEntity
  8
M0
  6
CONTINUOUS
370
25
100
AcDbLine
 10
392.30462
 20
327.893343
 11
392.30462
 21
325.393343
  0
LINE
  5
55
100
AcDbEntity
  8
M0
  6
CONTINUOUS
370
25
100
AcDbLine
 10
381.80462
 20
329.393343
 11
381.80462
 21
312.893343
  0
LINE
  5
56
100
AcDbEntity
  8
M0
  6
CONTINUOUS
370
25
100
AcDbLine
 10
381.80462
 20
319.393343
 11
390.30462
 21
319.393343
  0
LINE
  5
57
100
AcDbEntity
  8
M0
  6
CONTINUOUS
370
25
100
AcDbLine
 10
365.30462
 20
312.893343
 11
367.604638
 21
312.893343
  0
LINE
  5
58
100
AcDbEntity
  8
M0
  6
CONTINUOUS
370
25
100
AcDbLine
 10
402.80462
 20
312.893343
 11
457.30462
 21
312.893343
  0
LINE
  5
59
100
AcDbEntity
  8
M0
  6
CONTINUOUS
370
25
100
AcDbLine
 10
394.80462
 20
319.393343
 11
397.80462
 21
319.393343
  0
LINE
  5
5A
100
AcDbEntity
  8
M0
  6
CONTINUOUS
370
25
100
AcDbLine
 10
368.954613
 20
321.393343
 11
368.954613
 21
312.343355
  0
LINE
  5
5B
100
AcDbEntity
  8
M0
  6
CONTINUOUS
370
25
100
AcDbLine
 10
367.604638
 20
312.343355
 11
368.954613
 21
312.343355
  0
LINE
  5
5C
100
AcDbEntity
  8
M0
  6
CONTINUOUS
370
25
100
AcDbLine
 10
368.954613
 20
312.893343
 11
381.80462
 21
312.893343
  0
LINE
  5
5D
100
AcDbEntity
  8
M0
  6
CONTINUOUS
370
25
100
AcDbLine
 10
391.30462
 20
327.893343
 11
391.30462
 21
320.393343
  0
LINE
  5
5E
100
AcDbEntity
  8
M0
  6
CONTINUOUS
370
25
100
AcDbLine
 10
398.80462
 20
311.893343
 11
401.80462
 21
311.893343
  0
LINE
  5
5F
100
AcDbEntity
  8
M0
  6
CONTINUOUS
370
25
100
AcDbLine
 10
391.30462
 20
327.893343
 11
392.30462
 21
327.893343
  0
LINE
  5
60
100
AcDbEntity
  8
M0
  6
CONTINUOUS
370
25
100
AcDbLine
 10
356.960286
 20
300.393343
 11
366.743065
 21
300.393343
  0
LINE
  5
61
100
AcDbEntity
  8
M0
  6
CONTINUOUS
370
25
100
AcDbLine
 10
406.30462
 20
313.393343
 11
446.504616
 21
313.393343
  0
LINE
  5
62
100
AcDbEntity
  8
M0
  6
CONTINUOUS
370
25
100
AcDbLine
 10
406.30462
 20
320.393343
 11
406.30462
 21
312.893343
  0
LINE
  5
63
100
AcDbEntity
  8
M0
  6
CONTINUOUS
370
25
100
AcDbLine
 10
406.30462
 20
320.393343
 11
416.05462
 21
320.393343
  0
LINE
  5
64
100
AcDbEntity
  8
M0
  6
CONTINUOUS
370
25
100
AcDbLine
 10
445.80462
 20
325.393343
 11
445.80462
 21
320.893343
  0
LINE
  5
65
100
AcDbEntity
  8
M0
  6
CONTINUOUS
370
25
100
AcDbLine
 10
416.05462
 20
324.70833
 11
416.05462
 21
319.393343
  0
LINE
  5
66
100
AcDbEntity
  8
M0
  6
CONTINUOUS
370
25
100
AcDbLine
 10
417.954613
 20
320.393343
 11
417.954613
 21
319.393343
  0
LINE
  5
67
100
AcDbEntity
  8
M0
  6
CONTINUOUS
370
25
100
AcDbLine
 10
416.05462
 20
319.393343
 11
417.954613
 21
319.393343
  0
LINE
  5
68
100
AcDbEntity
  8
M0
  6
CONTINUOUS
370
25
100
AcDbLine
 10
417.954613
 20
320.393343
 11
445.30462
 21
320.393343
  0
LINE
  5
69
100
AcDbEntity
  8
M0
  6
CONTINUOUS
370
25
100
AcDbLine
 10
445.80462
 20
325.393343
 11
446.30462
 21
325.393343
  0
LINE
  5
6A
100
AcDbEntity
  8
M0
  6
CONTINUOUS
370
25
100
AcDbLine
 10
453.80462
 20
344.393343
 11
453.80462
 21
325.393343
  0
LINE
  5
6B
100
AcDbEntity
  8
M0
  6
CONTINUOUS
370
25
100
AcDbLine
 10
447.80462
 20
335.393343
 11
447.80462
 21
326.893343
  0
LINE
  5
6C
100
AcDbEntity
  8
M0
  6
CONTINUOUS
370
25
100
AcDbLine
 10
449.104623
 20
321.393343
 11
457.80462
 21
321.393343
  0
LINE
  5
6D
100
AcDbEntity
  8
M0
  6
CONTINUOUS
370
25
100
AcDbLine
 10
453.80462
 20
325.393343
 11
457.30462
 21
325.393343
  0
LINE
  5
6E
100
AcDbEntity
  8
M0
  6
CONTINUOUS
370
25
100
AcDbLine
 10
448.80462
 20
321.09334
 11
448.80462
 21
312.893343
  0
LINE
  5
6F
100
AcDbEntity
  8
M0
  6
CONTINUOUS
370
25
100
AcDbLine
 10
450.30462
 20
344.893343
 11
453.30462
 21
344.893343
  0
LINE
  5
70
100
AcDbEntity
  8
M0
  6
CONTINUOUS
370
25
100
AcDbLine
 10
450.30462
 20
366.393343
 11
450.30462
 21
335.893358
  0
LINE
  5
71
100
AcDbEntity
  8
M0
  6
CONTINUOUS
370
25
100
AcDbLine
 10
447.80462
 20
335.393343
 11
449.80462
 21
335.393343
  0
LINE
  5
72
100
AcDbEntity
  8
M0
  6
CONTINUOUS
370
25
100
AcDbLine
 10
447.80462
 20
317.393343
 11
447.80462
 21
314.993349
  0
LINE
  5
73
100
AcDbEntity
  8
M0
  6
CONTINUOUS
370
25
100
AcDbLine
 10
447.80462
 20
317.393343
 11
448.80462
 21
317.393343
  0
LINE
  5
74
100
AcDbEntity
  8
M0
  6
CONTINUOUS
370
25
100
AcDbLine
 10
446.504616
 20
314.993349
 11
446.504616
 21
312.893343
  0
LINE
  5
75
100
AcDbEntity
  8
M0
  6
CONTINUOUS
370
25
100
AcDbLine
 10
446.504616
 20
314.993349
 11
448.504616
 21
314.993349
  0
LINE
  5
76
100
AcDbEntity
  8
M0
  6
CONTINUOUS
370
25
100
AcDbLine
 10
449.804665
 20
335.393297
 11
450.304665
 21
335.893312
  0
LINE
  5
77
100
AcDbEntity
  8
M0
  6
CONTINUOUS
370
25
100
AcDbLine
 10
457.304604
 20
325.393358
 11
457.80462
 21
324.893343
  0
LINE
  5
78
100
AcDbEntity
  8
M0
  6
CONTINUOUS
370
25
100
AcDbLine
 10
453.304604
 20
344.893358
 11
453.804604
 21
344.393358
  0
LINE
  5
79
100
AcDbEntity
  8
M0
  6
CONTINUOUS
370
25
100
AcDbLine
 10
448.504616
 20
315.893343
 11
448.504616
 21
312.893343
  0
LINE
  5
7A
100
AcDbEntity
  8
M0
  6
CONTINUOUS
370
25
100
AcDbLine
 10
448.504616
 20
315.893343
 11
448.80462
 21
315.893343
  0
LINE
  5
7B
100
AcDbEntity
  8
M0
  6
CONTINUOUS
370
25
100
AcDbLine
 10
446.504647
 20
314.993319
 11
448.504647
 21
312.893328
  0
LINE
  5
7C
100
AcDbEntity
  8
M0
  6
CONTINUOUS
370
25
100
AcDbLine
 10
448.504647
 20
314.993319
 11
446.504647
 21
312.893312
  0
LINE
  5
7D
100
AcDbEntity
  8
M0
  6
CONTINUOUS
370
25
100
AcDbLine
 10
457.80462
 20
312.393343
 11
457.80462
 21
300.393343
  0
LINE
  5
7E
100
AcDbEntity
  8
M0
  6
CONTINUOUS
370
25
100
AcDbLine
 10
457.80462
 20
320.893343
 11
457.80462
 21
313.393343
  0
LINE
  5
7F
100
AcDbEntity
  8
M0
  6
CONTINUOUS
370
25
100
AcDbLine
 10
448.80462
 20
315.143343
 11
451.80462
 21
315.143343
  0
LINE
  5
80
100
AcDbEntity
  8
M0
  6
CONTINUOUS
370
25
100
AcDbLine
 10
448.80462
 20
319.143343
 11
451.80462
 21
319.143343
  0
LINE
  5
81
100
AcDbEntity
  8
M0
  6
CONTINUOUS
370
25
100
AcDbLine
 10
456.504616
 20
320.393343
 11
456.504616
 21
313.893343
  0
LINE
  5
82
100
AcDbEntity
  8
M0
  6
CONTINUOUS
370
25
100
AcDbLine
 10
450.104623
 20
320.393343
 11
450.104623
 21
313.893343
  0
LINE
  5
83
100
AcDbEntity
  8
M0
  6
CONTINUOUS
370
25
100
AcDbLine
 10
454.80462
 20
319.143343
 11
457.80462
 21
319.143343
  0
LINE
  5
84
100
AcDbEntity
  8
M0
  6
CONTINUOUS
370
25
100
AcDbLine
 10
454.80462
 20
315.143343
 11
457.80462
 21
315.143343
  0
LINE
  5
85
100
AcDbEntity
  8
M0
  6
CONTINUOUS
370
25
100
AcDbLine
 10
447.80462
 20
366.393343
 11
447.80462
 21
335.393343
  0
LINE
  5
86
100
AcDbEntity
  8
M0
  6
CONTINUOUS
370
25
100
AcDbLine
 10
447.80462
 20
366.393343
 11
450.30462
 21
366.393343
  0
LINE
  5
87
100
AcDbEntity
  8
M0
  6
CONTINUOUS
370
25
100
AcDbLine
 10
430.80462
 20
362.393343
 11
430.80462
 21
345.575533
  0
LINE
  5
88
100
AcDbEntity
  8
M0
  6
CONTINUOUS
370
25
100
AcDbLine
 10
433.80462
 20
365.393343
 11
446.80462
 21
365.393343
  0
LINE
  5
89
100
AcDbEntity
  8
M0
  6
CONTINUOUS
370
25
100
AcDbLine
 10
435.931634
 20
339.639376
 11
444.004632
 21
338.452181
  0
LINE
  5
8A
100
AcDbEntity
  8
M0
  6
CONTINUOUS
370
25
100
AcDbLine
 10
413.30462
 20
345.893343
 11
409.30462
 21
345.893343
  0
LINE
  5
8B
100
AcDbEntity
  8
M0
  6
CONTINUOUS
370
25
100
AcDbLine
 10
409.30462
 20
345.893343
 11
409.30462
 21
339.893343
  0
LINE
  5
8C
100
AcDbEntity
  8
M0
  6
CONTINUOUS
370
25
100
AcDbLine
 10
413.30462
 20
345.893343
 11
413.30462
 21
334.893343
  0
LINE
  5
8D
100
AcDbEntity
  8
M0
  6
CONTINUOUS
370
25
100
AcDbLine
 10
407.80462
 20
339.893343
 11
407.80462
 21
335.393343
  0
LINE
  5
8E
100
AcDbEntity
  8
M0
  6
CONTINUOUS
370
25
100
AcDbLine
 10
409.30462
 20
339.893343
 11
407.80462
 21
339.893343
  0
LINE
  5
8F
100
AcDbEntity
  8
M0
  6
CONTINUOUS
370
25
100
AcDbLine
 10
413.30465
 20
334.893328
 11
407.80465
 21
329.393328
  0
LINE
  5
90
100
AcDbEntity
  8
M0
  6
CONTINUOUS
370
25
100
AcDbLine
 10
407.80462
 20
329.393343
 11
407.80462
 21
320.393343
  0
LINE
  5
91
100
AcDbEntity
  8
M0
  6
CONTINUOUS
370
25
100
AcDbLine
 10
406.30462
 20
314.943346
 11
404.30462
 21
314.943346
  0
LINE
  5
92
100
AcDbEntity
  8
M0
  6
CONTINUOUS
370
25
100
AcDbLine
 10
404.30462
 20
313.393343
 11
402.80462
 21
313.393343
  0
LINE
  5
93
100
AcDbEntity
  8
M0
  6
CONTINUOUS
370
25
100
AcDbLine
 10
404.30462
 20
314.943346
 11
404.30462
 21
312.893343
  0
LINE
  5
94
100
AcDbEntity
  8
M0
  6
CONTINUOUS
370
25
100
AcDbLine
 10
402.80462
 20
331.143343
 11
402.80462
 21
313.393343
  0
LINE
  5
95
100
AcDbEntity
  8
M0
  6
CONTINUOUS
370
25
100
AcDbLine
 10
407.804589
 20
335.393358
 11
404.504601
 21
332.443346
  0
LINE
  5
96
100
AcDbEntity
  8
M0
  6
CONTINUOUS
370
25
100
AcDbLine
 10
404.504632
 20
332.443331
 11
402.90487
 21
334.232912
  0
LINE
  5
97
100
AcDbEntity
  8
M0
  6
CONTINUOUS
370
25
100
AcDbLine
 10
402.804558
 20
331.143374
 11
401.016686
 21
333.143358
  0
LINE
  5
98
100
AcDbEntity
  8
M0
  6
CONTINUOUS
370
25
100
AcDbLine
 10
401.016747
 20
333.393343
 11
401.016747
 21
333.143343
  0
LINE
  5
99
100
AcDbEntity
  8
M0
  6
CONTINUOUS
370
25
100
AcDbLine
 10
401.016808
 20
333.393236
 11
402.9049
 21
334.232821
  0
LINE
  5
9A
100
AcDbEntity
  8
M0
  6
CONTINUOUS
370
25
100
AcDbLine
 10
406.30465
 20
314.943331
 11
404.30465
 21
312.893312
  0
LINE
  5
9B
100
AcDbEntity
  8
M0
  6
CONTINUOUS
370
25
100
AcDbLine
 10
404.30462
 20
314.943346
 11
406.30462
 21
312.893343
  0
LINE
  5
9C
100
AcDbEntity
  8
M0
  6
CONTINUOUS
370
25
100
AcDbLine
 10
382.30462
 20
345.943346
 11
382.30462
 21
339.893343
  0
LINE
  5
9D
100
AcDbEntity
  8
M0
  6
CONTINUOUS
370
25
100
AcDbLine
 10
382.30462
 20
345.943346
 11
409.30462
 21
345.943346
  0
LINE
  5
9E
100
AcDbEntity
  8
M0
  6
CONTINUOUS
370
25
100
AcDbLine
 10
382.30462
 20
339.893343
 11
407.80462
 21
339.893343
  0
LINE
  5
9F
100
AcDbEntity
  8
M0
  6
CONTINUOUS
370
25
100
AcDbLine
 10
387.80462
 20
320.393343
 11
388.80462
 21
320.393343
  0
LINE
  5
A0
100
AcDbEntity
  8
M0
  6
CONTINUOUS
370
25
100
AcDbLine
 10
387.80462
 20
325.393328
 11
384.804589
 21
319.393312
  0
LINE
  5
A1
100
AcDbEntity
  8
M0
  6
CONTINUOUS
370
25
100
AcDbLine
 10
384.804589
 20
325.393312
 11
387.804589
 21
319.393328
  0
LINE
  5
A2
100
AcDbEntity
  8
M0
  6
CONTINUOUS
370
25
100
AcDbLine
 10
384.80462
 20
325.393343
 11
384.80462
 21
319.393343
  0
LINE
  5
A3
100
AcDbEntity
  8
M0
  6
CONTINUOUS
370
25
100
AcDbLine
 10
387.80462
 20
325.393343
 11
387.80462
 21
319.393343
  0
LINE
  5
A4
100
AcDbEntity
  8
M0
  6
CONTINUOUS
370
25
100
AcDbLine
 10
384.80462
 20
325.393343
 11
387.80462
 21
325.393343
  0
LINE
  5
A5
100
AcDbEntity
  8
M0
  6
CONTINUOUS
370
25
100
AcDbLine
 10
378.30462
 20
345.893343
 11
378.30462
 21
334.893343
  0
LINE
  5
A6
100
AcDbEntity
  8
M0
  6
CONTINUOUS
370
25
100
AcDbLine
 10
378.30462
 20
345.893343
 11
382.30462
 21
345.893343
  0
LINE
  5
A7
100
AcDbEntity
  8
M0
  6
CONTINUOUS
370
25
100
AcDbLine
 10
383.80462
 20
339.893343
 11
383.80462
 21
335.393343
  0
LINE
  5
A8
100
AcDbEntity
  8
M0
  6
CONTINUOUS
370
25
100
AcDbLine
 10
387.104638
 20
332.143374
 11
383.804681
 21
335.393374
  0
LINE
  5
A9
100
AcDbEntity
  8
M0
  6
CONTINUOUS
370
25
100
AcDbLine
 10
388.80462
 20
331.143343
 11
388.80462
 21
320.393343
  0
LINE
  5
AA
100
AcDbEntity
  8
M0
  6
CONTINUOUS
370
25
100
AcDbLine
 10
389.074334
 20
334.143297
 11
387.104607
 21
332.143328
  0
LINE
  5
AB
100
AcDbEntity
  8
M0
  6
CONTINUOUS
370
25
100
AcDbLine
 10
383.80462
 20
329.393343
 11
383.80462
 21
320.393343
  0
LINE
  5
AC
100
AcDbEntity
  8
M0
  6
CONTINUOUS
370
25
100
AcDbLine
 10
383.80462
 20
320.393343
 11
384.80462
 21
320.393343
  0
LINE
  5
AD
100
AcDbEntity
  8
M0
  6
CONTINUOUS
370
25
100
AcDbLine
 10
390.774316
 20
333.143404
 11
388.804558
 21
331.143374
  0
LINE
  5
AE
100
AcDbEntity
  8
M0
  6
CONTINUOUS
370
25
100
AcDbLine
 10
378.304589
 20
334.893297
 11
383.804589
 21
329.393328
  0
LINE
  5
AF
100
AcDbEntity
  8
M0
  6
CONTINUOUS
370
25
100
AcDbLine
 10
389.074273
 20
334.143282
 11
390.774255
 21
333.393297
  0
LINE
  5
B0
100
AcDbEntity
  8
M0
  6
CONTINUOUS
370
25
100
AcDbLine
 10
390.774346
 20
333.393343
 11
390.774346
 21
333.143343
  0
LINE
  5
B1
100
AcDbEntity
  8
M0
  6
CONTINUOUS
370
25
100
AcDbLine
 10
364.80465
 20
312.393312
 11
365.30465
 21
312.893312
  0
LINE
  5
B2
100
AcDbEntity
  8
M0
  6
CONTINUOUS
370
25
100
AcDbLine
 10
457.304635
 20
312.893328
 11
457.80462
 21
312.393343
  0
LINE
  5
B3
100
AcDbEntity
  8
M0
  6
CONTINUOUS
370
25
100
AcDbLine
 10
364.80462
 20
312.393358
 11
364.80462
 21
300.393343
  0
LINE
  5
B4
100
AcDbEntity
  8
M0
  6
CONTINUOUS
370
25
100
AcDbLine
 10
364.80462
 20
321.393343
 11
367.05462
 21
321.393343
  0
LINE
  5
B5
100
AcDbEntity
  8
M0
  6
CONTINUOUS
370
25
100
AcDbLine
 10
379.80462
 20
323.393343
 11
379.80462
 21
318.393343
  0
LINE
  5
B6
100
AcDbEntity
  8
M0
  6
CONTINUOUS
370
25
100
AcDbLine
 10
367.05462
 20
322.643343
 11
368.954613
 21
322.643343
  0
LINE
  5
B7
100
AcDbEntity
  8
M0
  6
CONTINUOUS
370
25
100
AcDbLine
 10
368.954613
 20
321.393343
 11
377.30462
 21
321.393343
  0
LINE
  5
B8
100
AcDbEntity
  8
M0
  6
CONTINUOUS
370
25
100
AcDbLine
 10
364.80462
 20
325.393343
 11
368.80462
 21
325.393343
  0
LINE
  5
B9
100
AcDbEntity
  8
M0
  6
CONTINUOUS
370
25
100
AcDbLine
 10
377.80462
 20
320.893343
 11
377.80462
 21
312.893343
  0
LINE
  5
BA
100
AcDbEntity
  8
M0
  6
CONTINUOUS
370
25
100
AcDbLine
 10
377.80462
 20
318.393343
 11
379.80462
 21
318.393343
  0
LINE
  5
BB
100
AcDbEntity
  8
M0
  6
CONTINUOUS
370
25
100
AcDbLine
 10
367.05462
 20
322.643343
 11
367.05462
 21
318.879732
  0
LINE
  5
BC
100
AcDbEntity
  8
M0
  6
CONTINUOUS
370
25
100
AcDbLine
 10
368.954613
 20
322.643343
 11
368.954613
 21
321.393343
  0
LINE
  5
BD
100
AcDbEntity
  8
M0
  6
CONTINUOUS
370
25
100
AcDbLine
 10
368.80462
 20
335.393343
 11
368.80462
 21
325.393343
  0
LINE
  5
BE
100
AcDbEntity
  8
M0
  6
CONTINUOUS
370
25
100
AcDbLine
 10
375.30462
 20
325.393343
 11
377.80462
 21
325.393343
  0
LINE
  5
BF
100
AcDbEntity
  8
M0
  6
CONTINUOUS
370
25
100
AcDbLine
 10
370.30462
 20
358.393343
 11
370.30462
 21
336.893343
  0
LINE
  5
C0
100
AcDbEntity
  8
M0
  6
CONTINUOUS
370
25
100
AcDbLine
 10
375.80462
 20
356.393343
 11
375.80462
 21
347.893343
  0
LINE
  5
C1
100
AcDbEntity
  8
M0
  6
CONTINUOUS
370
25
100
AcDbLine
 10
377.30462
 20
358.393343
 11
377.30462
 21
356.393343
  0
LINE
  5
C2
100
AcDbEntity
  8
M0
  6
CONTINUOUS
370
25
100
AcDbLine
 10
370.30462
 20
358.393343
 11
377.30462
 21
358.393343
  0
LINE
  5
C3
100
AcDbEntity
  8
M0
  6
CONTINUOUS
370
25
100
AcDbLine
 10
375.80462
 20
356.393343
 11
377.80462
 21
356.393343
  0
LINE
  5
C4
100
AcDbEntity
  8
M0
  6
CONTINUOUS
370
25
100
AcDbLine
 10
375.30462
 20
347.893343
 11
375.80462
 21
347.893343
  0
LINE
  5
C5
100
AcDbEntity
  8
M0
  6
CONTINUOUS
370
25
100
AcDbLine
 10
373.30462
 20
345.893343
 11
373.30462
 21
327.393343
  0
LINE
  5
C6
100
AcDbEntity
  8
M0
  6
CONTINUOUS
370
25
100
AcDbLine
 10
381.30462
 20
329.393343
 11
381.80462
 21
329.393343
  0
LINE
  5
C7
100
AcDbEntity
  8
M0
  6
CONTINUOUS
370
25
100
AcDbLine
 10
381.30462
 20
329.393343
 11
381.30462
 21
312.893343
  0
LINE
  5
C8
100
AcDbEntity
  8
M0
  6
CONTINUOUS
370
25
100
AcDbLine
 10
252.553643
 20
334.094622
 11
252.553643
 21
326.819277
  0
LINE
  5
C9
100
AcDbEntity
  8
M0
  6
CONTINUOUS
370
25
100
AcDbLine
 10
397.104607
 20
367.393343
 11
377.80462
 21
367.393343
  0
LINE
  5
CA
100
AcDbEntity
  8
M0
  6
CONTINUOUS
370
25
100
AcDbLine
 10
377.80462
 20
367.393343
 11
377.80462
 21
356.393343
  0
LINE
  5
CB
100
AcDbEntity
  8
M0
  6
CONTINUOUS
370
25
100
AcDbLine
 10
398.80462
 20
346.293337
 11
379.80462
 21
346.293337
  0
LINE
  5
CC
100
AcDbEntity
  8
M0
  6
CONTINUOUS
370
25
100
AcDbLine
 10
416.80462
 20
356.393343
 11
416.80462
 21
347.893343
  0
LINE
  5
CD
100
AcDbEntity
  8
M0
  6
CONTINUOUS
370
25
100
AcDbLine
 10
416.80462
 20
356.393343
 11
414.80462
 21
356.393343
  0
LINE
  5
CE
100
AcDbEntity
  8
M0
  6
CONTINUOUS
370
25
100
AcDbLine
 10
395.504632
 20
367.393343
 11
414.80462
 21
367.393343
  0
LINE
  5
CF
100
AcDbEntity
  8
M0
  6
CONTINUOUS
370
25
100
AcDbLine
 10
414.80462
 20
367.393343
 11
414.80462
 21
356.393343
  0
LINE
  5
D0
100
AcDbEntity
  8
M0
  6
CONTINUOUS
370
25
100
AcDbLine
 10
398.80462
 20
346.293337
 11
412.80462
 21
346.293337
  0
LINE
  5
D1
100
AcDbEntity
  8
M0
  6
CONTINUOUS
370
25
100
AcDbLine
 10
415.30462
 20
358.393343
 11
415.30462
 21
356.393343
  0
LINE
  5
D2
100
AcDbEntity
  8
M0
  6
CONTINUOUS
370
25
100
AcDbLine
 10
445.80462
 20
333.393343
 11
445.80462
 21
331.893343
  0
LINE
  5
D3
100
AcDbEntity
  8
M0
  6
CONTINUOUS
370
25
100
AcDbLine
 10
415.30462
 20
358.393343
 11
423.30462
 21
358.393343
  0
LINE
  5
D4
100
AcDbEntity
  8
M0
  6
CONTINUOUS
370
25
100
AcDbLine
 10
429.80462
 20
328.893343
 11
433.80462
 21
328.893343
  0
LINE
  5
D5
100
AcDbEntity
  8
M0
  6
CONTINUOUS
370
25
100
AcDbLine
 10
418.30462
 20
331.393343
 11
429.30462
 21
331.393343
  0
LINE
  5
D6
100
AcDbEntity
  8
M0
  6
CONTINUOUS
370
25
100
AcDbLine
 10
416.80462
 20
347.893343
 11
417.30462
 21
347.893343
  0
LINE
  5
D7
100
AcDbEntity
  8
M0
  6
CONTINUOUS
370
25
100
AcDbLine
 10
375.80465
 20
347.893343
 11
379.80462
 21
346.293337
  0
LINE
  5
D8
100
AcDbEntity
  8
M0
  6
CONTINUOUS
370
25
100
AcDbLine
 10
416.80462
 20
347.893358
 11
412.80462
 21
346.293337
  0
LINE
  5
D9
100
AcDbEntity
  8
M0
  6
CONTINUOUS
370
25
100
AcDbLine
 10
419.30462
 20
345.893343
 11
419.30462
 21
334.484255
  0
LINE
  5
DA
100
AcDbEntity
  8
M0
  6
CONTINUOUS
370
25
100
AcDbLine
 10
433.80462
 20
330.893343
 11
433.80462
 21
320.393343
  0
LINE
  5
DB
100
AcDbEntity
  8
M0
  6
CONTINUOUS
370
25
100
AcDbLine
 10
429.80462
 20
330.893343
 11
429.80462
 21
320.393343
  0
LINE
  5
DC
100
AcDbEntity
  8
M0
  6
CONTINUOUS
370
25
100
AcDbLine
 10
417.80462
 20
333.393343
 11
417.80462
 21
331.893343
  0
LINE
  5
DD
100
AcDbEntity
  8
M0
  6
CONTINUOUS
370
25
100
AcDbLine
 10
434.30462
 20
331.393343
 11
445.30462
 21
331.393343
  0
LINE
  5
DE
100
AcDbEntity
  8
M0
  6
CONTINUOUS
370
25
100
AcDbLine
 10
441.80462
 20
333.393343
 11
445.80462
 21
333.393343
  0
LINE
  5
DF
100
AcDbEntity
  8
M0
  6
CONTINUOUS
370
25
100
AcDbLine
 10
441.80462
 20
335.748903
 11
441.80462
 21
333.393343
  0
LINE
  5
E0
100
AcDbEntity
  8
M0
  6
CONTINUOUS
370
25
100
AcDbLine
 10
419.304681
 20
334.484224
 11
417.80465
 21
333.393312
  0
LINE
  5
E1
100
AcDbEntity
  8
M0
  6
CONTINUOUS
370
25
100
AcDbLine
 10
429.506493
 20
336.842012
 11
441.80462
 21
335.748858
  0
LINE
  5
E2
100
AcDbEntity
  8
M0
  6
CONTINUOUS
370
25
100
AcDbLine
 10
423.30462
 20
358.393343
 11
423.30462
 21
347.793337
  0
LINE
  5
E3
100
AcDbEntity
  8
M0
  6
CONTINUOUS
370
25
100
AcDbLine
 10
427.838708
 20
338.061937
 11
423.765099
 21
347.793337
  0
LINE
  5
E4
100
AcDbEntity
  8
M0
  6
CONTINUOUS
370
25
100
AcDbLine
 10
417.80462
 20
331.893343
 11
418.30462
 21
331.393343
  0
LINE
  5
E5
100
AcDbEntity
  8
M0
  6
CONTINUOUS
370
25
100
AcDbLine
 10
445.80462
 20
331.893343
 11
445.30462
 21
331.393343
  0
LINE
  5
E6
100
AcDbEntity
  8
M0
  6
CONTINUOUS
370
25
100
AcDbLine
 10
417.80462
 20
323.393343
 11
422.146325
 21
323.393343
  0
LINE
  5
E7
100
AcDbEntity
  8
M0
  6
CONTINUOUS
370
25
100
AcDbLine
 10
417.80462
 20
328.393343
 11
422.146325
 21
328.393343
  0
LINE
  5
E8
100
AcDbEntity
  8
M0
  6
CONTINUOUS
370
25
100
AcDbLine
 10
427.80462
 20
330.193346
 11
427.80462
 21
321.59334
  0
LINE
  5
E9
100
AcDbEntity
  8
M0
  6
CONTINUOUS
370
25
100
AcDbLine
 10
419.80462
 20
330.193346
 11
419.80462
 21
321.59334
  0
LINE
  5
EA
100
AcDbEntity
  8
M0
  6
CONTINUOUS
370
25
100
AcDbLine
 10
425.462914
 20
328.393343
 11
429.80462
 21
328.393343
  0
LINE
  5
EB
100
AcDbEntity
  8
M0
  6
CONTINUOUS
370
25
100
AcDbLine
 10
425.462914
 20
323.393343
 11
429.80462
 21
323.393343
  0
LINE
  5
EC
100
AcDbEntity
  8
M0
  6
CONTINUOUS
370
25
100
AcDbLine
 10
435.80462
 20
330.193346
 11
435.80462
 21
321.59334
  0
LINE
  5
ED
100
AcDbEntity
  8
M0
  6
CONTINUOUS
370
25
100
AcDbLine
 10
443.80462
 20
330.193346
 11
443.80462
 21
321.59334
  0
LINE
  5
EE
100
AcDbEntity
  8
M0
  6
CONTINUOUS
370
25
100
AcDbLine
 10
445.80462
 20
328.393343
 11
441.462914
 21
328.393343
  0
LINE
  5
EF
100
AcDbEntity
  8
M0
  6
CONTINUOUS
370
25
100
AcDbLine
 10
438.146325
 20
328.393343
 11
433.80462
 21
328.393343
  0
LINE
  5
F0
100
AcDbEntity
  8
M0
  6
CONTINUOUS
370
25
100
AcDbLine
 10
438.146325
 20
323.393343
 11
433.80462
 21
323.393343
  0
LINE
  5
F1
100
AcDbEntity
  8
M0
  6
CONTINUOUS
370
25
100
AcDbLine
 10
445.80462
 20
323.393343
 11
441.462914
 21
323.393343
  0
LINE
  5
F2
100
AcDbEntity
  8
M0
  6
CONTINUOUS
370
25
100
AcDbLine
 10
416.05462
 20
324.70833
 11
417.80462
 21
324.70833
  0
LINE
  5
F3
100
AcDbEntity
  8
M0
  6
CONTINUOUS
370
25
100
AcDbLine
 10
368.954613
 20
318.743349
 11
372.17965
 21
318.743349
  0
LINE
  5
F4
100
AcDbEntity
  8
M0
  6
CONTINUOUS
370
25
100
AcDbLine
 10
368.954613
 20
315.543337
 11
372.17965
 21
315.543337
  0
LINE
  5
F5
100
AcDbEntity
  8
M0
  6
CONTINUOUS
370
25
100
AcDbLine
 10
370.379632
 20
319.84334
 11
370.379632
 21
314.443346
  0
LINE
  5
F6
100
AcDbEntity
  8
M0
  6
CONTINUOUS
370
25
100
AcDbLine
 10
376.379632
 20
319.84334
 11
376.379632
 21
314.443346
  0
LINE
  5
F7
100
AcDbEntity
  8
M0
  6
CONTINUOUS
370
25
100
AcDbLine
 10
374.579613
 20
318.743349
 11
377.80462
 21
318.743349
  0
LINE
  5
F8
100
AcDbEntity
  8
M0
  6
CONTINUOUS
370
25
100
AcDbLine
 10
374.579613
 20
315.543337
 11
377.80462
 21
315.543337
  0
LINE
  5
F9
100
AcDbEntity
  8
M0
  6
CONTINUOUS
370
25
100
AcDbLine
 10
367.05462
 20
318.879732
 11
368.954613
 21
318.879732
  0
LINE
  5
FA
100
AcDbEntity
  8
M0
  6
CONTINUOUS
370
25
100
AcDbLine
 10
367.604638
 20
316.293352
 11
367.604638
 21
312.343355
  0
LINE
  5
FB
100
AcDbEntity
  8
M0
  6
CONTINUOUS
370
25
100
AcDbLine
 10
397.704613
 20
332.893343
 11
397.704613
 21
319.393343
  0
LINE
  5
FC
100
AcDbEntity
  8
M0
  6
CONTINUOUS
370
25
100
AcDbLine
 10
386.004601
 20
339.393343
 11
394.004601
 21
339.393343
  0
LINE
  5
FD
100
AcDbEntity
  8
M0
  6
CONTINUOUS
370
25
100
AcDbLine
 10
386.004601
 20
339.393343
 11
386.004601
 21
337.893343
  0
LINE
  5
FE
100
AcDbEntity
  8
M0
  6
CONTINUOUS
370
25
100
AcDbLine
 10
386.004601
 20
337.893343
 11
394.80462
 21
332.893343
  0
LINE
  5
FF
100
AcDbEntity
  8
M0
  6
CONTINUOUS
370
25
100
AcDbLine
 10
397.704583
 20
332.893358
 11
406.504601
 21
337.893358
  0
LINE
  5
100
100
AcDbEntity
  8
M0
  6
CONTINUOUS
370
25
100
AcDbLine
 10
406.504601
 20
337.893343
 11
406.504601
 21
339.393343
  0
LINE
  5
101
100
AcDbEntity
  8
M0
  6
CONTINUOUS
370
25
100
AcDbLine
 10
397.704613
 20
325.893343
 11
398.204613
 21
325.893343
  0
LINE
  5
102
100
AcDbEntity
  8
M0
  6
CONTINUOUS
370
25
100
AcDbLine
 10
398.204613
 20
329.854677
 11
398.204613
 21
325.893343
  0
LINE
  5
103
100
AcDbEntity
  8
M0
  6
CONTINUOUS
370
25
100
AcDbLine
 10
397.704583
 20
330.143389
 11
399.869652
 21
331.393389
  0
LINE
  5
104
100
AcDbEntity
  8
M0
  6
CONTINUOUS
370
25
100
AcDbLine
 10
398.204583
 20
329.854723
 11
400.119622
 21
330.960375
  0
LINE
  5
105
100
AcDbEntity
  8
M0
  6
CONTINUOUS
370
25
100
AcDbLine
 10
400.119652
 20
330.960329
 11
399.869652
 21
331.393343
  0
LINE
  5
106
100
AcDbEntity
  8
M0
  6
CONTINUOUS
370
25
100
AcDbLine
 10
369.004601
 20
356.993349
 11
369.004601
 21
347.793337
  0
LINE
  5
107
100
AcDbEntity
  8
M0
  6
CONTINUOUS
370
25
100
AcDbLine
 10
365.908776
 20
356.993349
 11
370.30462
 21
356.993349
  0
LINE
  5
108
100
AcDbEntity
  8
M0
  6
CONTINUOUS
370
25
100
AcDbLine
 10
365.908776
 20
347.793337
 11
370.30462
 21
347.793337
  0
LINE
  5
109
100
AcDbEntity
  8
M0
  6
CONTINUOUS
370
25
100
AcDbLine
 10
369.004601
 20
352.69272
 11
370.304589
 21
353.992723
  0
LINE
  5
10A
100
AcDbEntity
  8
M0
  6
CONTINUOUS
370
25
100
AcDbLine
 10
369.004571
 20
350.571398
 11
370.304589
 21
351.871386
  0
LINE
  5
10B
100
AcDbEntity
  8
M0
  6
CONTINUOUS
370
25
100
AcDbLine
 10
365.504601
 20
356.293337
 11
365.504601
 21
348.493349
  0
LINE
  5
10C
100
AcDbEntity
  8
M0
  6
CONTINUOUS
370
25
100
AcDbLine
 10
365.504571
 20
356.293352
 11
365.908745
 21
356.993364
  0
LINE
  5
10D
100
AcDbEntity
  8
M0
  6
CONTINUOUS
370
25
100
AcDbLine
 10
365.908776
 20
354.893343
 11
369.004601
 21
354.893343
  0
LINE
  5
10E
100
AcDbEntity
  8
M0
  6
CONTINUOUS
370
25
100
AcDbLine
 10
365.908776
 20
349.893343
 11
369.004601
 21
349.893343
  0
LINE
  5
10F
100
AcDbEntity
  8
M0
  6
CONTINUOUS
370
25
100
AcDbLine
 10
365.504601
 20
348.493349
 11
365.908745
 21
347.793337
  0
LINE
  5
110
100
AcDbEntity
  8
M0
  6
CONTINUOUS
370
25
100
AcDbLine
 10
424.604638
 20
356.993349
 11
424.604638
 21
347.793337
  0
LINE
  5
111
100
AcDbEntity
  8
M0
  6
CONTINUOUS
370
25
100
AcDbLine
 10
427.700463
 20
356.993349
 11
423.30462
 21
356.993349
  0
LINE
  5
112
100
AcDbEntity
  8
M0
  6
CONTINUOUS
370
25
100
AcDbLine
 10
427.700463
 20
347.793337
 11
423.30462
 21
347.793337
  0
LINE
  5
113
100
AcDbEntity
  8
M0
  6
CONTINUOUS
370
25
100
AcDbLine
 10
428.104638
 20
356.293337
 11
428.104638
 21
348.493349
  0
LINE
  5
114
100
AcDbEntity
  8
M0
  6
CONTINUOUS
370
25
100
AcDbLine
 10
428.104607
 20
356.293352
 11
427.700463
 21
356.993364
  0
LINE
  5
115
100
AcDbEntity
  8
M0
  6
CONTINUOUS
370
25
100
AcDbLine
 10
427.700463
 20
354.893343
 11
424.604638
 21
354.893343
  0
LINE
  5
116
100
AcDbEntity
  8
M0
  6
CONTINUOUS
370
25
100
AcDbLine
 10
427.700463
 20
349.893343
 11
424.604638
 21
349.893343
  0
LINE
  5
117
100
AcDbEntity
  8
M0
  6
CONTINUOUS
370
25
100
AcDbLine
 10
428.104516
 20
348.49341
 11
427.700371
 21
347.793413
  0
LINE
  5
118
100
AcDbEntity
  8
M0
  6
CONTINUOUS
370
25
100
AcDbLine
 10
365.571068
 20
330.393343
 11
376.081811
 21
330.393343
  0
LINE
  5
119
100
AcDbEntity
  8
M0
  6
CONTINUOUS
370
25
100
AcDbLine
 10
368.80462
 20
332.393343
 11
373.30462
 21
332.393343
  0
LINE
  5
11A
100
AcDbEntity
  8
M0
  6
CONTINUOUS
370
25
100
AcDbLine
 10
368.80462
 20
328.393343
 11
373.30462
 21
328.393343
  0
LINE
  5
11B
100
AcDbEntity
  8
M0
  6
CONTINUOUS
370
25
100
AcDbLine
 10
368.80462
 20
331.993349
 11
373.30462
 21
331.993349
  0
LINE
  5
11C
100
AcDbEntity
  8
M0
  6
CONTINUOUS
370
25
100
AcDbLine
 10
368.80462
 20
328.793337
 11
373.30462
 21
328.793337
  0
LINE
  5
11D
100
AcDbEntity
  8
M0
  6
CONTINUOUS
370
25
100
AcDbLine
 10
446.80462
 20
344.443346
 11
446.80462
 21
336.34334
  0
LINE
  5
11E
100
AcDbEntity
  8
M0
  6
CONTINUOUS
370
25
100
AcDbLine
 10
446.80462
 20
344.193346
 11
447.80462
 21
344.193346
  0
LINE
  5
11F
100
AcDbEntity
  8
M0
  6
CONTINUOUS
370
25
100
AcDbLine
 10
446.80462
 20
336.59334
 11
447.80462
 21
336.59334
  0
LINE
  5
120
100
AcDbEntity
  8
M0
  6
CONTINUOUS
370
25
100
AcDbLine
 10
444.004616
 20
343.793322
 11
444.004616
 21
336.993349
  0
LINE
  5
121
100
AcDbEntity
  8
M0
  6
CONTINUOUS
370
25
100
AcDbLine
 10
444.379906
 20
342.393343
 11
446.80462
 21
342.393343
  0
LINE
  5
122
100
AcDbEntity
  8
M0
  6
CONTINUOUS
370
25
100
AcDbLine
 10
444.379906
 20
338.393343
 11
446.80462
 21
338.393343
  0
LINE
  5
123
100
AcDbEntity
  8
M0
  6
CONTINUOUS
370
25
100
AcDbLine
 10
444.379906
 20
344.443346
 11
446.80462
 21
344.443346
  0
LINE
  5
124
100
AcDbEntity
  8
M0
  6
CONTINUOUS
370
25
100
AcDbLine
 10
444.379891
 20
336.34334
 11
446.80462
 21
336.34334
  0
LINE
  5
125
100
AcDbEntity
  8
M0
  6
CONTINUOUS
370
25
100
AcDbLine
 10
444.004616
 20
343.793352
 11
444.379906
 21
344.443361
  0
LINE
  5
126
100
AcDbEntity
  8
M0
  6
CONTINUOUS
370
25
100
AcDbLine
 10
444.004632
 20
336.993349
 11
444.379922
 21
336.343325
  0
LINE
  5
127
100
AcDbEntity
  8
M0
  6
CONTINUOUS
370
25
100
AcDbLine
 10
446.804604
 20
340.895678
 11
447.804604
 21
341.895678
  0
LINE
  5
128
100
AcDbEntity
  8
M0
  6
CONTINUOUS
370
25
100
AcDbLine
 10
446.804604
 20
339.481463
 11
447.804604
 21
340.481463
  0
LINE
  5
129
100
AcDbEntity
  8
M0
  6
CONTINUOUS
370
25
100
AcDbLine
 10
446.528863
 20
330.393343
 11
455.538079
 21
330.393343
  0
LINE
  5
12A
100
AcDbEntity
  8
M0
  6
CONTINUOUS
370
25
100
AcDbLine
 10
447.80462
 20
332.393343
 11
453.80462
 21
332.393343
  0
LINE
  5
12B
100
AcDbEntity
  8
M0
  6
CONTINUOUS
370
25
100
AcDbLine
 10
447.80462
 20
328.393343
 11
453.80462
 21
328.393343
  0
LINE
  5
12C
100
AcDbEntity
  8
M0
  6
CONTINUOUS
370
25
100
AcDbLine
 10
447.80462
 20
328.793337
 11
453.80462
 21
328.793337
  0
LINE
  5
12D
100
AcDbEntity
  8
M0
  6
CONTINUOUS
370
25
100
AcDbLine
 10
447.80462
 20
331.993349
 11
453.80462
 21
331.993349
  0
LINE
  5
12E
100
AcDbEntity
  8
M0
  6
CONTINUOUS
370
25
100
AcDbLine
 10
364.80462
 20
275.393358
 11
364.80462
 21
300.393343
  0
LINE
  5
12F
100
AcDbEntity
  8
M0
  6
CONTINUOUS
370
25
100
AcDbLine
 10
457.80462
 20
275.893358
 11
457.80462
 21
300.393343
  0
LINE
  5
130
100
AcDbEntity
  8
M0
  6
CONTINUOUS
370
25
100
AcDbLine
 10
453.80462
 20
256.393358
 11
453.80462
 21
300.393343
  0
LINE
  5
131
100
AcDbEntity
  8
M0
  6
CONTINUOUS
370
25
100
AcDbLine
 10
453.80462
 20
275.393358
 11
457.30462
 21
275.393358
  0
LINE
  5
132
100
AcDbEntity
  8
M0
  6
CONTINUOUS
370
25
100
AcDbLine
 10
450.30462
 20
255.893358
 11
453.30462
 21
255.893358
  0
LINE
  5
133
100
AcDbEntity
  8
M0
  6
CONTINUOUS
370
25
100
AcDbLine
 10
450.30462
 20
234.393358
 11
450.30462
 21
300.393343
  0
LINE
  5
134
100
AcDbEntity
  8
M0
  6
CONTINUOUS
370
25
100
AcDbLine
 10
457.30465
 20
275.393343
 11
457.80465
 21
275.893343
  0
LINE
  5
135
100
AcDbEntity
  8
M0
  6
CONTINUOUS
370
25
100
AcDbLine
 10
453.304635
 20
255.893351
 11
453.804635
 21
256.393343
  0
LINE
  5
136
100
AcDbEntity
  8
M0
  6
CONTINUOUS
370
25
100
AcDbLine
 10
447.80462
 20
234.393358
 11
447.80462
 21
300.393343
  0
LINE
  5
137
100
AcDbEntity
  8
M0
  6
CONTINUOUS
370
25
100
AcDbLine
 10
447.80462
 20
234.393358
 11
450.30462
 21
234.393358
  0
LINE
  5
138
100
AcDbEntity
  8
M0
  6
CONTINUOUS
370
25
100
AcDbLine
 10
433.80462
 20
235.393358
 11
446.80462
 21
235.393358
  0
LINE
  5
139
100
AcDbEntity
  8
M0
  6
CONTINUOUS
370
25
100
AcDbLine
 10
364.80462
 20
275.393358
 11
365.504601
 21
275.393358
  0
LINE
  5
13A
100
AcDbEntity
  8
M0
  6
CONTINUOUS
370
25
100
AcDbLine
 10
377.80462
 20
279.893358
 11
377.80462
 21
287.393358
  0
LINE
  5
13B
100
AcDbEntity
  8
M0
  6
CONTINUOUS
370
25
100
AcDbLine
 10
368.80462
 20
265.393358
 11
368.80462
 21
269.793337
  0
LINE
  5
13C
100
AcDbEntity
  8
M0
  6
CONTINUOUS
370
25
100
AcDbLine
 10
370.30462
 20
242.393358
 11
370.30462
 21
300.393343
  0
LINE
  5
13D
100
AcDbEntity
  8
M0
  6
CONTINUOUS
370
25
100
AcDbLine
 10
370.30462
 20
242.393358
 11
377.80462
 21
242.393358
  0
LINE
  5
13E
100
AcDbEntity
  8
M0
  6
CONTINUOUS
370
25
100
AcDbLine
 10
397.104607
 20
233.393358
 11
377.80462
 21
233.393358
  0
LINE
  5
13F
100
AcDbEntity
  8
M0
  6
CONTINUOUS
370
25
100
AcDbLine
 10
377.80462
 20
233.393358
 11
377.80462
 21
300.393343
  0
LINE
  5
140
100
AcDbEntity
  8
M0
  6
CONTINUOUS
370
25
100
AcDbLine
 10
395.504632
 20
233.393358
 11
414.80462
 21
233.393358
  0
LINE
  5
141
100
AcDbEntity
  8
M0
  6
CONTINUOUS
370
25
100
AcDbLine
 10
414.80462
 20
233.393358
 11
414.80462
 21
300.393343
  0
LINE
  5
142
100
AcDbEntity
  8
M0
  6
CONTINUOUS
370
25
100
AcDbLine
 10
414.80462
 20
242.393358
 11
423.30462
 21
242.393358
  0
LINE
  5
143
100
AcDbEntity
  8
M0
  6
CONTINUOUS
370
25
100
AcDbLine
 10
429.506493
 20
263.944658
 11
430.804589
 21
264.060045
  0
LINE
  5
144
100
AcDbEntity
  8
M0
  6
CONTINUOUS
370
25
100
AcDbLine
 10
423.30462
 20
242.393358
 11
423.30462
 21
300.393343
  0
LINE
  5
145
100
AcDbEntity
  8
M0
  6
CONTINUOUS
370
25
100
AcDbLine
 10
427.838677
 20
262.724794
 11
423.765069
 21
252.993372
  0
LINE
  5
146
100
AcDbEntity
  8
M0
  6
CONTINUOUS
370
25
100
AcDbLine
 10
369.004601
 20
269.793337
 11
369.004601
 21
278.993349
  0
LINE
  5
147
100
AcDbEntity
  8
M0
  6
CONTINUOUS
370
25
100
AcDbLine
 10
365.908776
 20
269.793337
 11
370.30462
 21
269.793337
  0
LINE
  5
148
100
AcDbEntity
  8
M0
  6
CONTINUOUS
370
25
100
AcDbLine
 10
365.908776
 20
278.993349
 11
370.30462
 21
278.993349
  0
LINE
  5
149
100
AcDbEntity
  8
M0
  6
CONTINUOUS
370
25
100
AcDbLine
 10
365.504601
 20
270.493349
 11
365.504601
 21
278.293337
  0
LINE
  5
14A
100
AcDbEntity
  8
M0
  6
CONTINUOUS
370
25
100
AcDbLine
 10
365.504571
 20
270.493319
 11
365.908715
 21
269.793322
  0
LINE
  5
14B
100
AcDbEntity
  8
M0
  6
CONTINUOUS
370
25
100
AcDbLine
 10
365.908776
 20
271.893343
 11
369.004601
 21
271.893343
  0
LINE
  5
14C
100
AcDbEntity
  8
M0
  6
CONTINUOUS
370
25
100
AcDbLine
 10
365.50454
 20
278.293383
 11
365.908684
 21
278.993395
  0
LINE
  5
14D
100
AcDbEntity
  8
M0
  6
CONTINUOUS
370
25
100
AcDbLine
 10
424.604638
 20
243.793352
 11
424.604638
 21
252.993364
  0
LINE
  5
14E
100
AcDbEntity
  8
M0
  6
CONTINUOUS
370
25
100
AcDbLine
 10
427.700463
 20
243.793352
 11
423.30462
 21
243.793352
  0
LINE
  5
14F
100
AcDbEntity
  8
M0
  6
CONTINUOUS
370
25
100
AcDbLine
 10
427.700463
 20
252.993364
 11
423.30462
 21
252.993364
  0
LINE
  5
150
100
AcDbEntity
  8
M0
  6
CONTINUOUS
370
25
100
AcDbLine
 10
424.604638
 20
248.093988
 11
423.30462
 21
246.793985
  0
LINE
  5
151
100
AcDbEntity
  8
M0
  6
CONTINUOUS
370
25
100
AcDbLine
 10
424.604638
 20
250.215334
 11
423.30465
 21
248.915339
  0
LINE
  5
152
100
AcDbEntity
  8
M0
  6
CONTINUOUS
370
25
100
AcDbLine
 10
428.104638
 20
244.493364
 11
428.104638
 21
252.293352
  0
LINE
  5
153
100
AcDbEntity
  8
M0
  6
CONTINUOUS
370
25
100
AcDbLine
 10
428.104577
 20
244.493387
 11
427.700432
 21
243.793375
  0
LINE
  5
154
100
AcDbEntity
  8
M0
  6
CONTINUOUS
370
25
100
AcDbLine
 10
427.700463
 20
245.893358
 11
424.604638
 21
245.893358
  0
LINE
  5
155
100
AcDbEntity
  8
M0
  6
CONTINUOUS
370
25
100
AcDbLine
 10
427.700463
 20
250.893358
 11
424.604638
 21
250.893358
  0
LINE
  5
156
100
AcDbEntity
  8
M0
  6
CONTINUOUS
370
25
100
AcDbLine
 10
428.104577
 20
252.293345
 11
427.700432
 21
252.993341
  0
LINE
  5
157
100
AcDbEntity
  8
M0
  6
CONTINUOUS
370
25
100
AcDbLine
 10
578.684655
 20
300.393343
 11
585.746018
 21
300.393343
  0
LINE
  5
158
100
AcDbEntity
  8
M0
  6
CONTINUOUS
370
25
100
AcDbLine
 10
397.638573
 20
337.893343
 11
398.504601
 21
339.393358
  0
LINE
  5
159
100
AcDbEntity
  8
M0
  6
CONTINUOUS
370
25
100
AcDbLine
 10
394.870629
 20
337.893343
 11
397.638573
 21
337.893343
  0
LINE
  5
15A
100
AcDbEntity
  8
M0
  6
CONTINUOUS
370
25
100
AcDbLine
 10
394.870599
 20
337.893358
 11
394.00454
 21
339.393358
  0
LINE
  5
15B
100
AcDbEntity
  8
M0
  6
CONTINUOUS
370
25
100
AcDbLine
 10
398.504601
 20
339.393343
 11
406.504632
 21
339.393343
  0
LINE
  5
15C
100
AcDbEntity
  8
M0
  6
CONTINUOUS
370
25
100
AcDbLine
 10
297.57058
 20
331.002794
 11
293.603173
 21
328.712206
  0
LINE
  5
15D
100
AcDbEntity
  8
M0
  6
CONTINUOUS
370
25
100
AcDbLine
 10
301.570641
 20
324.074587
 11
297.603234
 21
321.783999
  0
LINE
  5
15E
100
AcDbEntity
  8
M0
  6
CONTINUOUS
370
25
100
AcDbLine
 10
297.570702
 20
331.00284
 11
301.570702
 21
328.693438
  0
LINE
  5
15F
100
AcDbEntity
  8
M0
  6
CONTINUOUS
370
25
100
AcDbLine
 10
293.603173
 20
328.712099
 11
293.603173
 21
324.093325
  0
LINE
  5
160
100
AcDbEntity
  8
M0
  6
CONTINUOUS
370
25
100
AcDbLine
 10
301.57058
 20
324.074556
 11
301.57058
 21
328.693331
  0
LINE
  5
161
100
AcDbEntity
  8
M0
  6
CONTINUOUS
370
25
100
AcDbLine
 10
297.603173
 20
321.784075
 11
293.603203
 21
324.093462
  0
LINE
  5
162
100
AcDbEntity
  8
M0
  6
CONTINUOUS
370
25
100
AcDbLine
 10
256.553673
 20
350.102678
 11
252.553673
 21
347.793261
  0
LINE
  5
163
100
AcDbEntity
  8
M0
  6
CONTINUOUS
370
25
100
AcDbLine
 10
248.553643
 20
354.683947
 11
248.553643
 21
350.102739
  0
LINE
  5
164
100
AcDbEntity
  8
M0
  6
CONTINUOUS
370
25
100
AcDbLine
 10
256.553643
 20
354.683947
 11
256.553643
 21
350.102739
  0
LINE
  5
165
100
AcDbEntity
  8
M0
  6
CONTINUOUS
370
25
100
AcDbLine
 10
248.553643
 20
354.683962
 11
252.553643
 21
356.993364
  0
LINE
  5
166
100
AcDbEntity
  8
M0
  6
CONTINUOUS
370
25
100
AcDbLine
 10
248.553673
 20
350.102724
 11
252.553704
 21
347.793306
  0
LINE
  5
167
100
AcDbEntity
  8
M0
  6
CONTINUOUS
370
25
100
AcDbLine
 10
256.553673
 20
354.683931
 11
252.553704
 21
356.993319
  0
LINE
  5
168
100
AcDbEntity
  8
M0
  6
CONTINUOUS
370
25
100
AcDbLine
 10
211.504021
 20
328.712114
 11
211.504021
 21
324.093309
  0
LINE
  5
169
100
AcDbEntity
  8
M0
  6
CONTINUOUS
370
25
100
AcDbLine
 10
203.536614
 20
324.074541
 11
207.504021
 21
321.783953
  0
LINE
  5
16A
100
AcDbEntity
  8
M0
  6
CONTINUOUS
370
25
100
AcDbLine
 10
207.536614
 20
331.002749
 11
211.504021
 21
328.71216
  0
LINE
  5
16B
100
AcDbEntity
  8
M0
  6
CONTINUOUS
370
25
100
AcDbLine
 10
203.536614
 20
324.074541
 11
203.536614
 21
328.693346
  0
LINE
  5
16C
100
AcDbEntity
  8
M0
  6
CONTINUOUS
370
25
100
AcDbLine
 10
207.504113
 20
321.783892
 11
211.504113
 21
324.093294
  0
LINE
  5
16D
100
AcDbEntity
  8
M0
  6
CONTINUOUS
370
25
100
AcDbLine
 10
207.536706
 20
331.002672
 11
203.536706
 21
328.69327
  0
LINE
  5
16E
100
AcDbEntity
  8
M0
  6
CONTINUOUS
370
25
100
AcDbLine
 10
207.504021
 20
279.002718
 11
211.504021
 21
276.693316
  0
LINE
  5
16F
100
AcDbEntity
  8
M0
  6
CONTINUOUS
370
25
100
AcDbLine
 10
207.536553
 20
269.784105
 11
211.503991
 21
272.074694
  0
LINE
  5
170
100
AcDbEntity
  8
M0
  6
CONTINUOUS
370
25
100
AcDbLine
 10
203.536523
 20
276.712297
 11
207.50396
 21
279.002871
  0
LINE
  5
171
100
AcDbEntity
  8
M0
  6
CONTINUOUS
370
25
100
AcDbLine
 10
207.536584
 20
269.783953
 11
203.536584
 21
272.093355
  0
LINE
  5
172
100
AcDbEntity
  8
M0
  6
CONTINUOUS
370
25
100
AcDbLine
 10
211.504113
 20
272.074602
 11
211.504113
 21
276.693407
  0
LINE
  5
173
100
AcDbEntity
  8
M0
  6
CONTINUOUS
370
25
100
AcDbLine
 10
203.536736
 20
276.71216
 11
203.536736
 21
272.093386
  0
LINE
  5
174
100
AcDbEntity
  8
M0
  6
CONTINUOUS
370
25
100
AcDbLine
 10
248.553643
 20
250.684031
 11
252.553612
 21
252.993418
  0
LINE
  5
175
100
AcDbEntity
  8
M0
  6
CONTINUOUS
370
25
100
AcDbLine
 10
256.553643
 20
246.102816
 11
256.553643
 21
250.683992
  0
LINE
  5
176
100
AcDbEntity
  8
M0
  6
CONTINUOUS
370
25
100
AcDbLine
 10
248.553643
 20
246.102785
 11
248.553643
 21
250.683962
  0
LINE
  5
177
100
AcDbEntity
  8
M0
  6
CONTINUOUS
370
25
100
AcDbLine
 10
256.553582
 20
246.102823
 11
252.553582
 21
243.793421
  0
LINE
  5
178
100
AcDbEntity
  8
M0
  6
CONTINUOUS
370
25
100
AcDbLine
 10
256.553582
 20
250.684038
 11
252.553612
 21
252.993425
  0
LINE
  5
179
100
AcDbEntity
  8
M0
  6
CONTINUOUS
370
25
100
AcDbLine
 10
248.553643
 20
246.102869
 11
252.553612
 21
243.793482
  0
LINE
  5
17A
100
AcDbEntity
  8
M0
  6
CONTINUOUS
370
25
100
AcDbLine
 10
293.603295
 20
272.074602
 11
293.603295
 21
276.693407
  0
LINE
  5
17B
100
AcDbEntity
  8
M0
  6
CONTINUOUS
370
25
100
AcDbLine
 10
301.570611
 20
276.712191
 11
297.603203
 21
279.002779
  0
LINE
  5
17C
100
AcDbEntity
  8
M0
  6
CONTINUOUS
370
25
100
AcDbLine
 10
297.570641
 20
269.783968
 11
293.603234
 21
272.074556
  0
LINE
  5
17D
100
AcDbEntity
  8
M0
  6
CONTINUOUS
370
25
100
AcDbLine
 10
301.570733
 20
276.71216
 11
301.570733
 21
272.093355
  0
LINE
  5
17E
100
AcDbEntity
  8
M0
  6
CONTINUOUS
370
25
100
AcDbLine
 10
297.603081
 20
279.002871
 11
293.603112
 21
276.693483
  0
LINE
  5
17F
100
AcDbEntity
  8
M0
  6
CONTINUOUS
370
25
100
AcDbLine
 10
297.57055
 20
269.784121
 11
301.570519
 21
272.093508
  0
LINE
  5
180
100
AcDbEntity
  8
M0
  6
CONTINUOUS
370
25
100
AcDbLine
 10
292.963738
 20
317.950792
 11
281.349328
 21
311.245195
  0
LINE
  5
181
100
AcDbEntity
  8
M0
  6
CONTINUOUS
370
25
100
AcDbLine
 10
369.004601
 20
243.793352
 11
369.004601
 21
252.993364
  0
LINE
  5
182
100
AcDbEntity
  8
M0
  6
CONTINUOUS
370
25
100
AcDbLine
 10
365.908776
 20
243.793352
 11
370.30462
 21
243.793352
  0
LINE
  5
183
100
AcDbEntity
  8
M0
  6
CONTINUOUS
370
25
100
AcDbLine
 10
365.908776
 20
252.993364
 11
370.30462
 21
252.993364
  0
LINE
  5
184
100
AcDbEntity
  8
M0
  6
CONTINUOUS
370
25
100
AcDbLine
 10
365.504601
 20
244.493364
 11
365.504601
 21
252.293352
  0
LINE
  5
185
100
AcDbEntity
  8
M0
  6
CONTINUOUS
370
25
100
AcDbLine
 10
365.504571
 20
244.493364
 11
365.908715
 21
243.793337
  0
LINE
  5
186
100
AcDbEntity
  8
M0
  6
CONTINUOUS
370
25
100
AcDbLine
 10
365.908776
 20
245.893358
 11
369.004601
 21
245.893358
  0
LINE
  5
187
100
AcDbEntity
  8
M0
  6
CONTINUOUS
370
25
100
AcDbLine
 10
365.908776
 20
250.893358
 11
369.004601
 21
250.893358
  0
LINE
  5
188
100
AcDbEntity
  8
M0
  6
CONTINUOUS
370
25
100
AcDbLine
 10
365.50454
 20
252.293406
 11
365.908684
 21
252.993403
  0
LINE
  5
189
100
AcDbEntity
  8
M0
  6
CONTINUOUS
370
25
100
AcDbLine
 10
368.80462
 20
278.993349
 11
368.80462
 21
300.139635
  0
LINE
  5
18A
100
AcDbEntity
  8
M0
  6
CONTINUOUS
370
25
100
AcDbLine
 10
424.604638
 20
269.793337
 11
424.604638
 21
278.993349
  0
LINE
  5
18B
100
AcDbEntity
  8
M0
  6
CONTINUOUS
370
25
100
AcDbLine
 10
427.700463
 20
278.993349
 11
423.30462
 21
278.993349
  0
LINE
  5
18C
100
AcDbEntity
  8
M0
  6
CONTINUOUS
370
25
100
AcDbLine
 10
424.604638
 20
274.093935
 11
423.30462
 21
272.793932
  0
LINE
  5
18D
100
AcDbEntity
  8
M0
  6
CONTINUOUS
370
25
100
AcDbLine
 10
424.604607
 20
276.215303
 11
423.30462
 21
274.915285
  0
LINE
  5
18E
100
AcDbEntity
  8
M0
  6
CONTINUOUS
370
25
100
AcDbLine
 10
428.104638
 20
270.493349
 11
428.104638
 21
278.293337
  0
LINE
  5
18F
100
AcDbEntity
  8
M0
  6
CONTINUOUS
370
25
100
AcDbLine
 10
428.104668
 20
270.493319
 11
427.700524
 21
269.793291
  0
LINE
  5
190
100
AcDbEntity
  8
M0
  6
CONTINUOUS
370
25
100
AcDbLine
 10
427.700463
 20
271.893343
 11
424.604638
 21
271.893343
  0
LINE
  5
191
100
AcDbEntity
  8
M0
  6
CONTINUOUS
370
25
100
AcDbLine
 10
427.700463
 20
276.893343
 11
424.604638
 21
276.893343
  0
LINE
  5
192
100
AcDbEntity
  8
M0
  6
CONTINUOUS
370
25
100
AcDbLine
 10
428.104638
 20
278.293352
 11
427.700494
 21
278.993349
  0
LINE
  5
193
100
AcDbEntity
  8
M0
  6
CONTINUOUS
370
25
100
AcDbLine
 10
423.30462
 20
269.793337
 11
427.700524
 21
269.793337
  0
LINE
  5
194
100
AcDbEntity
  8
M0
  6
CONTINUOUS
370
25
100
AcDbLine
 10
281.349419
 20
289.541643
 11
292.96386
 21
282.836046
  0
LINE
  5
195
100
AcDbEntity
  8
M0
  6
CONTINUOUS
370
25
100
AcDbLine
 10
257.553643
 20
344.168306
 11
257.553643
 21
330.757082
  0
LINE
  5
196
100
AcDbEntity
  8
M0
  6
CONTINUOUS
370
25
100
AcDbLine
 10
276.349389
 20
319.905397
 11
287.96386
 21
326.61101
  0
LINE
  5
197
100
AcDbEntity
  8
M0
  6
CONTINUOUS
370
25
100
AcDbLine
 10
217.143395
 20
326.610964
 11
228.757867
 21
319.905352
  0
LINE
  5
198
100
AcDbEntity
  8
M0
  6
CONTINUOUS
370
25
100
AcDbLine
 10
247.553612
 20
330.757097
 11
247.553612
 21
344.168306
  0
LINE
  5
199
100
AcDbEntity
  8
M0
  6
CONTINUOUS
370
25
100
AcDbLine
 10
212.143365
 20
282.836123
 11
223.757806
 21
289.541704
  0
LINE
  5
19A
100
AcDbEntity
  8
M0
  6
CONTINUOUS
370
25
100
AcDbLine
 10
223.757806
 20
311.245073
 11
212.143395
 21
317.95067
  0
LINE
  5
19B
100
AcDbEntity
  8
M0
  6
CONTINUOUS
370
25
100
AcDbLine
 10
247.553673
 20
256.618441
 11
247.553673
 21
270.02965
  0
LINE
  5
19C
100
AcDbEntity
  8
M0
  6
CONTINUOUS
370
25
100
AcDbLine
 10
228.757775
 20
280.881441
 11
217.143365
 21
274.175844
  0
LINE
  5
19D
100
AcDbEntity
  8
M0
  6
CONTINUOUS
370
25
100
AcDbLine
 10
287.96383
 20
274.175783
 11
276.349389
 21
280.881395
  0
LINE
  5
19E
100
AcDbEntity
  8
M0
  6
CONTINUOUS
370
25
100
AcDbLine
 10
257.553673
 20
270.029604
 11
257.553673
 21
256.61841
  0
LINE
  5
19F
100
AcDbEntity
  8
M0
  6
CONTINUOUS
370
25
100
AcDbLine
 10
223.354333
 20
283.535219
 11
229.779046
 21
287.244524
  0
LINE
  5
1A0
100
AcDbEntity
  8
M0
  6
CONTINUOUS
370
25
100
AcDbLine
 10
223.847619
 20
316.966768
 11
229.644036
 21
313.620211
  0
LINE
  5
1A1
100
AcDbEntity
  8
M0
  6
CONTINUOUS
370
25
100
AcDbLine
 10
275.535271
 20
287.124895
 11
281.291558
 21
283.8015
  0
LINE
  5
1A2
100
AcDbEntity
  8
M0
  6
CONTINUOUS
370
25
100
AcDbLine
 10
275.540612
 20
313.664965
 11
281.26217
 21
316.968309
  0
LINE
  5
1A3
100
AcDbEntity
  8
M0
  6
CONTINUOUS
370
25
100
AcDbLine
 10
579.858269
 20
307.893343
 11
579.858269
 21
306.050203
  0
LINE
  5
1A4
100
AcDbEntity
  8
M0
  6
CONTINUOUS
370
25
100
AcDbLine
 10
583.858269
 20
307.893343
 11
583.858269
 21
306.050203
  0
LINE
  5
1A5
100
AcDbEntity
  8
M0
  6
CONTINUOUS
370
25
100
AcDbLine
 10
579.858269
 20
307.893343
 11
583.858269
 21
307.893343
  0
LINE
  5
1A6
100
AcDbEntity
  8
M0
  6
CONTINUOUS
370
25
100
AcDbLine
 10
193.902886
 20
389.655611
 11
188.302849
 21
389.655611
  0
LINE
  5
1A7
100
AcDbEntity
  8
M0
  6
CONTINUOUS
370
25
100
AcDbLine
 10
193.902886
 20
390.775606
 11
193.902886
 21
388.535616
  0
LINE
  5
1A8
100
AcDbEntity
  8
M0
  6
CONTINUOUS
370
25
100
AcDbLine
 10
203.601891
 20
396.375765
 11
205.541863
 21
395.25577
  0
LINE
  5
1A9
100
AcDbEntity
  8
M0
  6
CONTINUOUS
370
25
100
AcDbLine
 10
204.571709
 20
395.815737
 11
207.371697
 21
400.665712
  0
LINE
  5
1AA
100
AcDbEntity
  8
M0
  6
CONTINUOUS
370
25
100
AcDbLine
 10
208.450677
 20
381.256502
 11
205.54168
 21
386.295534
  0
LINE
  5
1AB
100
AcDbEntity
  8
M0
  6
CONTINUOUS
370
25
100
AcDbLine
 10
205.085046
 20
378.12665
 11
201.662987
 21
384.055666
  0
LINE
  5
1AC
100
AcDbEntity
  8
M0
  6
CONTINUOUS
370
25
100
AcDbLine
 10
203.601861
 20
385.17557
 11
206.767876
 21
379.691591
  0
LINE
  5
1AD
100
AcDbEntity
  8
M0
  6
CONTINUOUS
370
25
100
AcDbLine
 10
208.450799
 20
381.256533
 11
205.084832
 21
378.126604
  0
LINE
  5
1AE
100
AcDbEntity
  8
M0
  6
CONTINUOUS
370
25
100
AcDbLine
 10
210.096947
 20
378.406588
 11
206.619897
 21
375.468538
  0
LINE
  5
1AF
100
AcDbEntity
  8
M0
  6
CONTINUOUS
370
25
100
AcDbLine
 10
221.010491
 20
359.503725
 11
210.09649
 21
378.406405
  0
LINE
  5
1B0
100
AcDbEntity
  8
M0
  6
CONTINUOUS
370
25
100
AcDbLine
 10
217.130517
 20
357.26343
 11
206.619958
 21
375.468706
  0
LINE
  5
1B1
100
AcDbEntity
  8
M0
  6
CONTINUOUS
370
25
100
AcDbLine
 10
208.358178
 20
376.937761
 11
219.052148
 21
358.416185
  0
LINE
  5
1B2
100
AcDbEntity
  8
M0
  6
CONTINUOUS
370
25
100
AcDbLine
 10
640.509026
 20
389.655611
 11
646.109063
 21
389.655611
  0
LINE
  5
1B3
100
AcDbEntity
  8
M0
  6
CONTINUOUS
370
25
100
AcDbLine
 10
640.509026
 20
390.775606
 11
640.509026
 21
388.535616
  0
LINE
  5
1B4
100
AcDbEntity
  8
M0
  6
CONTINUOUS
370
25
100
AcDbLine
 10
625.961152
 20
381.256533
 11
628.870148
 21
386.295565
  0
LINE
  5
1B5
100
AcDbEntity
  8
M0
  6
CONTINUOUS
370
25
100
AcDbLine
 10
629.326882
 20
378.126574
 11
632.74894
 21
384.055605
  0
LINE
  5
1B6
100
AcDbEntity
  8
M0
  6
CONTINUOUS
370
25
100
AcDbLine
 10
630.810166
 20
385.175478
 11
627.64415
 21
379.6915
  0
LINE
  5
1B7
100
AcDbEntity
  8
M0
  6
CONTINUOUS
370
25
100
AcDbLine
 10
625.961144
 20
381.256548
 11
629.327103
 21
378.126635
  0
LINE
  5
1B8
100
AcDbEntity
  8
M0
  6
CONTINUOUS
370
25
100
AcDbLine
 10
624.315049
 20
378.406603
 11
627.792084
 21
375.468569
  0
LINE
  5
1B9
100
AcDbEntity
  8
M0
  6
CONTINUOUS
370
25
100
AcDbLine
 10
612.901063
 20
358.637163
 11
624.315392
 21
378.40642
  0
LINE
  5
1BA
100
AcDbEntity
  8
M0
  6
CONTINUOUS
370
25
100
AcDbLine
 10
616.781075
 20
356.396898
 11
627.791924
 21
375.468721
  0
LINE
  5
1BB
100
AcDbEntity
  8
M0
  6
CONTINUOUS
370
25
100
AcDbLine
 10
626.05378
 20
376.937777
 11
614.859772
 21
357.550158
  0
LINE
  5
1BC
100
AcDbEntity
  8
M0
  6
CONTINUOUS
370
25
100
AcDbLine
 10
629.84015
 20
395.815676
 11
627.040154
 21
400.665682
  0
LINE
  5
1BD
100
AcDbEntity
  8
M0
  6
CONTINUOUS
370
25
100
AcDbLine
 10
630.810044
 20
396.375765
 11
628.870072
 21
395.2558
  0
LINE
  5
1BE
100
AcDbEntity
  8
M0
  6
CONTINUOUS
370
25
100
AcDbLine
 10
581.858269
 20
334.522585
 11
581.858269
 21
326.819277
  0
LINE
  5
1BF
100
AcDbEntity
  8
M0
  6
CONTINUOUS
370
25
100
AcDbLine
 10
250.553643
 20
307.893343
 11
250.553643
 21
306.050203
  0
LINE
  5
1C0
100
AcDbEntity
  8
M0
  6
CONTINUOUS
370
25
100
AcDbLine
 10
254.553643
 20
307.893343
 11
254.553643
 21
306.050203
  0
LINE
  5
1C1
100
AcDbEntity
  8
M0
  6
CONTINUOUS
370
25
100
AcDbLine
 10
250.553643
 20
307.893343
 11
254.553643
 21
307.893343
  0
LINE
  5
1C2
100
AcDbEntity
  8
M0
  6
CONTINUOUS
370
25
100
AcDbLine
 10
552.660958
 20
283.536333
 11
559.098565
 21
287.253084
  0
LINE
  5
1C3
100
AcDbEntity
  8
M0
  6
CONTINUOUS
370
25
100
AcDbLine
 10
552.866723
 20
317.13164
 11
559.230431
 21
313.457552
  0
LINE
  5
1C4
100
AcDbEntity
  8
M0
  6
CONTINUOUS
370
25
100
AcDbLine
 10
604.810883
 20
287.14168
 11
611.073601
 21
283.525896
  0
LINE
  5
1C5
100
AcDbEntity
  8
M0
  6
CONTINUOUS
370
25
100
AcDbLine
 10
604.43026
 20
313.425356
 11
611.116624
 21
317.285723
  0
LINE
  5
1C6
100
AcDbEntity
  8
M0
  6
CONTINUOUS
370
25
100
AcDbLine
 10
365.908776
 20
276.893343
 11
369.004601
 21
276.893343
  0
LINE
  5
1C7
100
AcDbEntity
  8
M0
  6
CONTINUOUS
370
25
100
AcDbLine
 10
251.553643
 20
316.293352
 11
251.553643
 21
312.853289
  0
LINE
  5
1C8
100
AcDbEntity
  8
M0
  6
CONTINUOUS
370
25
100
AcDbLine
 10
253.553643
 20
316.293352
 11
253.553643
 21
312.853289
  0
LINE
  5
1C9
100
AcDbEntity
  8
M0
  6
CONTINUOUS
370
25
100
AcDbLine
 10
249.053643
 20
316.293352
 11
251.553643
 21
316.293352
  0
LINE
  5
1CA
100
AcDbEntity
  8
M0
  6
CONTINUOUS
370
25
100
AcDbLine
 10
256.053643
 20
316.293352
 11
256.053643
 21
313.103655
  0
LINE
  5
1CB
100
AcDbEntity
  8
M0
  6
CONTINUOUS
370
25
100
AcDbLine
 10
249.053643
 20
316.293352
 11
249.053643
 21
313.103655
  0
LINE
  5
1CC
100
AcDbEntity
  8
M0
  6
CONTINUOUS
370
25
100
AcDbLine
 10
253.553643
 20
316.293352
 11
256.053643
 21
316.293352
  0
LINE
  5
1CD
100
AcDbEntity
  8
M0
  6
CONTINUOUS
370
25
100
AcDbLine
 10
367.604638
 20
316.293352
 11
368.954613
 21
316.293352
  0
LINE
  5
1CE
100
AcDbEntity
  8
M0
  6
CONTINUOUS
370
25
100
AcDbLine
 10
414.80462
 20
360.208223
 11
418.254754
 21
360.208223
  0
LINE
  5
1CF
100
AcDbEntity
  8
M0
  6
CONTINUOUS
370
25
100
AcDbLine
 10
414.80462
 20
363.008211
 11
418.254754
 21
363.008211
  0
LINE
  5
1D0
100
AcDbEntity
  8
M0
  6
CONTINUOUS
370
25
100
AcDbLine
 10
421.256707
 20
366.008211
 11
421.256707
 21
371.999208
  0
LINE
  5
1D1
100
AcDbEntity
  8
M0
  6
CONTINUOUS
370
25
100
AcDbLine
 10
424.056756
 20
366.008211
 11
424.056756
 21
373.871218
  0
LINE
  5
1D2
100
AcDbEntity
  8
M0
  6
CONTINUOUS
370
25
100
AcDbLine
 10
424.056725
 20
373.871309
 11
421.256676
 21
372.000307
  0
LINE
  5
1D3
100
AcDbEntity
  8
M0
  6
CONTINUOUS
370
25
100
AcDbLine
 10
424.056756
 20
377.544176
 11
421.256707
 21
375.501146
  0
LINE
  5
1D4
100
AcDbEntity
  8
M0
  6
CONTINUOUS
370
25
100
AcDbLine
 10
421.256707
 20
375.501223
 11
421.256707
 21
383.008211
  0
LINE
  5
1D5
100
AcDbEntity
  8
M0
  6
CONTINUOUS
370
25
100
AcDbLine
 10
424.056756
 20
377.544222
 11
424.056756
 21
383.008211
  0
LINE
  5
1D6
100
AcDbEntity
  8
M0
  6
CONTINUOUS
370
25
100
AcDbLine
 10
417.056786
 20
395.132326
 11
415.656762
 21
392.707277
  0
LINE
  5
1D7
100
AcDbEntity
  8
M0
  6
CONTINUOUS
370
25
100
AcDbLine
 10
416.356713
 20
393.920076
 11
410.294701
 21
397.420107
  0
LINE
  5
1D8
100
AcDbEntity
  8
M0
  6
CONTINUOUS
370
25
100
AcDbLine
 10
428.256737
 20
395.132326
 11
429.656792
 21
392.707308
  0
LINE
  5
1D9
100
AcDbEntity
  8
M0
  6
CONTINUOUS
370
25
100
AcDbLine
 10
428.956689
 20
393.920351
 11
435.018731
 21
397.420321
  0
LINE
  5
1DA
100
AcDbEntity
  8
M0
  6
CONTINUOUS
370
25
100
AcDbLine
 10
254.383935
 20
321.313448
 11
254.151818
 21
318.660463
  0
LINE
  5
1DB
100
AcDbEntity
  8
M0
  6
CONTINUOUS
370
25
100
AcDbLine
 10
256.435998
 20
317.155642
 11
255.333611
 21
317.252092
  0
LINE
  5
1DC
100
AcDbEntity
  8
M0
  6
CONTINUOUS
370
25
100
AcDbLine
 10
258.001183
 20
318.211397
 11
258.387658
 21
319.475496
  0
LINE
  5
1DD
100
AcDbEntity
  8
M0
  6
CONTINUOUS
370
25
100
AcDbLine
 10
250.723351
 20
321.313463
 11
250.955468
 21
318.660479
  0
LINE
  5
1DE
100
AcDbEntity
  8
M0
  6
CONTINUOUS
370
25
100
AcDbLine
 10
248.671288
 20
317.155657
 11
249.773675
 21
317.252092
  0
LINE
  5
1DF
100
AcDbEntity
  8
M0
  6
CONTINUOUS
370
25
100
AcDbLine
 10
247.106194
 20
318.211382
 11
246.71972
 21
319.475496
  0
LINE
  5
1E0
100
AcDbEntity
  8
M0
  6
CONTINUOUS
370
25
100
AcDbLine
 10
431.775201
 20
299.364809
 11
446.833993
 21
298.921907
  0
LINE
  5
1E1
100
AcDbEntity
  8
M0
  6
CONTINUOUS
370
25
100
AcDbLine
 10
436.28399
 20
285.519777
 11
446.891396
 21
286.443697
  0
LINE
  5
1E2
100
AcDbEntity
  8
M0
  6
CONTINUOUS
370
25
100
AcDbLine
 10
446.831704
 20
275.306475
 11
431.717614
 21
274.896883
  0
LINE
  5
1E3
100
AcDbEntity
  8
M0
  6
CONTINUOUS
370
25
100
AcDbLine
 10
431.718041
 20
273.020708
 11
446.831246
 21
272.618105
  0
LINE
  5
1E4
100
AcDbEntity
  8
M0
  6
CONTINUOUS
370
25
100
AcDbLine
 10
430.80462
 20
238.393358
 11
430.80462
 21
266.074114
  0
LINE
  5
1E5
100
AcDbEntity
  8
M0
  6
CONTINUOUS
370
25
100
AcDbLine
 10
431.113488
 20
238.893969
 11
446.814248
 21
239.045069
  0
LINE
  5
1E6
100
AcDbEntity
  8
M0
  6
CONTINUOUS
370
25
100
AcDbLine
 10
446.81318
 20
238.135988
 11
431.113854
 21
238.27025
  0
LINE
  5
1E7
100
AcDbEntity
  8
M0
  6
CONTINUOUS
370
25
100
AcDbLine
 10
431.473412
 20
252.777231
 11
446.824761
 21
253.085726
  0
LINE
  5
1E8
100
AcDbEntity
  8
M0
  6
CONTINUOUS
370
25
100
AcDbLine
 10
446.823846
 20
251.116945
 11
431.473901
 21
251.41263
  0
LINE
  5
1E9
100
AcDbEntity
  8
M0
  6
CONTINUOUS
370
25
100
AcDbLine
 10
441.670312
 20
272.755587
 11
436.032738
 21
272.024248
  0
LINE
  5
1EA
100
AcDbEntity
  8
M0
  6
CONTINUOUS
370
25
100
AcDbLine
 10
430.80462
 20
273.958803
 11
430.80462
 21
279.542406
  0
LINE
  5
1EB
100
AcDbEntity
  8
M0
  6
CONTINUOUS
370
25
100
AcDbLine
 10
430.80462
 20
300.364367
 11
430.80462
 21
300.393343
  0
LINE
  5
1EC
100
AcDbEntity
  8
M0
  6
CONTINUOUS
370
25
100
AcDbLine
 10
377.80462
 20
314.800142
 11
381.30462
 21
314.800142
  0
LINE
  5
1ED
100
AcDbEntity
  8
M0
  6
CONTINUOUS
370
25
100
AcDbLine
 10
429.80462
 20
324.244585
 11
433.80462
 21
324.244585
  0
LINE
  5
1EE
100
AcDbEntity
  8
M0
  6
CONTINUOUS
370
25
100
AcDbLine
 10
369.004571
 20
274.751543
 11
370.304589
 21
276.051561
  0
LINE
  5
1EF
100
AcDbEntity
  8
M0
  6
CONTINUOUS
370
25
100
AcDbLine
 10
369.004571
 20
272.913073
 11
370.304589
 21
274.213091
  0
LINE
  5
1F0
100
AcDbEntity
  8
M0
  6
CONTINUOUS
370
25
100
AcDbLine
 10
369.004601
 20
248.091326
 11
370.30462
 21
249.391344
  0
LINE
  5
1F1
100
AcDbEntity
  8
M0
  6
CONTINUOUS
370
25
100
AcDbLine
 10
369.004601
 20
246.252863
 11
370.30462
 21
247.552881
  0
LINE
  5
1F2
100
AcDbEntity
  8
M0
  6
CONTINUOUS
370
25
100
AcDbLine
 10
423.30462
 20
353.008471
 11
424.604607
 21
354.308489
  0
LINE
  5
1F3
100
AcDbEntity
  8
M0
  6
CONTINUOUS
370
25
100
AcDbLine
 10
423.30462
 20
351.170015
 11
424.604638
 21
352.470034
  0
LINE
  5
1F4
100
AcDbEntity
  8
M0
  6
CONTINUOUS
370
25
100
AcDbLine
 10
252.553643
 20
303.923342
 11
252.553643
 21
296.861986
  0
LINE
  5
1F5
100
AcDbEntity
  8
M0
  6
CONTINUOUS
370
25
100
AcDbLine
 10
252.553643
 20
273.966051
 11
252.553643
 21
266.690706
  0
LINE
  5
1F6
100
AcDbEntity
  8
M0
  6
CONTINUOUS
370
25
100
AcDbLine
 10
249.36834
 20
300.393343
 11
256.215722
 21
300.393343
  0
LINE
  5
1F7
100
AcDbEntity
  8
M0
  6
CONTINUOUS
370
25
100
AcDbLine
 10
455.973872
 20
300.393343
 11
465.637963
 21
300.393343
  0
LINE
  5
1F8
100
AcDbEntity
  8
M0
  6
CONTINUOUS
370
25
100
AcDbLine
 10
581.858269
 20
274.394014
 11
581.858269
 21
266.048769
  0
LINE
  5
1F9
100
AcDbEntity
  8
M0
  6
CONTINUOUS
370
25
100
AcDbLine
 10
581.858269
 20
304.779268
 11
581.858269
 21
296.861986
  0
ARC
  5
1FA
100
AcDbEntity
  8
M0
  6
CONTINUOUS
370
25
100
AcDbCircle
 10
390.30462
 20
320.393343
 40
1.0
100
AcDbArc
 50
270.0
 51
360.0
  0
ARC
  5
1FB
100
AcDbEntity
  8
M0
  6
CONTINUOUS
370
25
100
AcDbCircle
 10
398.80462
 20
312.893343
 40
1.0
100
AcDbArc
 50
180.0
 51
270.0
  0
ARC
  5
1FC
100
AcDbEntity
  8
M0
  6
CONTINUOUS
370
25
100
AcDbCircle
 10
401.80462
 20
312.893343
 40
1.0
100
AcDbArc
 50
270.0
 51
360.0
  0
ARC
  5
1FD
100
AcDbEntity
  8
M0
  6
CONTINUOUS
370
25
100
AcDbCircle
 10
445.30462
 20
320.893343
 40
0.5
100
AcDbArc
 50
270.0
 51
360.0
  0
ARC
  5
1FE
100
AcDbEntity
  8
M0
  6
CONTINUOUS
370
25
100
AcDbCircle
 10
446.30462
 20
326.893343
 40
1.5
100
AcDbArc
 50
270.0
 51
360.0
  0
ARC
  5
1FF
100
AcDbEntity
  8
M0
  6
CONTINUOUS
370
25
100
AcDbCircle
 10
449.104623
 20
321.09334
 40
0.300003
100
AcDbArc
 50
90.0
 51
180.0
  0
ARC
  5
200
100
AcDbEntity
  8
M0
  6
CONTINUOUS
370
25
100
AcDbCircle
 10
449.30462
 20
320.893343
 40
0.5
100
AcDbArc
 50
90.0
 51
180.0
  0
ARC
  5
201
100
AcDbEntity
  8
M0
  6
CONTINUOUS
370
25
100
AcDbCircle
 10
457.30462
 20
320.893343
 40
0.5
100
AcDbArc
 50
0.0
 51
90.0
  0
ARC
  5
202
100
AcDbEntity
  8
M0
  6
CONTINUOUS
370
25
100
AcDbCircle
 10
449.30462
 20
313.393343
 40
0.5
100
AcDbArc
 50
180.0
 51
270.0
  0
ARC
  5
203
100
AcDbEntity
  8
M0
  6
CONTINUOUS
370
25
100
AcDbCircle
 10
457.30462
 20
313.393343
 40
0.5
100
AcDbArc
 50
270.0
 51
360.0
  0
CIRCLE
  5
204
100
AcDbEntity
  8
M0
  6
CONTINUOUS
370
25
100
AcDbCircle
 10
453.30462
 20
317.143343
 40
2.5
  0
ARC
  5
205
100
AcDbEntity
  8
M0
  6
CONTINUOUS
370
25
100
AcDbCircle
 10
433.80462
 20
362.393343
 40
3.0
100
AcDbArc
 50
90.0
 51
180.0
  0
ARC
  5
206
100
AcDbEntity
  8
M0
  6
CONTINUOUS
370
25
100
AcDbCircle
 10
436.80462
 20
345.575533
 40
6.0
100
AcDbArc
 50
180.0
 51
261.633911
  0
ARC
  5
207
100
AcDbEntity
  8
M0
  6
CONTINUOUS
370
25
100
AcDbCircle
 10
446.80462
 20
366.393343
 40
1.0
100
AcDbArc
 50
270.0
 51
360.0
  0
ARC
  5
208
100
AcDbEntity
  8
M0
  6
CONTINUOUS
370
25
100
AcDbCircle
 10
375.30462
 20
345.893343
 40
2.0
100
AcDbArc
 50
90.0
 51
180.0
  0
ARC
  5
209
100
AcDbEntity
  8
M0
  6
CONTINUOUS
370
25
100
AcDbCircle
 10
375.30462
 20
327.393343
 40
2.0
100
AcDbArc
 50
180.0
 51
270.0
  0
ARC
  5
20A
100
AcDbEntity
  8
M0
  6
CONTINUOUS
370
25
100
AcDbCircle
 10
377.80462
 20
323.393343
 40
2.0
100
AcDbArc
 50
0.0
 51
90.0
  0
ARC
  5
20B
100
AcDbEntity
  8
M0
  6
CONTINUOUS
370
25
100
AcDbCircle
 10
368.80462
 20
336.893343
 40
1.5
100
AcDbArc
 50
270.0
 51
360.0
  0
ARC
  5
20C
100
AcDbEntity
  8
M0
  6
CONTINUOUS
370
25
100
AcDbCircle
 10
377.30462
 20
320.893343
 40
0.5
100
AcDbArc
 50
0.0
 51
90.0
  0
ARC
  5
20D
100
AcDbEntity
  8
M0
  6
CONTINUOUS
370
25
100
AcDbCircle
 10
417.30462
 20
345.893343
 40
2.0
100
AcDbArc
 50
0.0
 51
90.0
  0
ARC
  5
20E
100
AcDbEntity
  8
M0
  6
CONTINUOUS
370
25
100
AcDbCircle
 10
434.30462
 20
330.893343
 40
0.5
100
AcDbArc
 50
90.0
 51
180.0
  0
ARC
  5
20F
100
AcDbEntity
  8
M0
  6
CONTINUOUS
370
25
100
AcDbCircle
 10
429.30462
 20
330.893343
 40
0.5
100
AcDbArc
 50
0.0
 51
90.0
  0
ARC
  5
210
100
AcDbEntity
  8
M0
  6
CONTINUOUS
370
25
100
AcDbCircle
 10
429.683556
 20
338.834215
 40
1.999998
100
AcDbArc
 50
202.714493
 51
264.919983
  0
ARC
  5
211
100
AcDbEntity
  8
M0
  6
CONTINUOUS
370
25
100
AcDbCircle
 10
429.004601
 20
330.59334
 40
0.799988
100
AcDbArc
 50
0.0
 51
90.0
  0
ARC
  5
212
100
AcDbEntity
  8
M0
  6
CONTINUOUS
370
25
100
AcDbCircle
 10
434.604638
 20
330.59334
 40
0.800003
100
AcDbArc
 50
90.0
 51
180.0
  0
ARC
  5
213
100
AcDbEntity
  8
M0
  6
CONTINUOUS
370
25
100
AcDbCircle
 10
445.004616
 20
330.59334
 40
0.800003
100
AcDbArc
 50
0.0
 51
90.0
  0
ARC
  5
214
100
AcDbEntity
  8
M0
  6
CONTINUOUS
370
25
100
AcDbCircle
 10
445.004616
 20
321.193346
 40
0.800003
100
AcDbArc
 50
270.0
 51
360.0
  0
ARC
  5
215
100
AcDbEntity
  8
M0
  6
CONTINUOUS
370
25
100
AcDbCircle
 10
434.604638
 20
321.193346
 40
0.799988
100
AcDbArc
 50
180.0
 51
270.0
  0
ARC
  5
216
100
AcDbEntity
  8
M0
  6
CONTINUOUS
370
25
100
AcDbCircle
 10
429.004601
 20
321.193346
 40
0.800003
100
AcDbArc
 50
270.0
 51
360.0
  0
ARC
  5
217
100
AcDbEntity
  8
M0
  6
CONTINUOUS
370
25
100
AcDbCircle
 10
418.604638
 20
321.193346
 40
0.799988
100
AcDbArc
 50
180.0
 51
270.0
  0
ARC
  5
218
100
AcDbEntity
  8
M0
  6
CONTINUOUS
370
25
100
AcDbCircle
 10
418.604638
 20
330.59334
 40
0.800003
100
AcDbArc
 50
90.0
 51
180.0
  0
CIRCLE
  5
219
100
AcDbEntity
  8
M0
  6
CONTINUOUS
370
25
100
AcDbCircle
 10
423.80462
 20
325.893343
 40
3.0
  0
CIRCLE
  5
21A
100
AcDbEntity
  8
M0
  6
CONTINUOUS
370
25
100
AcDbCircle
 10
439.80462
 20
325.893343
 40
3.0
  0
ARC
  5
21B
100
AcDbEntity
  8
M0
  6
CONTINUOUS
370
25
100
AcDbCircle
 10
369.454613
 20
320.893343
 40
0.5
100
AcDbArc
 50
90.0
 51
180.0
  0
ARC
  5
21C
100
AcDbEntity
  8
M0
  6
CONTINUOUS
370
25
100
AcDbCircle
 10
369.454613
 20
313.393343
 40
0.5
100
AcDbArc
 50
180.0
 51
270.0
  0
ARC
  5
21D
100
AcDbEntity
  8
M0
  6
CONTINUOUS
370
25
100
AcDbCircle
 10
377.30462
 20
313.393343
 40
0.5
100
AcDbArc
 50
270.0
 51
360.0
  0
CIRCLE
  5
21E
100
AcDbEntity
  8
M0
  6
CONTINUOUS
370
25
100
AcDbCircle
 10
373.379632
 20
317.143343
 40
2.0
  0
ARC
  5
21F
100
AcDbEntity
  8
M0
  6
CONTINUOUS
370
25
100
AcDbCircle
 10
370.459252
 20
356.965288
 40
5.000014
100
AcDbArc
 50
187.723877
 51
204.564056
  0
ARC
  5
220
100
AcDbEntity
  8
M0
  6
CONTINUOUS
370
25
100
AcDbCircle
 10
370.459252
 20
347.821398
 40
5.0
100
AcDbArc
 50
155.435944
 51
172.276123
  0
ARC
  5
221
100
AcDbEntity
  8
M0
  6
CONTINUOUS
370
25
100
AcDbCircle
 10
423.149987
 20
356.965288
 40
5.0
100
AcDbArc
 50
335.435944
 51
352.276123
  0
ARC
  5
222
100
AcDbEntity
  8
M0
  6
CONTINUOUS
370
25
100
AcDbCircle
 10
423.149987
 20
347.821398
 40
5.000014
100
AcDbArc
 50
7.72387
 51
24.564064
  0
ARC
  5
223
100
AcDbEntity
  8
M0
  6
CONTINUOUS
370
25
100
AcDbCircle
 10
445.992776
 20
343.575991
 40
2.000004
100
AcDbArc
 50
173.761185
 51
216.296631
  0
ARC
  5
224
100
AcDbEntity
  8
M0
  6
CONTINUOUS
370
25
100
AcDbCircle
 10
445.992776
 20
337.210695
 40
1.999996
100
AcDbArc
 50
143.703369
 51
186.238815
  0
ARC
  5
225
100
AcDbEntity
  8
M0
  6
CONTINUOUS
370
25
100
AcDbCircle
 10
433.80462
 20
238.393358
 40
3.0
100
AcDbArc
 50
180.0
 51
270.0
  0
ARC
  5
226
100
AcDbEntity
  8
M0
  6
CONTINUOUS
370
25
100
AcDbCircle
 10
446.80462
 20
234.393358
 40
1.0
100
AcDbArc
 50
0.0
 51
90.0
  0
ARC
  5
227
100
AcDbEntity
  8
M0
  6
CONTINUOUS
370
25
100
AcDbCircle
 10
368.80462
 20
263.893358
 40
1.5
100
AcDbArc
 50
0.0
 51
90.0
  0
ARC
  5
228
100
AcDbEntity
  8
M0
  6
CONTINUOUS
370
25
100
AcDbCircle
 10
429.683556
 20
261.952486
 40
1.999995
100
AcDbArc
 50
95.07914
 51
157.285507
  0
ARC
  5
229
100
AcDbEntity
  8
M0
  6
CONTINUOUS
370
25
100
AcDbCircle
 10
370.459252
 20
269.821398
 40
5.0
100
AcDbArc
 50
155.435944
 51
172.276123
  0
ARC
  5
22A
100
AcDbEntity
  8
M0
  6
CONTINUOUS
370
25
100
AcDbCircle
 10
370.459252
 20
278.965288
 40
5.000014
100
AcDbArc
 50
187.723877
 51
204.564056
  0
ARC
  5
22B
100
AcDbEntity
  8
M0
  6
CONTINUOUS
370
25
100
AcDbCircle
 10
423.149987
 20
243.821413
 40
5.000014
100
AcDbArc
 50
7.72387
 51
24.564064
  0
ARC
  5
22C
100
AcDbEntity
  8
M0
  6
CONTINUOUS
370
25
100
AcDbCircle
 10
423.149987
 20
252.965303
 40
5.000003
100
AcDbArc
 50
335.435852
 51
352.276001
  0
CIRCLE
  5
22D
100
AcDbEntity
  8
M0
  6
CONTINUOUS
370
25
100
AcDbCircle
 10
252.553643
 20
300.393343
 40
67.0
  0
CIRCLE
  5
22E
100
AcDbEntity
  8
M0
  6
CONTINUOUS
370
25
100
AcDbCircle
 10
252.553643
 20
300.393343
 40
58.0
  0
CIRCLE
  5
22F
100
AcDbEntity
  8
M0
  6
CONTINUOUS
370
25
100
AcDbCircle
 10
297.586968
 20
326.393343
 40
4.0
  0
CIRCLE
  5
230
100
AcDbEntity
  8
M0
  6
CONTINUOUS
370
25
100
AcDbCircle
 10
252.553643
 20
352.393343
 40
4.0
  0
CIRCLE
  5
231
100
AcDbEntity
  8
M0
  6
CONTINUOUS
370
25
100
AcDbCircle
 10
207.520318
 20
326.393343
 40
4.0
  0
CIRCLE
  5
232
100
AcDbEntity
  8
M0
  6
CONTINUOUS
370
25
100
AcDbCircle
 10
207.520318
 20
274.393343
 40
4.0
  0
CIRCLE
  5
233
100
AcDbEntity
  8
M0
  6
CONTINUOUS
370
25
100
AcDbCircle
 10
252.553643
 20
248.393343
 40
4.0
  0
CIRCLE
  5
234
100
AcDbEntity
  8
M0
  6
CONTINUOUS
370
25
100
AcDbCircle
 10
297.586968
 20
274.393343
 40
4.0
  0
ARC
  5
235
100
AcDbEntity
  8
M0
  6
CONTINUOUS
370
25
100
AcDbCircle
 10
252.553643
 20
300.393343
 40
28.399986
100
AcDbArc
 50
104.760361
 51
135.239639
  0
ARC
  5
236
100
AcDbEntity
  8
M0
  6
CONTINUOUS
370
25
100
AcDbCircle
 10
252.553643
 20
300.393343
 40
30.000002
100
AcDbArc
 50
23.82786
 51
36.007431
  0
ARC
  5
237
100
AcDbEntity
  8
M0
  6
CONTINUOUS
370
25
100
AcDbCircle
 10
278.534386
 20
315.393343
 40
4.999997
100
AcDbArc
 50
300.000031
 51
480.000015
  0
CIRCLE
  5
238
100
AcDbEntity
  8
M0
  6
CONTINUOUS
370
25
100
AcDbCircle
 10
252.553643
 20
300.393343
 40
25.0
  0
ARC
  5
239
100
AcDbEntity
  8
M0
  6
CONTINUOUS
370
25
100
AcDbCircle
 10
274.84945
 20
322.503435
 40
2.999997
100
AcDbArc
 50
224.760757
 51
299.999939
  0
ARC
  5
23A
100
AcDbEntity
  8
M0
  6
CONTINUOUS
370
25
100
AcDbCircle
 10
282.84945
 20
308.647036
 40
3.000006
100
AcDbArc
 50
119.999931
 51
195.239456
  0
CIRCLE
  5
23B
100
AcDbEntity
  8
M0
  6
CONTINUOUS
370
25
100
AcDbCircle
 10
278.534386
 20
315.393343
 40
2.0
  0
CIRCLE
  5
23C
100
AcDbEntity
  8
M0
  6
CONTINUOUS
370
25
100
AcDbCircle
 10
278.534386
 20
315.393343
 40
1.6
  0
ARC
  5
23D
100
AcDbEntity
  8
M0
  6
CONTINUOUS
370
25
100
AcDbCircle
 10
370.459252
 20
243.821413
 40
5.0
100
AcDbArc
 50
155.435944
 51
172.276123
  0
ARC
  5
23E
100
AcDbEntity
  8
M0
  6
CONTINUOUS
370
25
100
AcDbCircle
 10
370.459252
 20
252.965303
 40
5.000014
100
AcDbArc
 50
187.723877
 51
204.564056
  0
ARC
  5
23F
100
AcDbEntity
  8
M0
  6
CONTINUOUS
370
25
100
AcDbCircle
 10
423.149987
 20
278.965288
 40
5.0
100
AcDbArc
 50
335.435944
 51
352.276123
  0
ARC
  5
240
100
AcDbEntity
  8
M0
  6
CONTINUOUS
370
25
100
AcDbCircle
 10
423.149987
 20
269.821398
 40
4.999984
100
AcDbArc
 50
7.723917
 51
24.564064
  0
ARC
  5
241
100
AcDbEntity
  8
M0
  6
CONTINUOUS
370
25
100
AcDbCircle
 10
252.553643
 20
300.393343
 40
47.5
100
AcDbArc
 50
0.0
 51
19.643337
  0
ARC
  5
242
100
AcDbEntity
  8
M0
  6
CONTINUOUS
370
25
100
AcDbCircle
 10
252.553643
 20
300.393343
 40
47.499992
100
AcDbArc
 50
100.356689
 51
139.643356
  0
ARC
  5
243
100
AcDbEntity
  8
M0
  6
CONTINUOUS
370
25
100
AcDbCircle
 10
252.553643
 20
300.393343
 40
47.500008
100
AcDbArc
 50
40.356663
 51
79.643318
  0
ARC
  5
244
100
AcDbEntity
  8
M0
  6
CONTINUOUS
370
25
100
AcDbCircle
 10
252.553643
 20
300.393343
 40
28.39999
100
AcDbArc
 50
44.760426
 51
75.239639
  0
ARC
  5
245
100
AcDbEntity
  8
M0
  6
CONTINUOUS
370
25
100
AcDbCircle
 10
294.463891
 20
315.352633
 40
2.999996
100
AcDbArc
 50
19.6432
 51
119.999931
  0
ARC
  5
246
100
AcDbEntity
  8
M0
  6
CONTINUOUS
370
25
100
AcDbCircle
 10
282.84945
 20
292.139666
 40
3.000001
100
AcDbArc
 50
164.759979
 51
239.999924
  0
ARC
  5
247
100
AcDbEntity
  8
M0
  6
CONTINUOUS
370
25
100
AcDbCircle
 10
294.463891
 20
285.434053
 40
2.999993
100
AcDbArc
 50
239.999924
 51
340.356537
  0
ARC
  5
248
100
AcDbEntity
  8
M0
  6
CONTINUOUS
370
25
100
AcDbCircle
 10
252.553643
 20
330.393328
 40
5.0
100
AcDbArc
 50
0.0
 51
180.0
  0
ARC
  5
249
100
AcDbEntity
  8
M0
  6
CONTINUOUS
370
25
100
AcDbCircle
 10
244.553643
 20
330.757128
 40
3.000005
100
AcDbArc
 50
284.76059
 51
360.0
  0
ARC
  5
24A
100
AcDbEntity
  8
M0
  6
CONTINUOUS
370
25
100
AcDbCircle
 10
260.553643
 20
330.757143
 40
3.0
100
AcDbArc
 50
180.0
 51
255.23941
  0
ARC
  5
24B
100
AcDbEntity
  8
M0
  6
CONTINUOUS
370
25
100
AcDbCircle
 10
260.553643
 20
344.168337
 40
3.000005
100
AcDbArc
 50
79.643127
 51
180.0
  0
ARC
  5
24C
100
AcDbEntity
  8
M0
  6
CONTINUOUS
370
25
100
AcDbCircle
 10
252.553643
 20
300.393343
 40
29.999992
100
AcDbArc
 50
83.827888
 51
96.007401
  0
ARC
  5
24D
100
AcDbEntity
  8
M0
  6
CONTINUOUS
370
25
100
AcDbCircle
 10
286.463891
 20
329.209047
 40
3.000006
100
AcDbArc
 50
299.999939
 51
400.356766
  0
ARC
  5
24E
100
AcDbEntity
  8
M0
  6
CONTINUOUS
370
25
100
AcDbCircle
 10
274.84945
 20
322.50345
 40
3.000008
100
AcDbArc
 50
224.760132
 51
299.999939
  0
CIRCLE
  5
24F
100
AcDbEntity
  8
M0
  6
CONTINUOUS
370
25
100
AcDbCircle
 10
252.553643
 20
330.393328
 40
2.0
  0
CIRCLE
  5
250
100
AcDbEntity
  8
M0
  6
CONTINUOUS
370
25
100
AcDbCircle
 10
252.553643
 20
330.393328
 40
1.6
  0
ARC
  5
251
100
AcDbEntity
  8
M0
  6
CONTINUOUS
370
25
100
AcDbCircle
 10
226.5729
 20
315.393343
 40
4.999997
100
AcDbArc
 50
59.999981
 51
239.999985
  0
ARC
  5
252
100
AcDbEntity
  8
M0
  6
CONTINUOUS
370
25
100
AcDbCircle
 10
222.257836
 20
308.647036
 40
2.999993
100
AcDbArc
 50
344.760559
 51
420.000069
  0
ARC
  5
253
100
AcDbEntity
  8
M0
  6
CONTINUOUS
370
25
100
AcDbCircle
 10
230.257836
 20
322.50345
 40
2.999993
100
AcDbArc
 50
239.999924
 51
315.239258
  0
ARC
  5
254
100
AcDbEntity
  8
M0
  6
CONTINUOUS
370
25
100
AcDbCircle
 10
218.643395
 20
329.209047
 40
2.999997
100
AcDbArc
 50
139.643005
 51
239.999924
  0
ARC
  5
255
100
AcDbEntity
  8
M0
  6
CONTINUOUS
370
25
100
AcDbCircle
 10
252.553643
 20
300.393343
 40
30.00001
100
AcDbArc
 50
143.827881
 51
156.007416
  0
ARC
  5
256
100
AcDbEntity
  8
M0
  6
CONTINUOUS
370
25
100
AcDbCircle
 10
244.553643
 20
344.168337
 40
3.0
100
AcDbArc
 50
0.0
 51
100.356873
  0
ARC
  5
257
100
AcDbEntity
  8
M0
  6
CONTINUOUS
370
25
100
AcDbCircle
 10
244.553643
 20
330.757143
 40
2.999997
100
AcDbArc
 50
284.76004
 51
360.0
  0
CIRCLE
  5
258
100
AcDbEntity
  8
M0
  6
CONTINUOUS
370
25
100
AcDbCircle
 10
226.5729
 20
315.393343
 40
2.0
  0
CIRCLE
  5
259
100
AcDbEntity
  8
M0
  6
CONTINUOUS
370
25
100
AcDbCircle
 10
226.5729
 20
315.393343
 40
1.6
  0
ARC
  5
25A
100
AcDbEntity
  8
M0
  6
CONTINUOUS
370
25
100
AcDbCircle
 10
226.5729
 20
285.393374
 40
4.999997
100
AcDbArc
 50
120.000015
 51
300.000031
  0
ARC
  5
25B
100
AcDbEntity
  8
M0
  6
CONTINUOUS
370
25
100
AcDbCircle
 10
230.257836
 20
278.283266
 40
2.999997
100
AcDbArc
 50
44.760757
 51
119.999931
  0
ARC
  5
25C
100
AcDbEntity
  8
M0
  6
CONTINUOUS
370
25
100
AcDbCircle
 10
222.257836
 20
292.139666
 40
3.000006
100
AcDbArc
 50
299.999939
 51
375.23945
  0
ARC
  5
25D
100
AcDbEntity
  8
M0
  6
CONTINUOUS
370
25
100
AcDbCircle
 10
210.643395
 20
285.434069
 40
2.999996
100
AcDbArc
 50
199.643204
 51
299.999939
  0
ARC
  5
25E
100
AcDbEntity
  8
M0
  6
CONTINUOUS
370
25
100
AcDbCircle
 10
252.553643
 20
300.393343
 40
30.000008
100
AcDbArc
 50
203.827881
 51
216.007431
  0
ARC
  5
25F
100
AcDbEntity
  8
M0
  6
CONTINUOUS
370
25
100
AcDbCircle
 10
210.643395
 20
315.352648
 40
2.999993
100
AcDbArc
 50
59.999924
 51
160.356522
  0
ARC
  5
260
100
AcDbEntity
  8
M0
  6
CONTINUOUS
370
25
100
AcDbCircle
 10
222.257836
 20
308.647051
 40
3.000001
100
AcDbArc
 50
344.759979
 51
419.999924
  0
CIRCLE
  5
261
100
AcDbEntity
  8
M0
  6
CONTINUOUS
370
25
100
AcDbCircle
 10
226.5729
 20
285.393374
 40
2.0
  0
CIRCLE
  5
262
100
AcDbEntity
  8
M0
  6
CONTINUOUS
370
25
100
AcDbCircle
 10
226.5729
 20
285.393374
 40
1.6
  0
ARC
  5
263
100
AcDbEntity
  8
M0
  6
CONTINUOUS
370
25
100
AcDbCircle
 10
252.553643
 20
270.393374
 40
5.0
100
AcDbArc
 50
180.0
 51
360.0
  0
ARC
  5
264
100
AcDbEntity
  8
M0
  6
CONTINUOUS
370
25
100
AcDbCircle
 10
260.553643
 20
270.029573
 40
3.000005
100
AcDbArc
 50
104.76059
 51
180.0
  0
ARC
  5
265
100
AcDbEntity
  8
M0
  6
CONTINUOUS
370
25
100
AcDbCircle
 10
244.553643
 20
270.029573
 40
3.0
100
AcDbArc
 50
0.0
 51
75.23941
  0
ARC
  5
266
100
AcDbEntity
  8
M0
  6
CONTINUOUS
370
25
100
AcDbCircle
 10
244.553643
 20
256.61838
 40
2.999997
100
AcDbArc
 50
259.643097
 51
360.0
  0
ARC
  5
267
100
AcDbEntity
  8
M0
  6
CONTINUOUS
370
25
100
AcDbCircle
 10
252.553643
 20
300.393343
 40
29.999992
100
AcDbArc
 50
263.827881
 51
276.007416
  0
ARC
  5
268
100
AcDbEntity
  8
M0
  6
CONTINUOUS
370
25
100
AcDbCircle
 10
218.643395
 20
271.577669
 40
3.000006
100
AcDbArc
 50
119.999931
 51
220.356766
  0
ARC
  5
269
100
AcDbEntity
  8
M0
  6
CONTINUOUS
370
25
100
AcDbCircle
 10
230.257836
 20
278.283266
 40
3.000008
100
AcDbArc
 50
44.760139
 51
119.999931
  0
CIRCLE
  5
26A
100
AcDbEntity
  8
M0
  6
CONTINUOUS
370
25
100
AcDbCircle
 10
252.553643
 20
270.393374
 40
2.0
  0
CIRCLE
  5
26B
100
AcDbEntity
  8
M0
  6
CONTINUOUS
370
25
100
AcDbCircle
 10
252.553643
 20
270.393374
 40
1.6
  0
ARC
  5
26C
100
AcDbEntity
  8
M0
  6
CONTINUOUS
370
25
100
AcDbCircle
 10
278.534386
 20
285.393358
 40
4.999997
100
AcDbArc
 50
239.999985
 51
419.999981
  0
ARC
  5
26D
100
AcDbEntity
  8
M0
  6
CONTINUOUS
370
25
100
AcDbCircle
 10
282.84945
 20
292.13965
 40
2.999993
100
AcDbArc
 50
164.760544
 51
239.999924
  0
ARC
  5
26E
100
AcDbEntity
  8
M0
  6
CONTINUOUS
370
25
100
AcDbCircle
 10
274.84945
 20
278.283266
 40
2.999993
100
AcDbArc
 50
59.999924
 51
135.239243
  0
ARC
  5
26F
100
AcDbEntity
  8
M0
  6
CONTINUOUS
370
25
100
AcDbCircle
 10
286.463891
 20
271.577654
 40
2.999997
100
AcDbArc
 50
319.643005
 51
419.999924
  0
ARC
  5
270
100
AcDbEntity
  8
M0
  6
CONTINUOUS
370
25
100
AcDbCircle
 10
252.553643
 20
300.393343
 40
30.00001
100
AcDbArc
 50
323.827881
 51
336.007416
  0
ARC
  5
271
100
AcDbEntity
  8
M0
  6
CONTINUOUS
370
25
100
AcDbCircle
 10
260.553643
 20
256.618364
 40
3.0
100
AcDbArc
 50
180.0
 51
280.356293
  0
ARC
  5
272
100
AcDbEntity
  8
M0
  6
CONTINUOUS
370
25
100
AcDbCircle
 10
260.553643
 20
270.029573
 40
2.999997
100
AcDbArc
 50
104.760025
 51
180.0
  0
CIRCLE
  5
273
100
AcDbEntity
  8
M0
  6
CONTINUOUS
370
25
100
AcDbCircle
 10
278.534386
 20
285.393358
 40
2.0
  0
CIRCLE
  5
274
100
AcDbEntity
  8
M0
  6
CONTINUOUS
370
25
100
AcDbCircle
 10
278.534386
 20
285.393358
 40
1.6
  0
ARC
  5
275
100
AcDbEntity
  8
M0
  6
CONTINUOUS
370
25
100
AcDbCircle
 10
252.553643
 20
300.393343
 40
28.399992
100
AcDbArc
 50
164.760391
 51
195.239594
  0
ARC
  5
276
100
AcDbEntity
  8
M0
  6
CONTINUOUS
370
25
100
AcDbCircle
 10
252.553643
 20
300.393343
 40
47.499992
100
AcDbArc
 50
160.356659
 51
199.643295
  0
ARC
  5
277
100
AcDbEntity
  8
M0
  6
CONTINUOUS
370
25
100
AcDbCircle
 10
252.553643
 20
300.393343
 40
47.499996
100
AcDbArc
 50
220.356644
 51
259.643311
  0
ARC
  5
278
100
AcDbEntity
  8
M0
  6
CONTINUOUS
370
25
100
AcDbCircle
 10
252.553643
 20
300.393343
 40
28.39999
100
AcDbArc
 50
224.760345
 51
255.239639
  0
ARC
  5
279
100
AcDbEntity
  8
M0
  6
CONTINUOUS
370
25
100
AcDbCircle
 10
252.553643
 20
300.393343
 40
28.399986
100
AcDbArc
 50
284.760345
 51
315.239594
  0
ARC
  5
27A
100
AcDbEntity
  8
M0
  6
CONTINUOUS
370
25
100
AcDbCircle
 10
252.553643
 20
300.393343
 40
47.5
100
AcDbArc
 50
280.356689
 51
319.643341
  0
ARC
  5
27B
100
AcDbEntity
  8
M0
  6
CONTINUOUS
370
25
100
AcDbCircle
 10
252.553643
 20
300.393343
 40
47.499992
100
AcDbArc
 50
340.356659
 51
360.0
  0
ARC
  5
27C
100
AcDbEntity
  8
M0
  6
CONTINUOUS
370
25
100
AcDbCircle
 10
252.553643
 20
300.393343
 40
28.399992
100
AcDbArc
 50
344.760376
 51
375.239586
  0
CIRCLE
  5
27D
100
AcDbEntity
  8
M0
  6
CONTINUOUS
370
25
100
AcDbCircle
 10
252.553643
 20
300.393343
 40
21.0
  0
ARC
  5
27E
100
AcDbEntity
  8
M0
  6
CONTINUOUS
370
25
100
AcDbCircle
 10
581.858269
 20
300.393343
 40
6.0
100
AcDbArc
 50
0.0
 51
70.528801
  0
ARC
  5
27F
100
AcDbEntity
  8
M0
  6
CONTINUOUS
370
25
100
AcDbCircle
 10
581.858269
 20
300.393343
 40
6.000006
100
AcDbArc
 50
109.471199
 51
360.0
  0
ARC
  5
280
100
AcDbEntity
  8
M0
  6
CONTINUOUS
370
25
100
AcDbCircle
 10
193.902886
 20
379.575594
 40
8.960023
100
AcDbArc
 50
29.998756
 51
90.0
  0
ARC
  5
281
100
AcDbEntity
  8
M0
  6
CONTINUOUS
370
25
100
AcDbCircle
 10
193.902886
 20
379.575594
 40
11.200012
100
AcDbArc
 50
30.001263
 51
90.0
  0
ARC
  5
282
100
AcDbEntity
  8
M0
  6
CONTINUOUS
370
25
100
AcDbCircle
 10
213.301873
 20
390.775606
 40
8.960344
100
AcDbArc
 50
150.00119
 51
209.998718
  0
ARC
  5
283
100
AcDbEntity
  8
M0
  6
CONTINUOUS
370
25
100
AcDbCircle
 10
213.301873
 20
390.775606
 40
11.200434
100
AcDbArc
 50
150.001251
 51
209.998672
  0
ARC
  5
284
100
AcDbEntity
  8
M0
  6
CONTINUOUS
370
25
100
AcDbCircle
 10
581.858269
 20
300.393343
 40
66.999992
100
AcDbArc
 50
61.914242
 51
418.08213
  0
ARC
  5
285
100
AcDbEntity
  8
M0
  6
CONTINUOUS
370
25
100
AcDbCircle
 10
640.509026
 20
379.575594
 40
8.960022
100
AcDbArc
 50
90.0
 51
150.001236
  0
ARC
  5
286
100
AcDbEntity
  8
M0
  6
CONTINUOUS
370
25
100
AcDbCircle
 10
640.509026
 20
379.575594
 40
11.200012
100
AcDbArc
 50
90.0
 51
149.998734
  0
ARC
  5
287
100
AcDbEntity
  8
M0
  6
CONTINUOUS
370
25
100
AcDbCircle
 10
621.110039
 20
390.775606
 40
11.200447
100
AcDbArc
 50
330.001282
 51
389.998716
  0
ARC
  5
288
100
AcDbEntity
  8
M0
  6
CONTINUOUS
370
25
100
AcDbCircle
 10
621.110039
 20
390.775606
 40
8.960358
100
AcDbArc
 50
330.001251
 51
389.99876
  0
ARC
  5
289
100
AcDbEntity
  8
M0
  6
CONTINUOUS
370
25
100
AcDbCircle
 10
252.553643
 20
300.393343
 40
6.000006
100
AcDbArc
 50
109.471199
 51
360.0
  0
ARC
  5
28A
100
AcDbEntity
  8
M0
  6
CONTINUOUS
370
25
100
AcDbCircle
 10
252.553643
 20
300.393343
 40
6.0
100
AcDbArc
 50
0.0
 51
70.528801
  0
CIRCLE
  5
28B
100
AcDbEntity
  8
M0
  6
CONTINUOUS
370
25
100
AcDbCircle
 10
581.858269
 20
300.393343
 40
44.5
  0
CIRCLE
  5
28C
100
AcDbEntity
  8
M0
  6
CONTINUOUS
370
25
100
AcDbCircle
 10
581.858269
 20
300.393343
 40
25.0
  0
CIRCLE
  5
28D
100
AcDbEntity
  8
M0
  6
CONTINUOUS
370
25
100
AcDbCircle
 10
581.858269
 20
300.393343
 40
21.0
  0
CIRCLE
  5
28E
100
AcDbEntity
  8
M0
  6
CONTINUOUS
370
25
100
AcDbCircle
 10
581.858269
 20
300.393343
 40
12.5
  0
ARC
  5
28F
100
AcDbEntity
  8
M0
  6
CONTINUOUS
370
25
100
AcDbCircle
 10
581.858269
 20
300.393343
 40
30.000006
100
AcDbArc
 50
84.263657
 51
95.940422
  0
CIRCLE
  5
290
100
AcDbEntity
  8
M0
  6
CONTINUOUS
370
25
100
AcDbCircle
 10
581.858269
 20
330.393343
 40
2.0
  0
CIRCLE
  5
291
100
AcDbEntity
  8
M0
  6
CONTINUOUS
370
25
100
AcDbCircle
 10
581.858269
 20
330.393343
 40
1.6
  0
CIRCLE
  5
292
100
AcDbEntity
  8
M0
  6
CONTINUOUS
370
25
100
AcDbCircle
 10
555.877511
 20
315.393343
 40
2.0
  0
CIRCLE
  5
293
100
AcDbEntity
  8
M0
  6
CONTINUOUS
370
25
100
AcDbCircle
 10
555.877511
 20
315.393343
 40
1.6
  0
ARC
  5
294
100
AcDbEntity
  8
M0
  6
CONTINUOUS
370
25
100
AcDbCircle
 10
581.858269
 20
300.393343
 40
29.999996
100
AcDbArc
 50
144.263657
 51
155.94043
  0
CIRCLE
  5
295
100
AcDbEntity
  8
M0
  6
CONTINUOUS
370
25
100
AcDbCircle
 10
555.877511
 20
285.393343
 40
2.0
  0
CIRCLE
  5
296
100
AcDbEntity
  8
M0
  6
CONTINUOUS
370
25
100
AcDbCircle
 10
555.877511
 20
285.393343
 40
1.6
  0
ARC
  5
297
100
AcDbEntity
  8
M0
  6
CONTINUOUS
370
25
100
AcDbCircle
 10
581.858269
 20
300.393343
 40
29.999996
100
AcDbArc
 50
204.263687
 51
215.940445
  0
CIRCLE
  5
298
100
AcDbEntity
  8
M0
  6
CONTINUOUS
370
25
100
AcDbCircle
 10
581.858269
 20
270.393343
 40
2.0
  0
CIRCLE
  5
299
100
AcDbEntity
  8
M0
  6
CONTINUOUS
370
25
100
AcDbCircle
 10
581.858269
 20
270.393343
 40
1.6
  0
ARC
  5
29A
100
AcDbEntity
  8
M0
  6
CONTINUOUS
370
25
100
AcDbCircle
 10
581.858269
 20
300.393343
 40
30.000006
100
AcDbArc
 50
264.263672
 51
275.94043
  0
CIRCLE
  5
29B
100
AcDbEntity
  8
M0
  6
CONTINUOUS
370
25
100
AcDbCircle
 10
607.839028
 20
285.393343
 40
2.0
  0
CIRCLE
  5
29C
100
AcDbEntity
  8
M0
  6
CONTINUOUS
370
25
100
AcDbCircle
 10
607.839028
 20
285.393343
 40
1.6
  0
ARC
  5
29D
100
AcDbEntity
  8
M0
  6
CONTINUOUS
370
25
100
AcDbCircle
 10
581.858269
 20
300.393343
 40
30.000002
100
AcDbArc
 50
324.263672
 51
335.94043
  0
CIRCLE
  5
29E
100
AcDbEntity
  8
M0
  6
CONTINUOUS
370
25
100
AcDbCircle
 10
607.839036
 20
315.393343
 40
2.0
  0
CIRCLE
  5
29F
100
AcDbEntity
  8
M0
  6
CONTINUOUS
370
25
100
AcDbCircle
 10
607.839036
 20
315.393343
 40
1.6
  0
ARC
  5
2A0
100
AcDbEntity
  8
M0
  6
CONTINUOUS
370
25
100
AcDbCircle
 10
581.858269
 20
300.393343
 40
30.000002
100
AcDbArc
 50
24.263674
 51
35.940414
  0
CIRCLE
  5
2A1
100
AcDbEntity
  8
M0
  6
CONTINUOUS
370
25
100
AcDbCircle
 10
581.858269
 20
300.393343
 40
66.0
  0
CIRCLE
  5
2A2
100
AcDbEntity
  8
M0
  6
CONTINUOUS
370
25
100
AcDbCircle
 10
252.553643
 20
300.393343
 40
12.5
  0
CIRCLE
  5
2A3
100
AcDbEntity
  8
M0
  6
CONTINUOUS
370
25
100
AcDbCircle
 10
250.303643
 20
314.593355
 40
1.0
  0
CIRCLE
  5
2A4
100
AcDbEntity
  8
M0
  6
CONTINUOUS
370
25
100
AcDbCircle
 10
254.803643
 20
314.593355
 40
1.0
  0
ARC
  5
2A5
100
AcDbEntity
  8
M0
  6
CONTINUOUS
370
25
100
AcDbCircle
 10
252.553643
 20
299.393343
 40
14.150005
100
AcDbArc
 50
104.32074
 51
435.67926
  0
ARC
  5
2A6
100
AcDbEntity
  8
M0
  6
CONTINUOUS
370
25
100
AcDbCircle
 10
435.256707
 20
383.008211
 40
13.999781
100
AcDbArc
 50
120.000664
 51
179.999939
  0
ARC
  5
2A7
100
AcDbEntity
  8
M0
  6
CONTINUOUS
370
25
100
AcDbCircle
 10
410.056756
 20
383.008211
 40
11.199585
100
AcDbArc
 50
0.0
 51
59.998745
  0
ARC
  5
2A8
100
AcDbEntity
  8
M0
  6
CONTINUOUS
370
25
100
AcDbCircle
 10
410.056756
 20
383.008211
 40
13.999679
100
AcDbArc
 50
25.840021
 51
59.999256
  0
ARC
  5
2A9
100
AcDbEntity
  8
M0
  6
CONTINUOUS
370
25
100
AcDbCircle
 10
418.25573
 20
366.008211
 40
3.0
100
AcDbArc
 50
270.0
 51
360.0
  0
ARC
  5
2AA
100
AcDbEntity
  8
M0
  6
CONTINUOUS
370
25
100
AcDbCircle
 10
435.256707
 20
383.008211
 40
11.199997
100
AcDbArc
 50
120.001129
 51
180.0
  0
ARC
  5
2AB
100
AcDbEntity
  8
M0
  6
CONTINUOUS
370
25
100
AcDbCircle
 10
418.25573
 20
366.008211
 40
5.799988
100
AcDbArc
 50
270.0
 51
360.0
  0
ARC
  5
2AC
100
AcDbEntity
  8
M0
  6
CONTINUOUS
370
25
100
AcDbCircle
 10
252.553643
 20
301.393343
 40
19.000006
100
AcDbArc
 50
107.881645
 51
432.11834
  0
CIRCLE
  5
2AD
100
AcDbEntity
  8
M0
  6
CONTINUOUS
370
25
100
AcDbCircle
 10
256.079522
 20
319.017946
 40
1.25
  0
ARC
  5
2AE
100
AcDbEntity
  8
M0
  6
CONTINUOUS
370
25
100
AcDbCircle
 10
256.566704
 20
318.64995
 40
1.500001
100
AcDbArc
 50
264.999878
 51
343.000061
  0
ARC
  5
2AF
100
AcDbEntity
  8
M0
  6
CONTINUOUS
370
25
100
AcDbCircle
 10
255.446892
 20
318.547152
 40
1.29999
100
AcDbArc
 50
175.000229
 51
264.999603
  0
ARC
  5
2B0
100
AcDbEntity
  8
M0
  6
CONTINUOUS
370
25
100
AcDbCircle
 10
249.660393
 20
318.547152
 40
1.300007
100
AcDbArc
 50
275.000397
 51
364.999774
  0
ARC
  5
2B1
100
AcDbEntity
  8
M0
  6
CONTINUOUS
370
25
100
AcDbCircle
 10
248.540581
 20
318.64995
 40
1.49999
100
AcDbArc
 50
196.999924
 51
275.000122
  0
CIRCLE
  5
2B2
100
AcDbEntity
  8
M0
  6
CONTINUOUS
370
25
100
AcDbCircle
 10
249.027764
 20
319.017946
 40
1.25
  0
ARC
  5
2B3
100
AcDbEntity
  8
M0
  6
CONTINUOUS
370
25
100
AcDbCircle
 10
431.116479
 20
238.582117
 40
0.311866
100
AcDbArc
 50
90.549461
 51
269.512207
  0
ARC
  5
2B4
100
AcDbEntity
  8
M0
  6
CONTINUOUS
370
25
100
AcDbCircle
 10
446.80462
 20
237.136026
 40
1.0
100
AcDbArc
 50
0.0
 51
89.510406
  0
ARC
  5
2B5
100
AcDbEntity
  8
M0
  6
CONTINUOUS
370
25
100
AcDbCircle
 10
446.80462
 20
240.045023
 40
1.000001
100
AcDbArc
 50
270.551666
 51
360.0
  0
ARC
  5
2B6
100
AcDbEntity
  8
M0
  6
CONTINUOUS
370
25
100
AcDbCircle
 10
446.80462
 20
250.117121
 40
1.0
100
AcDbArc
 50
0.0
 51
88.896614
  0
ARC
  5
2B7
100
AcDbEntity
  8
M0
  6
CONTINUOUS
370
25
100
AcDbCircle
 10
446.80462
 20
254.08555
 40
1.000004
100
AcDbArc
 50
271.151489
 51
360.0
  0
ARC
  5
2B8
100
AcDbEntity
  8
M0
  6
CONTINUOUS
370
25
100
AcDbCircle
 10
431.487084
 20
252.094942
 40
0.68245
100
AcDbArc
 50
91.150475
 51
268.89566
  0
ARC
  5
2B9
100
AcDbEntity
  8
M0
  6
CONTINUOUS
370
25
100
AcDbCircle
 10
446.80462
 20
271.618456
 40
1.0
100
AcDbArc
 50
0.0
 51
88.474236
  0
ARC
  5
2BA
100
AcDbEntity
  8
M0
  6
CONTINUOUS
370
25
100
AcDbCircle
 10
446.80462
 20
276.306093
 40
1.000001
100
AcDbArc
 50
271.552002
 51
360.0
  0
ARC
  5
2BB
100
AcDbEntity
  8
M0
  6
CONTINUOUS
370
25
100
AcDbCircle
 10
446.80462
 20
287.439928
 40
1.000003
100
AcDbArc
 50
274.97818
 51
360.0
  0
ARC
  5
2BC
100
AcDbEntity
  8
M0
  6
CONTINUOUS
370
25
100
AcDbCircle
 10
436.80462
 20
266.074114
 40
6.000007
100
AcDbArc
 50
97.391396
 51
180.0
  0
ARC
  5
2BD
100
AcDbEntity
  8
M0
  6
CONTINUOUS
370
25
100
AcDbCircle
 10
436.80462
 20
279.542406
 40
6.000002
100
AcDbArc
 50
94.977905
 51
180.777832
  0
ARC
  5
2BE
100
AcDbEntity
  8
M0
  6
CONTINUOUS
370
25
100
AcDbCircle
 10
446.80462
 20
297.922319
 40
1.0
100
AcDbArc
 50
0.0
 51
88.315056
  0
ARC
  5
2BF
100
AcDbEntity
  8
M0
  6
CONTINUOUS
370
25
100
AcDbCircle
 10
431.743035
 20
273.958803
 40
0.938424
100
AcDbArc
 50
91.552284
 51
268.473816
  0
ARC
  5
2C0
100
AcDbEntity
  8
M0
  6
CONTINUOUS
370
25
100
AcDbCircle
 10
431.80462
 20
300.364367
 40
1.0
100
AcDbArc
 50
180.0
 51
268.315918
  0
LINE
  5
2C1
100
AcDbEntity
  8
M0
  6
CONTINUOUS
370
25
100
AcDbLine
 10
417.80462
 20
330.59334
 11
417.80462
 21
319.393343
  0
LINE
  5
2C2
100
AcDbEntity
  8
M0
  6
CONTINUOUS
370
25
100
AcDbLine
 10
445.80462
 20
330.59334
 11
445.80462
 21
325.393343
  0
TEXT
  5
2C3
100
AcDbEntity
  8
M0
100
AcDbText
 10
581.570092
 20
187.018048
 40
8.64
  1
ＰＨＣ－０．６Ｒ
 41
1.052632
  7
STANDARD
100
AcDbText
  0
TEXT
  5
2C4
100
AcDbEntity
  8
M0
100
AcDbText
 10
582.464563
 20
169.705533
 40
7.5
  1
（ＳＤＫ６２３０）
  7
STANDARD
100
AcDbText
  0
LINE
  5
2C5
100
AcDbEntity
  8
M0
  6
CONTINUOUS
370
25
100
AcDbLine
 10
365.908776
 20
354.893343
 11
365.688561
 21
354.076738
  0
LINE
  5
2C6
100
AcDbEntity
  8
M0
  6
CONTINUOUS
370
25
100
AcDbLine
 10
365.688561
 20
354.076738
 11
365.55169
 21
353.240068
  0
LINE
  5
2C7
100
AcDbEntity
  8
M0
  6
CONTINUOUS
370
25
100
AcDbLine
 10
365.55169
 20
353.240068
 11
365.504601
 21
352.393343
  0
LINE
  5
2C8
100
AcDbEntity
  8
M0
  6
CONTINUOUS
370
25
100
AcDbLine
 10
365.504601
 20
352.393343
 11
365.55169
 21
351.546618
  0
LINE
  5
2C9
100
AcDbEntity
  8
M0
  6
CONTINUOUS
370
25
100
AcDbLine
 10
365.55169
 20
351.546618
 11
365.688561
 21
350.709948
  0
LINE
  5
2CA
100
AcDbEntity
  8
M0
  6
CONTINUOUS
370
25
100
AcDbLine
 10
365.688561
 20
350.709948
 11
365.908776
 21
349.893343
  0
LINE
  5
2CB
100
AcDbEntity
  8
M0
  6
CONTINUOUS
370
25
100
AcDbLine
 10
427.700463
 20
354.893343
 11
427.920678
 21
354.076738
  0
LINE
  5
2CC
100
AcDbEntity
  8
M0
  6
CONTINUOUS
370
25
100
AcDbLine
 10
427.920678
 20
354.076738
 11
428.057549
 21
353.240068
  0
LINE
  5
2CD
100
AcDbEntity
  8
M0
  6
CONTINUOUS
370
25
100
AcDbLine
 10
428.057549
 20
353.240068
 11
428.104638
 21
352.393343
  0
LINE
  5
2CE
100
AcDbEntity
  8
M0
  6
CONTINUOUS
370
25
100
AcDbLine
 10
428.104638
 20
352.393343
 11
428.057549
 21
351.546618
  0
LINE
  5
2CF
100
AcDbEntity
  8
M0
  6
CONTINUOUS
370
25
100
AcDbLine
 10
428.057549
 20
351.546618
 11
427.920678
 21
350.709948
  0
LINE
  5
2D0
100
AcDbEntity
  8
M0
  6
CONTINUOUS
370
25
100
AcDbLine
 10
427.920678
 20
350.709948
 11
427.700463
 21
349.893343
  0
LINE
  5
2D1
100
AcDbEntity
  8
M0
  6
CONTINUOUS
370
25
100
AcDbLine
 10
444.379906
 20
342.393343
 11
444.17669
 21
341.744234
  0
LINE
  5
2D2
100
AcDbEntity
  8
M0
  6
CONTINUOUS
370
25
100
AcDbLine
 10
444.17669
 20
341.744234
 11
444.048958
 21
341.074053
  0
LINE
  5
2D3
100
AcDbEntity
  8
M0
  6
CONTINUOUS
370
25
100
AcDbLine
 10
444.048958
 20
341.074053
 11
444.004616
 21
340.393343
  0
LINE
  5
2D4
100
AcDbEntity
  8
M0
  6
CONTINUOUS
370
25
100
AcDbLine
 10
444.004616
 20
340.393343
 11
444.048958
 21
339.712633
  0
LINE
  5
2D5
100
AcDbEntity
  8
M0
  6
CONTINUOUS
370
25
100
AcDbLine
 10
444.048958
 20
339.712633
 11
444.17669
 21
339.042452
  0
LINE
  5
2D6
100
AcDbEntity
  8
M0
  6
CONTINUOUS
370
25
100
AcDbLine
 10
444.17669
 20
339.042452
 11
444.379906
 21
338.393343
  0
LINE
  5
2D7
100
AcDbEntity
  8
M0
  6
CONTINUOUS
370
25
100
AcDbLine
 10
365.908776
 20
271.893343
 11
365.688561
 21
272.709948
  0
LINE
  5
2D8
100
AcDbEntity
  8
M0
  6
CONTINUOUS
370
25
100
AcDbLine
 10
365.688561
 20
272.709948
 11
365.55169
 21
273.546618
  0
LINE
  5
2D9
100
AcDbEntity
  8
M0
  6
CONTINUOUS
370
25
100
AcDbLine
 10
365.55169
 20
273.546618
 11
365.504601
 21
274.393343
  0
LINE
  5
2DA
100
AcDbEntity
  8
M0
  6
CONTINUOUS
370
25
100
AcDbLine
 10
365.504601
 20
274.393343
 11
365.55169
 21
275.240068
  0
LINE
  5
2DB
100
AcDbEntity
  8
M0
  6
CONTINUOUS
370
25
100
AcDbLine
 10
365.55169
 20
275.240068
 11
365.688561
 21
276.076738
  0
LINE
  5
2DC
100
AcDbEntity
  8
M0
  6
CONTINUOUS
370
25
100
AcDbLine
 10
365.688561
 20
276.076738
 11
365.908776
 21
276.893343
  0
LINE
  5
2DD
100
AcDbEntity
  8
M0
  6
CONTINUOUS
370
25
100
AcDbLine
 10
427.700463
 20
245.893358
 11
427.920678
 21
246.709955
  0
LINE
  5
2DE
100
AcDbEntity
  8
M0
  6
CONTINUOUS
370
25
100
AcDbLine
 10
427.920678
 20
246.709955
 11
428.057549
 21
247.54664
  0
LINE
  5
2DF
100
AcDbEntity
  8
M0
  6
CONTINUOUS
370
25
100
AcDbLine
 10
428.057549
 20
247.54664
 11
428.104638
 21
248.393358
  0
LINE
  5
2E0
100
AcDbEntity
  8
M0
  6
CONTINUOUS
370
25
100
AcDbLine
 10
428.104638
 20
248.393358
 11
428.057549
 21
249.240076
  0
LINE
  5
2E1
100
AcDbEntity
  8
M0
  6
CONTINUOUS
370
25
100
AcDbLine
 10
428.057549
 20
249.240076
 11
427.920678
 21
250.076761
  0
LINE
  5
2E2
100
AcDbEntity
  8
M0
  6
CONTINUOUS
370
25
100
AcDbLine
 10
427.920678
 20
250.076761
 11
427.700463
 21
250.893358
  0
LINE
  5
2E3
100
AcDbEntity
  8
M0
  6
CONTINUOUS
370
25
100
AcDbLine
 10
365.908776
 20
245.893358
 11
365.688561
 21
246.709955
  0
LINE
  5
2E4
100
AcDbEntity
  8
M0
  6
CONTINUOUS
370
25
100
AcDbLine
 10
365.688561
 20
246.709955
 11
365.55169
 21
247.54664
  0
LINE
  5
2E5
100
AcDbEntity
  8
M0
  6
CONTINUOUS
370
25
100
AcDbLine
 10
365.55169
 20
247.54664
 11
365.504601
 21
248.393358
  0
LINE
  5
2E6
100
AcDbEntity
  8
M0
  6
CONTINUOUS
370
25
100
AcDbLine
 10
365.504601
 20
248.393358
 11
365.55169
 21
249.240076
  0
LINE
  5
2E7
100
AcDbEntity
  8
M0
  6
CONTINUOUS
370
25
100
AcDbLine
 10
365.55169
 20
249.240076
 11
365.688561
 21
250.076761
  0
LINE
  5
2E8
100
AcDbEntity
  8
M0
  6
CONTINUOUS
370
25
100
AcDbLine
 10
365.688561
 20
250.076761
 11
365.908776
 21
250.893358
  0
LINE
  5
2E9
100
AcDbEntity
  8
M0
  6
CONTINUOUS
370
25
100
AcDbLine
 10
427.700463
 20
271.893343
 11
427.920678
 21
272.709948
  0
LINE
  5
2EA
100
AcDbEntity
  8
M0
  6
CONTINUOUS
370
25
100
AcDbLine
 10
427.920678
 20
272.709948
 11
428.057549
 21
273.546618
  0
LINE
  5
2EB
100
AcDbEntity
  8
M0
  6
CONTINUOUS
370
25
100
AcDbLine
 10
428.057549
 20
273.546618
 11
428.104638
 21
274.393343
  0
LINE
  5
2EC
100
AcDbEntity
  8
M0
  6
CONTINUOUS
370
25
100
AcDbLine
 10
428.104638
 20
274.393343
 11
428.057549
 21
275.240068
  0
LINE
  5
2ED
100
AcDbEntity
  8
M0
  6
CONTINUOUS
370
25
100
AcDbLine
 10
428.057549
 20
275.240068
 11
427.920678
 21
276.076738
  0
LINE
  5
2EE
100
AcDbEntity
  8
M0
  6
CONTINUOUS
370
25
100
AcDbLine
 10
427.920678
 20
276.076738
 11
427.700463
 21
276.893343
  0
ENDSEC
  0
SECTION
  2
OBJECTS
  0
DICTIONARY
  5
C
100
AcDbDictionary
  3
ACAD_GROUP
350
D
  3
ACAD_MLINESTYLE
350
E
  0
DICTIONARY
  5
D
102
{ACAD_REACTORS
330
C
102
}
100
AcDbDictionary
  0
DICTIONARY
  5
E
102
{ACAD_REACTORS
330
C
102
}
100
AcDbDictionary
  3
STANDARD
350
13
  0
MLINESTYLE
  5
13
102
{ACAD_REACTORS
330
E
102
}
100
AcDbMlineStyle
  2
STANDARD
 70
     0
  3

 62
     0
 51
90.0
 52
90.0
 71
     2
 49
0.5
 62
   256
  6
BYLAYER
 49
-0.5
 62
   256
  6
BYLAYER
  0
ENDSEC
  0
EOF
