  0
SECTION
  2
HEADER
  9
$ACADVER
  1
AC1015
  9
$INSBASE
 10
0.0
 20
0.0
  9
$VIEWCTR
 10
7.531722
 20
4.5
  9
$VIEWSIZE
 40
9.0
  9
$SNAPMODE
 70
     0
  9
$SNAPUNIT
 10
1.0
 20
1.0
  9
$SNAPBASE
 10
0.0
 20
0.0
  9
$SNAPANG
 50
0.0
  9
$SNAPSTYLE
 70
     0
  9
$SNAPISOPAIR
 70
     0
  9
$GRIDMODE
 70
     0
  9
$GRIDUNIT
 10
0.0
 20
0.0
  9
$ORTHOMODE
 70
     0
  9
$REGENMODE
 70
     1
  9
$FILLMODE
 70
     1
  9
$QTEXTMODE
 70
     0
  9
$DRAGMODE
 70
     2
  9
$LTSCALE
 40
1.0
  9
$OSMODE
 70
     0
  9
$ATTMODE
 70
     1
  9
$TEXTSIZE
 40
0.2
  9
$TRACEWID
 40
0.05
  9
$TEXTSTYLE
  7
STANDARD
  9
$CELTYPE
  6
BYLAYER
  9
$CECOLOR
 62
   256
  9
$DIMSCALE
 40
1.0
  9
$DIMASZ
 40
0.18
  9
$DIMEXO
 40
0.0625
  9
$DIMDLI
 40
0.38
  9
$DIMRND
 40
0.0
  9
$DIMDLE
 40
0.0
  9
$DIMEXE
 40
0.18
  9
$DIMTP
 40
0.0
  9
$DIMTM
 40
0.0
  9
$DIMTXT
 40
0.18
  9
$DIMCEN
 40
0.09
  9
$DIMTSZ
 40
0.0
  9
$DIMADEC
 70
     0
  9
$DIMALTRND
 40
0.000000
  9
$DIMAZIN
 70
     0
  9
$DIMDSEP
 70
    46
  9
$DIMATFIT
 70
     3
  9
$DIMFRAC
 70
     0
  9
$DIMLDRBLK
  1

  9
$DIMLUNIT
 70
     2
  9
$DIMLWD
 70
   13
  9
$DIMLWE
 70
   13
  9
$DIMTMOVE
 70
     0
  9
$CELWEIGHT
370
    25
  9
$LWDISPLAY
290
    1
  9
$EXTNAMES
290
    1
  9
$DIMTOL
 70
     0
  9
$DIMLIM
 70
     0
  9
$DIMTIH
 70
     1
  9
$DIMTOH
 70
     1
  9
$DIMSE1
 70
     0
  9
$DIMSE2
 70
     0
  9
$DIMTAD
 70
     0
  9
$DIMZIN
 70
     0
  9
$DIMBLK
  1

  9
$LUNITS
 70
     2
  9
$LUPREC
 70
     4
  9
$AXISMODE
 70
     0
  9
$AXISUNIT
 10
0.0
 20
0.0
  9
$SKETCHINC
 40
0.1
  9
$FILLETRAD
 40
0.0
  9
$AUNITS
 70
     0
  9
$AUPREC
 70
     0
  9
$MENU
  1
ACAD
  9
$ELEVATION
 40
0.0
  9
$THICKNESS
 40
0.0
  9
$VIEWDIR
 10
0.0
 20
0.0
 30
1.0
  9
$LIMCHECK
 70
     0
  9
$BLIPMODE
 70
     1
  9
$CHAMFERA
 40
0.0
  9
$CHAMFERB
 40
0.0
  9
$FASTZOOM
 70
     1
  9
$SKPOLY
 70
     0
  9
$TDCREATE
 40
0000000.0000000000
  9
$TDUPDATE
 40
0000000.0000000000
  9
$TDINDWG
 40
0.0000000000
  9
$TDUSRTIMER
 40
0.0000000000
  9
$USRTIMER
 70
     1
  9
$ANGBASE
 50
0.0
  9
$ANGDIR
 70
     0
  9
$PDMODE
 70
     0
  9
$PDSIZE
 40
0.0
  9
$PLINEWID
 40
0.0
  9
$COORDS
 70
     0
  9
$USERI1
 70
     0
  9
$USERI2
 70
     0
  9
$USERI3
 70
     0
  9
$USERI4
 70
     0
  9
$USERI5
 70
     0
  9
$USERR1
 40
0.0
  9
$USERR2
 40
0.0
  9
$USERR3
 40
0.0
  9
$USERR4
 40
0.0
  9
$USERR5
 40
0.0
  9
$CLAYER
  8
M0
  9
$EXTMIN
 10
0.0
 20
0.0
  9
$EXTMAX
 10
841.0
 20
594.0
  9
$LIMMIN
 10
0.0
 20
0.0
  9
$LIMMAX
 10
841.0
 20
594.0
  9
$HANDSEED
  5
31F
  0
ENDSEC
  0
SECTION
  2
CLASSES
  0
ENDSEC
  0
SECTION
  2
TABLES
  0
TABLE
  2
VPORT
  5
8
100
AcDbSymbolTable
 70
     2
  0
VPORT
  5
14
100
AcDbSymbolTableRecord
100
AcDbViewportTableRecord
  2
*ACTIVE
 70
     0
 10
0.0
 20
0.0
 11
1.0
 21
1.0
 12
484.0
 22
297.0
 13
0.0
 23
0.0
 14
1.0
 24
1.0
 15
0.0
 25
0.0
 16
0.0
 26
0.0
 36
1.0
 17
0.0
 27
0.0
 37
0.0
 40
594.0
 41
2.0
 42
50.0
 43
0.0
 44
0.0
 50
0.0
 51
0.0
 71
     0
 72
   100
 73
     1
 74
     1
 75
     0
 76
     0
 77
     0
 78
     0
  0
ENDTAB
  0
TABLE
  2
LTYPE
  5
5
100
AcDbSymbolTable
 70
     5
  0
LTYPE
  5
15
100
AcDbSymbolTableRecord
100
AcDbLinetypeTableRecord
  2
BYBLOCK
 70
     0
  3

 72
    65
 73
     0
 40
0.0
  0
LTYPE
  5
16
100
AcDbSymbolTableRecord
100
AcDbLinetypeTableRecord
  2
BYLAYER
 70
     0
  3

 72
    65
 73
     0
 40
0.0
  0
LTYPE
  5
17
100
AcDbSymbolTableRecord
100
AcDbLinetypeTableRecord
  2
CONTINUOUS
 70
    64
  3
Solid line
 72
    65
 73
     0
 40
0.0
  0
LTYPE
  5
18
100
AcDbSymbolTableRecord
100
AcDbLinetypeTableRecord
  2
DASHED
 70
    64
  3
__ __ __ __ __ __ __ __ __ __ __ __ __ __ __ __
 72
    65
 73
     2
 40
0.75
 49
0.5
 74
     0
 49
-0.25
 74
     0
  0
LTYPE
  5
19
100
AcDbSymbolTableRecord
100
AcDbLinetypeTableRecord
  2
DASHDOT
 70
    64
  3
__ . __ . __ . __ . __ . __ . __ . __ . __ . __
 72
    65
 73
     4
 40
1.0
 49
0.5
 74
     0
 49
-0.25
 74
     0
 49
0.0
 74
     0
 49
-0.25
 74
     0
  0
LTYPE
  5
1A
100
AcDbSymbolTableRecord
100
AcDbLinetypeTableRecord
  2
DIVIDE
 70
    64
  3
____ . . ____ . . ____ . . ____ . . ____ . . __
 72
    65
 73
     6
 40
1.25
 49
0.5
 74
     0
 49
-0.25
 74
     0
 49
0.0
 74
     0
 49
-0.25
 74
     0
 49
0.0
 74
     0
 49
-0.25
 74
     0
  0
LTYPE
  5
1B
100
AcDbSymbolTableRecord
100
AcDbLinetypeTableRecord
  2
DOT
 70
    64
  3
. . . . . . . . . . . . . . . . . . . . . . . .
 72
    65
 73
     2
 40
0.25
 49
0.0
 74
     0
 49
-0.25
 74
     0
  0
ENDTAB
  0
TABLE
  2
LAYER
  5
2
100
AcDbSymbolTable
 70
   102
  0
LAYER
  5
F
100
AcDbSymbolTableRecord
100
AcDbLayerTableRecord
  2
0
 70
     0
 62
     7
  6
CONTINUOUS
370
     -3
390
F
  0
LAYER
  5
1C
100
AcDbSymbolTableRecord
100
AcDbLayerTableRecord
  2
M0
 70
     0
 62
     7
  6
CONTINUOUS
370
     -3
390
F
  0
ENDTAB
  0
TABLE
  2
STYLE
  5
3
100
AcDbSymbolTable
 70
     2
  0
STYLE
  5
10
100
AcDbSymbolTableRecord
100
AcDbTextStyleTableRecord
  2
STANDARD
 70
     0
 40
0.0
 41
1.0
 50
0.0
 71
     0
 42
0.2
  3
txt
  4
BIGFONT
  0
ENDTAB
  0
TABLE
  2
VIEW
  5
6
100
AcDbSymbolTable
 70
     0
  0
ENDTAB
  0
TABLE
  2
UCS
  5
7
100
AcDbSymbolTable
 70
     0
  0
ENDTAB
  0
TABLE
  2
APPID
  5
9
100
AcDbSymbolTable
 70
     1
  0
APPID
  5
11
100
AcDbSymbolTableRecord
100
AcDbRegAppTableRecord
  2
ACAD
 70
     0
  0
ENDTAB
  0
TABLE
  2
DIMSTYLE
  5
A
100
AcDbSymbolTable
 70
     2
100
AcDbDimStyleTable
 71
     1
  0
DIMSTYLE
105
23
100
AcDbSymbolTableRecord
100
AcDbDimStyleTableRecord
  2
STANDARD
 70
     0
  3

  4

  5

  6
_OPEN
  7
_OPEN
 40
1.0
 41
3.0
 42
0.5
 43
8.0
 44
1.5
 45
0.0
 46
0.0
 47
0.0
 48
0.0
140
3.15
141
0.09
142
0.0
143
0.03937
144
1.0
145
0.0
146
1.0
147
1.0
148
0.000000
 71
     0
 72
     0
 73
     0
 74
     0
 75
     0
 76
     0
 77
     3
 78
     8
170
     0
171
     2
172
     0
173
     1
174
     0
175
     0
176
     0
177
     0
178
     0
270
     2
271
     2
272
     4
273
     2
274
     2
340
10
275
     0
278
    46
280
     0
281
     0
282
     0
283
     1
284
     0
285
     0
286
     0
287
     3
288
     0
371
   13
372
   13
  0
DIMSTYLE
105
24
100
AcDbSymbolTableRecord
100
AcDbDimStyleTableRecord
  2
LEADSTYL
 70
     0
  3

  4

  5

  6
_OPEN
  7
_OPEN
 40
1.0
 41
3.0
 42
0.0625
 43
0.38
 44
0.18
 45
0.0
 46
0.0
 47
0.0
 48
0.0
140
3.15
141
0.09
142
0.0
143
25.4
144
1.0
145
0.0
146
1.0
147
1.0
 71
     0
 72
     0
 73
     1
 74
     1
 75
     0
 76
     0
 77
     0
 78
     0
170
     0
171
     2
172
     0
173
     1
174
     0
175
     0
176
     0
177
     0
178
     0
270
     2
271
     4
272
     4
273
     2
274
     2
340
10
275
     0
280
     0
281
     0
282
     0
283
     1
284
     0
285
     0
286
     0
287
     3
288
     0
  0
ENDTAB
  0
TABLE
  2
BLOCK_RECORD
  5
1
100
AcDbSymbolTable
 70
     6
  0
BLOCK_RECORD
  5
1D
100
AcDbSymbolTableRecord
100
AcDbBlockTableRecord
  2
*MODEL_SPACE
  0
BLOCK_RECORD
  5
20
100
AcDbSymbolTableRecord
100
AcDbBlockTableRecord
  2
*PAPER_SPACE
  0
BLOCK_RECORD
  5
25
100
AcDbSymbolTableRecord
100
AcDbBlockTableRecord
  2
_NONE
  0
BLOCK_RECORD
  5
29
100
AcDbSymbolTableRecord
100
AcDbBlockTableRecord
  2
_OPEN
  0
BLOCK_RECORD
  5
2F
100
AcDbSymbolTableRecord
100
AcDbBlockTableRecord
  2
_CLOSED
  0
BLOCK_RECORD
  5
36
100
AcDbSymbolTableRecord
100
AcDbBlockTableRecord
  2
_ORIGIN
  0
BLOCK_RECORD
  5
3B
100
AcDbSymbolTableRecord
100
AcDbBlockTableRecord
  2
_DOT
  0
BLOCK_RECORD
  5
43
100
AcDbSymbolTableRecord
100
AcDbBlockTableRecord
  2
_OBLIQUE
  0
ENDTAB
  0
ENDSEC
  0
SECTION
  2
BLOCKS
  0
BLOCK
  5
1E
100
AcDbEntity
  8
0
100
AcDbBlockBegin
  2
*MODEL_SPACE
 70
     0
 10
0.0
 20
0.0
 30
0.0
  3
*MODEL_SPACE
  1

  0
ENDBLK
  5
1F
100
AcDbEntity
  8
0
100
AcDbBlockEnd
  0
BLOCK
  5
21
100
AcDbEntity
 67
     1
  8
0
100
AcDbBlockBegin
  2
*PAPER_SPACE
 70
     0
 10
0.0
 20
0.0
 30
0.0
  3
*PAPER_SPACE
  1

  0
ENDBLK
  5
22
100
AcDbEntity
 67
     1
  8
0
100
AcDbBlockEnd
  0
BLOCK
  5
26
100
AcDbEntity
  8
0
100
AcDbBlockBegin
  2
_NONE
 70
     0
 10
0.0
 20
0.0
  0
CIRCLE
  5
27
100
AcDbEntity
  8
0
 62
     0
370
13
100
AcDbCircle
 10
0.0
 20
0.0
 40
0.25
  0
ENDBLK
  5
28
100
AcDbEntity
  8
0
100
AcDbBlockEnd
  0
BLOCK
  5
2A
100
AcDbEntity
  8
0
100
AcDbBlockBegin
  2
_OPEN
 70
     0
 10
0.0
 20
0.0
  0
LINE
  5
2B
100
AcDbEntity
  8
0
 62
     0
370
13
100
AcDbLine
 10
-0.965926
 20
0.258819
 11
0.0
 21
0.0
  0
LINE
  5
2C
100
AcDbEntity
  8
0
 62
     0
370
13
100
AcDbLine
 10
0.0
 20
0.0
 11
-0.965926
 21
-0.258819
  0
LINE
  5
2D
100
AcDbEntity
  8
0
 62
     0
370
13
100
AcDbLine
 10
0.0
 20
0.0
 11
-1.0
 21
0.0
  0
ENDBLK
  5
2E
100
AcDbEntity
  8
0
100
AcDbBlockEnd
  0
BLOCK
  5
30
100
AcDbEntity
  8
0
100
AcDbBlockBegin
  2
_CLOSED
 70
     0
 10
0.0
 20
0.0
  0
LINE
  5
31
100
AcDbEntity
  8
0
 62
     0
370
13
100
AcDbLine
 10
-0.965926
 20
0.258819
 11
0.0
 21
0.0
  0
LINE
  5
32
100
AcDbEntity
  8
0
 62
     0
370
13
100
AcDbLine
 10
0.0
 20
0.0
 11
-0.965926
 21
-0.258819
  0
LINE
  5
33
100
AcDbEntity
  8
0
 62
     0
370
13
100
AcDbLine
 10
-0.965926
 20
0.258819
 11
-0.965926
 21
-0.258819
  0
LINE
  5
34
100
AcDbEntity
  8
0
 62
     0
370
13
100
AcDbLine
 10
0.0
 20
0.0
 11
-1.0
 21
0.0
  0
ENDBLK
  5
35
100
AcDbEntity
  8
0
100
AcDbBlockEnd
  0
BLOCK
  5
37
100
AcDbEntity
  8
0
100
AcDbBlockBegin
  2
_ORIGIN
 70
     0
 10
0.0
 20
0.0
  0
CIRCLE
  5
38
100
AcDbEntity
  8
0
 62
     0
370
13
100
AcDbCircle
 10
0.0
 20
0.0
 40
0.5
  0
LINE
  5
39
100
AcDbEntity
  8
0
 62
     0
370
13
100
AcDbLine
 10
0.0
 20
0.0
 11
-1.0
 21
0.0
  0
ENDBLK
  5
3A
100
AcDbEntity
  8
0
100
AcDbBlockEnd
  0
BLOCK
  5
3C
100
AcDbEntity
  8
0
100
AcDbBlockBegin
  2
_DOT
 70
     0
 10
0.0
 20
0.0
  0
POLYLINE
  5
3D
100
AcDbEntity
  8
0
 62
     0
100
AcDb2dPolyline
 66
     1
 70
     1
 40
0.5
 41
0.5
  0
VERTEX
  5
3E
100
AcDbEntity
  8
0
 62
     0
100
AcDbVertex
100
AcDb2dVertex
 10
-0.25
 20
0.0
 42
1.0
  0
VERTEX
  5
3F
100
AcDbEntity
  8
0
 62
     0
100
AcDbVertex
100
AcDb2dVertex
 10
0.25
 20
0.0
 42
1.0
  0
SEQEND
  5
40
100
AcDbEntity
  8
0
 62
     0
  0
LINE
  5
41
100
AcDbEntity
  8
0
 62
     0
370
13
100
AcDbLine
 10
-0.5
 20
0.0
 11
-1.0
 21
0.0
  0
ENDBLK
  5
42
100
AcDbEntity
  8
0
100
AcDbBlockEnd
  0
BLOCK
  5
44
100
AcDbEntity
  8
0
100
AcDbBlockBegin
  2
_OBLIQUE
 70
     0
 10
0.0
 20
0.0
  0
LINE
  5
45
100
AcDbEntity
  8
0
 62
     0
370
13
100
AcDbLine
 10
-0.353553
 20
-0.353553
 11
0.353553
 21
0.353553
  0
ENDBLK
  5
46
100
AcDbEntity
  8
0
100
AcDbBlockEnd
  0
ENDSEC
  0
SECTION
  2
ENTITIES
  0
LINE
  5
47
100
AcDbEntity
  8
M0
  6
CONTINUOUS
370
25
100
AcDbLine
 10
408.855685
 20
313.354469
 11
410.756685
 21
315.354469
  0
LINE
  5
48
100
AcDbEntity
  8
M0
  6
CONTINUOUS
370
25
100
AcDbLine
 10
408.855685
 20
315.354469
 11
410.756685
 21
313.354469
  0
LINE
  5
49
100
AcDbEntity
  8
M0
  6
CONTINUOUS
370
25
100
AcDbLine
 10
435.355685
 20
313.354469
 11
437.355685
 21
315.354469
  0
LINE
  5
4A
100
AcDbEntity
  8
M0
  6
CONTINUOUS
370
25
100
AcDbLine
 10
435.355685
 20
315.354469
 11
437.355685
 21
313.354469
  0
LINE
  5
4B
100
AcDbEntity
  8
M0
  6
CONTINUOUS
370
25
100
AcDbLine
 10
437.355685
 20
313.354469
 11
439.355685
 21
315.354469
  0
LINE
  5
4C
100
AcDbEntity
  8
M0
  6
CONTINUOUS
370
25
100
AcDbLine
 10
439.355685
 20
313.354469
 11
437.355685
 21
315.354469
  0
CIRCLE
  5
4D
100
AcDbEntity
  8
M0
  6
CONTINUOUS
370
25
100
AcDbCircle
 10
210.572685
 20
300.854469
 40
76.0
  0
CIRCLE
  5
4E
100
AcDbEntity
  8
M0
  6
CONTINUOUS
370
25
100
AcDbCircle
 10
210.572685
 20
300.854469
 40
66.0
  0
CIRCLE
  5
4F
100
AcDbEntity
  8
M0
  6
CONTINUOUS
370
25
100
AcDbCircle
 10
210.572685
 20
300.854469
 40
35.0
  0
ARC
  5
50
100
AcDbEntity
  8
M0
  6
CONTINUOUS
370
25
100
AcDbCircle
 10
210.572685
 20
300.854469
 40
37.00018
100
AcDbArc
 50
163.002924
 51
196.997076
  0
ARC
  5
51
100
AcDbEntity
  8
M0
  6
CONTINUOUS
370
25
100
AcDbCircle
 10
210.572685
 20
300.854469
 40
37.000707
100
AcDbArc
 50
103.002625
 51
136.996518
  0
ARC
  5
52
100
AcDbEntity
  8
M0
  6
CONTINUOUS
370
25
100
AcDbCircle
 10
210.572685
 20
300.854469
 40
36.999928
100
AcDbArc
 50
223.002349
 51
256.997026
  0
ARC
  5
53
100
AcDbEntity
  8
M0
  6
CONTINUOUS
370
25
100
AcDbCircle
 10
210.572685
 20
300.854469
 40
36.999508
100
AcDbArc
 50
283.001465
 51
316.996595
  0
ARC
  5
54
100
AcDbEntity
  8
M0
  6
CONTINUOUS
370
25
100
AcDbCircle
 10
210.572685
 20
300.854469
 40
36.999224
100
AcDbArc
 50
343.002471
 51
376.997529
  0
ARC
  5
55
100
AcDbEntity
  8
M0
  6
CONTINUOUS
370
25
100
AcDbCircle
 10
210.572685
 20
300.854469
 40
36.999879
100
AcDbArc
 50
43.004538
 51
76.998884
  0
CIRCLE
  5
56
100
AcDbEntity
  8
M0
  6
CONTINUOUS
370
25
100
AcDbCircle
 10
210.572685
 20
300.854469
 40
31.0
  0
CIRCLE
  5
57
100
AcDbEntity
  8
M0
  6
CONTINUOUS
370
25
100
AcDbCircle
 10
210.572685
 20
300.854469
 40
20.0
  0
ARC
  5
58
100
AcDbEntity
  8
M0
  6
CONTINUOUS
370
25
100
AcDbCircle
 10
210.572685
 20
300.854469
 40
7.499936
100
AcDbArc
 50
109.471393
 51
430.528607
  0
LINE
  5
59
100
AcDbEntity
  8
M0
  6
CONTINUOUS
370
25
100
AcDbLine
 10
213.072685
 20
307.925469
 11
213.072685
 21
310.354469
  0
LINE
  5
5A
100
AcDbEntity
  8
M0
  6
CONTINUOUS
370
25
100
AcDbLine
 10
213.072685
 20
310.354469
 11
208.072685
 21
310.354469
  0
LINE
  5
5B
100
AcDbEntity
  8
M0
  6
CONTINUOUS
370
25
100
AcDbLine
 10
208.072685
 20
310.354469
 11
208.072685
 21
307.925469
  0
ARC
  5
5C
100
AcDbEntity
  8
M0
  6
CONTINUOUS
370
25
100
AcDbCircle
 10
210.572685
 20
299.854469
 40
22.50058
100
AcDbArc
 50
101.536657
 51
438.463343
  0
ARC
  5
5D
100
AcDbEntity
  8
M0
  6
CONTINUOUS
370
25
100
AcDbCircle
 10
210.572685
 20
301.854469
 40
29.000262
100
AcDbArc
 50
98.926714
 51
441.073286
  0
LINE
  5
5E
100
AcDbEntity
  8
M0
  6
CONTINUOUS
370
25
100
AcDbLine
 10
206.472685
 20
324.924469
 11
208.672685
 21
324.924469
  0
LINE
  5
5F
100
AcDbEntity
  8
M0
  6
CONTINUOUS
370
25
100
AcDbLine
 10
206.472685
 20
327.911469
 11
208.672685
 21
327.911469
  0
LINE
  5
60
100
AcDbEntity
  8
M0
  6
CONTINUOUS
370
25
100
AcDbLine
 10
209.072685
 20
331.818469
 11
209.072685
 21
328.311469
  0
LINE
  5
61
100
AcDbEntity
  8
M0
  6
CONTINUOUS
370
25
100
AcDbLine
 10
212.072685
 20
331.818469
 11
212.072685
 21
328.311469
  0
LINE
  5
62
100
AcDbEntity
  8
M0
  6
CONTINUOUS
370
25
100
AcDbLine
 10
215.072685
 20
330.503469
 11
215.072685
 21
328.311469
  0
LINE
  5
63
100
AcDbEntity
  8
M0
  6
CONTINUOUS
370
25
100
AcDbLine
 10
206.072685
 20
330.503469
 11
206.072685
 21
328.311469
  0
LINE
  5
64
100
AcDbEntity
  8
M0
  6
CONTINUOUS
370
25
100
AcDbLine
 10
212.472685
 20
324.924469
 11
214.672685
 21
324.924469
  0
LINE
  5
65
100
AcDbEntity
  8
M0
  6
CONTINUOUS
370
25
100
AcDbLine
 10
212.472685
 20
327.911469
 11
214.672685
 21
327.911469
  0
LINE
  5
66
100
AcDbEntity
  8
M0
  6
CONTINUOUS
370
25
100
AcDbLine
 10
206.072685
 20
324.524469
 11
206.072685
 21
321.900469
  0
LINE
  5
67
100
AcDbEntity
  8
M0
  6
CONTINUOUS
370
25
100
AcDbLine
 10
209.072685
 20
324.524469
 11
209.072685
 21
320.798469
  0
LINE
  5
68
100
AcDbEntity
  8
M0
  6
CONTINUOUS
370
25
100
AcDbLine
 10
212.072685
 20
324.524469
 11
212.072685
 21
320.798469
  0
LINE
  5
69
100
AcDbEntity
  8
M0
  6
CONTINUOUS
370
25
100
AcDbLine
 10
215.072685
 20
324.524469
 11
215.072685
 21
321.900469
  0
ARC
  5
6A
100
AcDbEntity
  8
M0
  6
CONTINUOUS
370
25
100
AcDbCircle
 10
214.672685
 20
324.524469
 40
0.4
100
AcDbArc
 50
0.0
 51
90.0
  0
ARC
  5
6B
100
AcDbEntity
  8
M0
  6
CONTINUOUS
370
25
100
AcDbCircle
 10
214.672685
 20
328.311469
 40
0.4
100
AcDbArc
 50
270.0
 51
360.0
  0
ARC
  5
6C
100
AcDbEntity
  8
M0
  6
CONTINUOUS
370
25
100
AcDbCircle
 10
212.472685
 20
324.524469
 40
0.4
100
AcDbArc
 50
90.0
 51
180.0
  0
ARC
  5
6D
100
AcDbEntity
  8
M0
  6
CONTINUOUS
370
25
100
AcDbCircle
 10
212.472685
 20
328.311469
 40
0.4
100
AcDbArc
 50
180.0
 51
270.0
  0
ARC
  5
6E
100
AcDbEntity
  8
M0
  6
CONTINUOUS
370
25
100
AcDbCircle
 10
208.672685
 20
328.311469
 40
0.4
100
AcDbArc
 50
270.0
 51
360.0
  0
ARC
  5
6F
100
AcDbEntity
  8
M0
  6
CONTINUOUS
370
25
100
AcDbCircle
 10
206.472685
 20
328.311469
 40
0.4
100
AcDbArc
 50
180.0
 51
270.0
  0
ARC
  5
70
100
AcDbEntity
  8
M0
  6
CONTINUOUS
370
25
100
AcDbCircle
 10
208.672685
 20
324.524469
 40
0.4
100
AcDbArc
 50
0.0
 51
90.0
  0
ARC
  5
71
100
AcDbEntity
  8
M0
  6
CONTINUOUS
370
25
100
AcDbCircle
 10
206.472685
 20
324.524469
 40
0.4
100
AcDbArc
 50
90.0
 51
180.0
  0
CIRCLE
  5
72
100
AcDbEntity
  8
M0
  6
CONTINUOUS
370
25
100
AcDbCircle
 10
207.611685
 20
323.040469
 40
0.75
  0
CIRCLE
  5
73
100
AcDbEntity
  8
M0
  6
CONTINUOUS
370
25
100
AcDbCircle
 10
207.662685
 20
329.911469
 40
0.75
  0
CIRCLE
  5
74
100
AcDbEntity
  8
M0
  6
CONTINUOUS
370
25
100
AcDbCircle
 10
213.533685
 20
323.040469
 40
0.75
  0
CIRCLE
  5
75
100
AcDbEntity
  8
M0
  6
CONTINUOUS
370
25
100
AcDbCircle
 10
213.481685
 20
329.911469
 40
0.75
  0
ARC
  5
76
100
AcDbEntity
  8
M0
  6
CONTINUOUS
370
25
100
AcDbCircle
 10
200.572685
 20
338.551469
 40
4.000539
100
AcDbArc
 50
284.845619
 51
360.0
  0
ARC
  5
77
100
AcDbEntity
  8
M0
  6
CONTINUOUS
370
25
100
AcDbCircle
 10
220.572685
 20
338.551469
 40
4.0
100
AcDbArc
 50
180.0
 51
255.140538
  0
LINE
  5
78
100
AcDbEntity
  8
M0
  6
CONTINUOUS
370
25
100
AcDbLine
 10
204.572685
 20
363.208469
 11
204.572685
 21
338.551469
  0
LINE
  5
79
100
AcDbEntity
  8
M0
  6
CONTINUOUS
370
25
100
AcDbLine
 10
216.572685
 20
363.208469
 11
216.572685
 21
338.551469
  0
ARC
  5
7A
100
AcDbEntity
  8
M0
  6
CONTINUOUS
370
25
100
AcDbCircle
 10
201.572685
 20
363.208469
 40
3.0
100
AcDbArc
 50
0.0
 51
98.22194
  0
ARC
  5
7B
100
AcDbEntity
  8
M0
  6
CONTINUOUS
370
25
100
AcDbCircle
 10
219.572685
 20
363.208469
 40
2.999691
100
AcDbArc
 50
81.796964
 51
180.0
  0
ARC
  5
7C
100
AcDbEntity
  8
M0
  6
CONTINUOUS
370
25
100
AcDbCircle
 10
210.572685
 20
340.854469
 40
6.0
100
AcDbArc
 50
0.0
 51
180.0
  0
LINE
  5
7D
100
AcDbEntity
  8
M0
  6
CONTINUOUS
370
25
100
AcDbLine
 10
205.572685
 20
363.241469
 11
210.572685
 21
366.128469
  0
LINE
  5
7E
100
AcDbEntity
  8
M0
  6
CONTINUOUS
370
25
100
AcDbLine
 10
205.572685
 20
357.468469
 11
205.572685
 21
363.241469
  0
CIRCLE
  5
7F
100
AcDbEntity
  8
M0
  6
CONTINUOUS
370
25
100
AcDbCircle
 10
210.572685
 20
360.354469
 40
5.0
  0
LINE
  5
80
100
AcDbEntity
  8
M0
  6
CONTINUOUS
370
25
100
AcDbLine
 10
210.572685
 20
354.581469
 11
205.572685
 21
357.468469
  0
LINE
  5
81
100
AcDbEntity
  8
M0
  6
CONTINUOUS
370
25
100
AcDbLine
 10
215.572685
 20
357.468469
 11
210.572685
 21
354.581469
  0
LINE
  5
82
100
AcDbEntity
  8
M0
  6
CONTINUOUS
370
25
100
AcDbLine
 10
215.572685
 20
363.241469
 11
215.572685
 21
357.468469
  0
LINE
  5
83
100
AcDbEntity
  8
M0
  6
CONTINUOUS
370
25
100
AcDbLine
 10
210.572685
 20
366.128469
 11
215.572685
 21
363.241469
  0
ARC
  5
84
100
AcDbEntity
  8
M0
  6
CONTINUOUS
370
25
100
AcDbCircle
 10
172.926685
 20
311.042469
 40
3.999918
100
AcDbArc
 50
344.855437
 51
419.999272
  0
ARC
  5
85
100
AcDbEntity
  8
M0
  6
CONTINUOUS
370
25
100
AcDbCircle
 10
182.926685
 20
328.363469
 40
3.999912
100
AcDbArc
 50
239.999272
 51
315.131668
  0
LINE
  5
86
100
AcDbEntity
  8
M0
  6
CONTINUOUS
370
25
100
AcDbLine
 10
153.572685
 20
326.835469
 11
174.926685
 21
314.506469
  0
LINE
  5
87
100
AcDbEntity
  8
M0
  6
CONTINUOUS
370
25
100
AcDbLine
 10
159.572685
 20
337.227469
 11
180.926685
 21
324.899469
  0
ARC
  5
88
100
AcDbEntity
  8
M0
  6
CONTINUOUS
370
25
100
AcDbCircle
 10
152.072685
 20
324.237469
 40
2.999934
100
AcDbArc
 50
59.999272
 51
158.205682
  0
ARC
  5
89
100
AcDbEntity
  8
M0
  6
CONTINUOUS
370
25
100
AcDbCircle
 10
161.072685
 20
339.826469
 40
3.000198
100
AcDbArc
 50
141.80845
 51
240.008819
  0
ARC
  5
8A
100
AcDbEntity
  8
M0
  6
CONTINUOUS
370
25
100
AcDbCircle
 10
175.931685
 20
320.854469
 40
6.000734
100
AcDbArc
 50
60.004046
 51
239.999272
  0
LINE
  5
8B
100
AcDbEntity
  8
M0
  6
CONTINUOUS
370
25
100
AcDbLine
 10
154.043685
 20
327.718469
 11
154.043685
 21
333.491469
  0
LINE
  5
8C
100
AcDbEntity
  8
M0
  6
CONTINUOUS
370
25
100
AcDbLine
 10
159.043685
 20
324.831469
 11
154.043685
 21
327.718469
  0
CIRCLE
  5
8D
100
AcDbEntity
  8
M0
  6
CONTINUOUS
370
25
100
AcDbCircle
 10
159.043685
 20
330.604469
 40
5.0
  0
LINE
  5
8E
100
AcDbEntity
  8
M0
  6
CONTINUOUS
370
25
100
AcDbLine
 10
164.043685
 20
327.718469
 11
159.043685
 21
324.831469
  0
LINE
  5
8F
100
AcDbEntity
  8
M0
  6
CONTINUOUS
370
25
100
AcDbLine
 10
164.043685
 20
333.491469
 11
164.043685
 21
327.718469
  0
LINE
  5
90
100
AcDbEntity
  8
M0
  6
CONTINUOUS
370
25
100
AcDbLine
 10
159.043685
 20
336.378469
 11
164.043685
 21
333.491469
  0
LINE
  5
91
100
AcDbEntity
  8
M0
  6
CONTINUOUS
370
25
100
AcDbLine
 10
154.043685
 20
333.491469
 11
159.043685
 21
336.378469
  0
ARC
  5
92
100
AcDbEntity
  8
M0
  6
CONTINUOUS
370
25
100
AcDbCircle
 10
182.926685
 20
273.346469
 40
3.999408
100
AcDbArc
 50
44.858179
 51
120.000728
  0
ARC
  5
93
100
AcDbEntity
  8
M0
  6
CONTINUOUS
370
25
100
AcDbCircle
 10
172.926685
 20
290.667469
 40
4.000778
100
AcDbArc
 50
299.993567
 51
375.130735
  0
LINE
  5
94
100
AcDbEntity
  8
M0
  6
CONTINUOUS
370
25
100
AcDbLine
 10
159.572685
 20
264.481469
 11
180.926685
 21
276.810469
  0
LINE
  5
95
100
AcDbEntity
  8
M0
  6
CONTINUOUS
370
25
100
AcDbLine
 10
153.572685
 20
274.874469
 11
174.926685
 21
287.202469
  0
ARC
  5
96
100
AcDbEntity
  8
M0
  6
CONTINUOUS
370
25
100
AcDbCircle
 10
161.072685
 20
261.883469
 40
2.999934
100
AcDbArc
 50
120.000728
 51
218.19155
  0
ARC
  5
97
100
AcDbEntity
  8
M0
  6
CONTINUOUS
370
25
100
AcDbCircle
 10
152.072685
 20
277.472469
 40
3.000465
100
AcDbArc
 50
201.794318
 51
300.000728
  0
ARC
  5
98
100
AcDbEntity
  8
M0
  6
CONTINUOUS
370
25
100
AcDbCircle
 10
175.931685
 20
280.854469
 40
6.000734
100
AcDbArc
 50
119.995954
 51
300.000728
  0
LINE
  5
99
100
AcDbEntity
  8
M0
  6
CONTINUOUS
370
25
100
AcDbLine
 10
159.043685
 20
265.331469
 11
154.043685
 21
268.218469
  0
LINE
  5
9A
100
AcDbEntity
  8
M0
  6
CONTINUOUS
370
25
100
AcDbLine
 10
164.043685
 20
268.218469
 11
159.043685
 21
265.331469
  0
CIRCLE
  5
9B
100
AcDbEntity
  8
M0
  6
CONTINUOUS
370
25
100
AcDbCircle
 10
159.043685
 20
271.104469
 40
5.0
  0
LINE
  5
9C
100
AcDbEntity
  8
M0
  6
CONTINUOUS
370
25
100
AcDbLine
 10
164.043685
 20
273.991469
 11
164.043685
 21
268.218469
  0
LINE
  5
9D
100
AcDbEntity
  8
M0
  6
CONTINUOUS
370
25
100
AcDbLine
 10
159.043685
 20
276.878469
 11
164.043685
 21
273.991469
  0
LINE
  5
9E
100
AcDbEntity
  8
M0
  6
CONTINUOUS
370
25
100
AcDbLine
 10
154.043685
 20
273.991469
 11
159.043685
 21
276.878469
  0
LINE
  5
9F
100
AcDbEntity
  8
M0
  6
CONTINUOUS
370
25
100
AcDbLine
 10
154.043685
 20
268.218469
 11
154.043685
 21
273.991469
  0
ARC
  5
A0
100
AcDbEntity
  8
M0
  6
CONTINUOUS
370
25
100
AcDbCircle
 10
220.572685
 20
263.158469
 40
3.999829
100
AcDbArc
 50
104.863135
 51
180.0
  0
ARC
  5
A1
100
AcDbEntity
  8
M0
  6
CONTINUOUS
370
25
100
AcDbCircle
 10
200.572685
 20
263.158469
 40
4.0
100
AcDbArc
 50
0.0
 51
75.150711
  0
LINE
  5
A2
100
AcDbEntity
  8
M0
  6
CONTINUOUS
370
25
100
AcDbLine
 10
216.572685
 20
238.501469
 11
216.572685
 21
263.158469
  0
LINE
  5
A3
100
AcDbEntity
  8
M0
  6
CONTINUOUS
370
25
100
AcDbLine
 10
204.572685
 20
238.501469
 11
204.572685
 21
263.158469
  0
ARC
  5
A4
100
AcDbEntity
  8
M0
  6
CONTINUOUS
370
25
100
AcDbCircle
 10
219.572685
 20
238.501469
 40
3.0
100
AcDbArc
 50
180.0
 51
278.200311
  0
ARC
  5
A5
100
AcDbEntity
  8
M0
  6
CONTINUOUS
370
25
100
AcDbCircle
 10
201.572685
 20
238.501469
 40
3.000823
100
AcDbArc
 50
261.780791
 51
360.0
  0
ARC
  5
A6
100
AcDbEntity
  8
M0
  6
CONTINUOUS
370
25
100
AcDbCircle
 10
210.572685
 20
260.854469
 40
6.0
100
AcDbArc
 50
180.0
 51
360.0
  0
LINE
  5
A7
100
AcDbEntity
  8
M0
  6
CONTINUOUS
370
25
100
AcDbLine
 10
215.572685
 20
238.468469
 11
210.572685
 21
235.581469
  0
LINE
  5
A8
100
AcDbEntity
  8
M0
  6
CONTINUOUS
370
25
100
AcDbLine
 10
215.572685
 20
244.241469
 11
215.572685
 21
238.468469
  0
CIRCLE
  5
A9
100
AcDbEntity
  8
M0
  6
CONTINUOUS
370
25
100
AcDbCircle
 10
210.572685
 20
241.354469
 40
5.0
  0
LINE
  5
AA
100
AcDbEntity
  8
M0
  6
CONTINUOUS
370
25
100
AcDbLine
 10
210.572685
 20
247.128469
 11
215.572685
 21
244.241469
  0
LINE
  5
AB
100
AcDbEntity
  8
M0
  6
CONTINUOUS
370
25
100
AcDbLine
 10
205.572685
 20
244.241469
 11
210.572685
 21
247.128469
  0
LINE
  5
AC
100
AcDbEntity
  8
M0
  6
CONTINUOUS
370
25
100
AcDbLine
 10
205.572685
 20
238.468469
 11
205.572685
 21
244.241469
  0
LINE
  5
AD
100
AcDbEntity
  8
M0
  6
CONTINUOUS
370
25
100
AcDbLine
 10
210.572685
 20
235.581469
 11
205.572685
 21
238.468469
  0
ARC
  5
AE
100
AcDbEntity
  8
M0
  6
CONTINUOUS
370
25
100
AcDbCircle
 10
248.217685
 20
290.667469
 40
3.999657
100
AcDbArc
 50
164.869265
 51
240.006433
  0
ARC
  5
AF
100
AcDbEntity
  8
M0
  6
CONTINUOUS
370
25
100
AcDbCircle
 10
238.217685
 20
273.346469
 40
3.999912
100
AcDbArc
 50
59.999272
 51
135.141821
  0
LINE
  5
B0
100
AcDbEntity
  8
M0
  6
CONTINUOUS
370
25
100
AcDbLine
 10
267.572685
 20
274.874469
 11
246.217685
 21
287.202469
  0
LINE
  5
B1
100
AcDbEntity
  8
M0
  6
CONTINUOUS
370
25
100
AcDbLine
 10
261.571685
 20
264.481469
 11
240.217685
 21
276.810469
  0
ARC
  5
B2
100
AcDbEntity
  8
M0
  6
CONTINUOUS
370
25
100
AcDbCircle
 10
269.072685
 20
277.472469
 40
2.999934
100
AcDbArc
 50
239.999272
 51
338.198591
  0
ARC
  5
B3
100
AcDbEntity
  8
M0
  6
CONTINUOUS
370
25
100
AcDbCircle
 10
260.071685
 20
261.883469
 40
3.000817
100
AcDbArc
 50
321.793443
 51
419.999272
  0
ARC
  5
B4
100
AcDbEntity
  8
M0
  6
CONTINUOUS
370
25
100
AcDbCircle
 10
245.213685
 20
280.854469
 40
5.999868
100
AcDbArc
 50
239.999272
 51
420.004046
  0
LINE
  5
B5
100
AcDbEntity
  8
M0
  6
CONTINUOUS
370
25
100
AcDbLine
 10
267.100685
 20
273.991469
 11
267.100685
 21
268.218469
  0
LINE
  5
B6
100
AcDbEntity
  8
M0
  6
CONTINUOUS
370
25
100
AcDbLine
 10
262.100685
 20
276.878469
 11
267.100685
 21
273.991469
  0
CIRCLE
  5
B7
100
AcDbEntity
  8
M0
  6
CONTINUOUS
370
25
100
AcDbCircle
 10
262.100685
 20
271.104469
 40
5.0
  0
LINE
  5
B8
100
AcDbEntity
  8
M0
  6
CONTINUOUS
370
25
100
AcDbLine
 10
257.100685
 20
273.991469
 11
262.100685
 21
276.878469
  0
LINE
  5
B9
100
AcDbEntity
  8
M0
  6
CONTINUOUS
370
25
100
AcDbLine
 10
257.100685
 20
268.218469
 11
257.100685
 21
273.991469
  0
LINE
  5
BA
100
AcDbEntity
  8
M0
  6
CONTINUOUS
370
25
100
AcDbLine
 10
262.100685
 20
265.331469
 11
257.100685
 21
268.218469
  0
LINE
  5
BB
100
AcDbEntity
  8
M0
  6
CONTINUOUS
370
25
100
AcDbLine
 10
267.100685
 20
268.218469
 11
262.100685
 21
265.331469
  0
ARC
  5
BC
100
AcDbEntity
  8
M0
  6
CONTINUOUS
370
25
100
AcDbCircle
 10
238.217685
 20
328.363469
 40
4.000114
100
AcDbArc
 50
224.868332
 51
300.000728
  0
ARC
  5
BD
100
AcDbEntity
  8
M0
  6
CONTINUOUS
370
25
100
AcDbCircle
 10
248.217685
 20
311.042469
 40
3.999912
100
AcDbArc
 50
120.000728
 51
195.144563
  0
LINE
  5
BE
100
AcDbEntity
  8
M0
  6
CONTINUOUS
370
25
100
AcDbLine
 10
261.572685
 20
337.227469
 11
240.217685
 21
324.899469
  0
LINE
  5
BF
100
AcDbEntity
  8
M0
  6
CONTINUOUS
370
25
100
AcDbLine
 10
267.572685
 20
326.835469
 11
246.217685
 21
314.506469
  0
ARC
  5
C0
100
AcDbEntity
  8
M0
  6
CONTINUOUS
370
25
100
AcDbCircle
 10
260.072685
 20
339.826469
 40
3.0008
100
AcDbArc
 50
299.991181
 51
398.203361
  0
ARC
  5
C1
100
AcDbEntity
  8
M0
  6
CONTINUOUS
370
25
100
AcDbCircle
 10
269.072685
 20
324.237469
 40
2.999166
100
AcDbArc
 50
21.783672
 51
120.000728
  0
ARC
  5
C2
100
AcDbEntity
  8
M0
  6
CONTINUOUS
370
25
100
AcDbCircle
 10
245.213685
 20
320.854469
 40
5.999868
100
AcDbArc
 50
300.000728
 51
479.995954
  0
LINE
  5
C3
100
AcDbEntity
  8
M0
  6
CONTINUOUS
370
25
100
AcDbLine
 10
262.100685
 20
336.378469
 11
267.100685
 21
333.491469
  0
LINE
  5
C4
100
AcDbEntity
  8
M0
  6
CONTINUOUS
370
25
100
AcDbLine
 10
257.100685
 20
333.491469
 11
262.100685
 21
336.378469
  0
CIRCLE
  5
C5
100
AcDbEntity
  8
M0
  6
CONTINUOUS
370
25
100
AcDbCircle
 10
262.100685
 20
330.604469
 40
5.0
  0
LINE
  5
C6
100
AcDbEntity
  8
M0
  6
CONTINUOUS
370
25
100
AcDbLine
 10
257.100685
 20
327.718469
 11
257.100685
 21
333.491469
  0
LINE
  5
C7
100
AcDbEntity
  8
M0
  6
CONTINUOUS
370
25
100
AcDbLine
 10
262.100685
 20
324.831469
 11
257.100685
 21
327.718469
  0
LINE
  5
C8
100
AcDbEntity
  8
M0
  6
CONTINUOUS
370
25
100
AcDbLine
 10
267.100685
 20
327.718469
 11
262.100685
 21
324.831469
  0
LINE
  5
C9
100
AcDbEntity
  8
M0
  6
CONTINUOUS
370
25
100
AcDbLine
 10
267.100685
 20
333.491469
 11
267.100685
 21
327.718469
  0
ARC
  5
CA
100
AcDbEntity
  8
M0
  6
CONTINUOUS
370
25
100
AcDbCircle
 10
181.319685
 20
328.136469
 40
2.999934
100
AcDbArc
 50
239.999272
 51
316.999135
  0
ARC
  5
CB
100
AcDbEntity
  8
M0
  6
CONTINUOUS
370
25
100
AcDbCircle
 10
201.572685
 20
339.829469
 40
2.999926
100
AcDbArc
 50
283.003206
 51
360.0
  0
ARC
  5
CC
100
AcDbEntity
  8
M0
  6
CONTINUOUS
370
25
100
AcDbCircle
 10
201.572685
 20
349.021469
 40
3.0
100
AcDbArc
 50
0.0
 51
100.583286
  0
ARC
  5
CD
100
AcDbEntity
  8
M0
  6
CONTINUOUS
370
25
100
AcDbCircle
 10
173.358685
 20
332.732469
 40
2.999281
100
AcDbArc
 50
139.421498
 51
239.999272
  0
ARC
  5
CE
100
AcDbEntity
  8
M0
  6
CONTINUOUS
370
25
100
AcDbCircle
 10
210.572685
 20
300.854469
 40
52.000645
100
AcDbArc
 50
100.583647
 51
139.416513
  0
ARC
  5
CF
100
AcDbEntity
  8
M0
  6
CONTINUOUS
370
25
100
AcDbCircle
 10
172.319685
 20
289.161469
 40
2.999934
100
AcDbArc
 50
300.000728
 51
376.997419
  0
ARC
  5
D0
100
AcDbEntity
  8
M0
  6
CONTINUOUS
370
25
100
AcDbCircle
 10
172.319685
 20
312.547469
 40
3.000048
100
AcDbArc
 50
343.002581
 51
419.999272
  0
ARC
  5
D1
100
AcDbEntity
  8
M0
  6
CONTINUOUS
370
25
100
AcDbCircle
 10
164.358685
 20
317.143469
 40
2.999934
100
AcDbArc
 50
59.999272
 51
160.568441
  0
ARC
  5
D2
100
AcDbEntity
  8
M0
  6
CONTINUOUS
370
25
100
AcDbCircle
 10
164.358685
 20
284.565469
 40
2.999542
100
AcDbArc
 50
199.413546
 51
300.000728
  0
ARC
  5
D3
100
AcDbEntity
  8
M0
  6
CONTINUOUS
370
25
100
AcDbCircle
 10
210.572685
 20
300.854469
 40
52.000541
100
AcDbArc
 50
160.583129
 51
199.415832
  0
ARC
  5
D4
100
AcDbEntity
  8
M0
  6
CONTINUOUS
370
25
100
AcDbCircle
 10
201.572685
 20
261.880469
 40
3.0
100
AcDbArc
 50
0.0
 51
76.996794
  0
ARC
  5
D5
100
AcDbEntity
  8
M0
  6
CONTINUOUS
370
25
100
AcDbCircle
 10
181.319685
 20
273.573469
 40
2.999959
100
AcDbArc
 50
43.000865
 51
120.000728
  0
ARC
  5
D6
100
AcDbEntity
  8
M0
  6
CONTINUOUS
370
25
100
AcDbCircle
 10
173.358685
 20
268.977469
 40
2.999934
100
AcDbArc
 50
120.000728
 51
220.593008
  0
ARC
  5
D7
100
AcDbEntity
  8
M0
  6
CONTINUOUS
370
25
100
AcDbCircle
 10
201.572685
 20
252.688469
 40
3.000034
100
AcDbArc
 50
259.416714
 51
360.0
  0
ARC
  5
D8
100
AcDbEntity
  8
M0
  6
CONTINUOUS
370
25
100
AcDbCircle
 10
210.572685
 20
300.854469
 40
52.000186
100
AcDbArc
 50
220.583487
 51
259.416151
  0
ARC
  5
D9
100
AcDbEntity
  8
M0
  6
CONTINUOUS
370
25
100
AcDbCircle
 10
239.824685
 20
273.573469
 40
2.999934
100
AcDbArc
 50
59.999272
 51
136.999135
  0
ARC
  5
DA
100
AcDbEntity
  8
M0
  6
CONTINUOUS
370
25
100
AcDbCircle
 10
219.572685
 20
261.880469
 40
2.999926
100
AcDbArc
 50
103.003206
 51
180.0
  0
ARC
  5
DB
100
AcDbEntity
  8
M0
  6
CONTINUOUS
370
25
100
AcDbCircle
 10
219.572685
 20
252.688469
 40
3.0
100
AcDbArc
 50
180.0
 51
280.583286
  0
ARC
  5
DC
100
AcDbEntity
  8
M0
  6
CONTINUOUS
370
25
100
AcDbCircle
 10
247.785685
 20
268.977469
 40
2.999931
100
AcDbArc
 50
319.406992
 51
419.999272
  0
ARC
  5
DD
100
AcDbEntity
  8
M0
  6
CONTINUOUS
370
25
100
AcDbCircle
 10
210.572685
 20
300.854469
 40
51.999662
100
AcDbArc
 50
280.583849
 51
319.415796
  0
ARC
  5
DE
100
AcDbEntity
  8
M0
  6
CONTINUOUS
370
25
100
AcDbCircle
 10
248.824685
 20
312.547469
 40
2.999934
100
AcDbArc
 50
120.000728
 51
196.997419
  0
ARC
  5
DF
100
AcDbEntity
  8
M0
  6
CONTINUOUS
370
25
100
AcDbCircle
 10
248.824685
 20
289.161469
 40
3.000048
100
AcDbArc
 50
163.002581
 51
239.999272
  0
ARC
  5
E0
100
AcDbEntity
  8
M0
  6
CONTINUOUS
370
25
100
AcDbCircle
 10
256.785685
 20
284.565469
 40
2.999934
100
AcDbArc
 50
239.999272
 51
340.586454
  0
ARC
  5
E1
100
AcDbEntity
  8
M0
  6
CONTINUOUS
370
25
100
AcDbCircle
 10
256.785685
 20
317.143469
 40
2.999874
100
AcDbArc
 50
19.431559
 51
120.000728
  0
ARC
  5
E2
100
AcDbEntity
  8
M0
  6
CONTINUOUS
370
25
100
AcDbCircle
 10
210.572685
 20
300.854469
 40
51.999265
100
AcDbArc
 50
340.583802
 51
379.417237
  0
ARC
  5
E3
100
AcDbEntity
  8
M0
  6
CONTINUOUS
370
25
100
AcDbCircle
 10
219.572685
 20
339.829469
 40
3.001
100
AcDbArc
 50
180.0
 51
256.996794
  0
ARC
  5
E4
100
AcDbEntity
  8
M0
  6
CONTINUOUS
370
25
100
AcDbCircle
 10
239.824685
 20
328.136469
 40
2.999959
100
AcDbArc
 50
223.000865
 51
300.000728
  0
ARC
  5
E5
100
AcDbEntity
  8
M0
  6
CONTINUOUS
370
25
100
AcDbCircle
 10
247.785685
 20
332.732469
 40
2.999934
100
AcDbArc
 50
300.000728
 51
400.578502
  0
ARC
  5
E6
100
AcDbEntity
  8
M0
  6
CONTINUOUS
370
25
100
AcDbCircle
 10
219.572685
 20
349.021469
 40
3.000034
100
AcDbArc
 50
79.416714
 51
180.0
  0
ARC
  5
E7
100
AcDbEntity
  8
M0
  6
CONTINUOUS
370
25
100
AcDbCircle
 10
210.572685
 20
300.854469
 40
51.999426
100
AcDbArc
 50
40.584204
 51
79.416353
  0
LINE
  5
E8
100
AcDbEntity
  8
M0
  6
CONTINUOUS
370
25
100
AcDbLine
 10
382.756685
 20
320.886469
 11
386.961685
 21
325.854469
  0
LINE
  5
E9
100
AcDbEntity
  8
M0
  6
CONTINUOUS
370
25
100
AcDbLine
 10
382.802685
 20
325.854469
 11
386.956685
 21
320.981469
  0
LINE
  5
EA
100
AcDbEntity
  8
M0
  6
CONTINUOUS
370
25
100
AcDbLine
 10
437.355685
 20
315.354469
 11
437.355685
 21
313.354469
  0
LINE
  5
EB
100
AcDbEntity
  8
M0
  6
CONTINUOUS
370
25
100
AcDbLine
 10
359.355685
 20
324.854469
 11
360.855685
 21
324.854469
  0
LINE
  5
EC
100
AcDbEntity
  8
M0
  6
CONTINUOUS
370
25
100
AcDbLine
 10
358.855685
 20
328.354469
 11
360.855685
 21
328.354469
  0
LINE
  5
ED
100
AcDbEntity
  8
M0
  6
CONTINUOUS
370
25
100
AcDbLine
 10
359.355685
 20
320.854469
 11
359.355685
 21
324.854469
  0
LINE
  5
EE
100
AcDbEntity
  8
M0
  6
CONTINUOUS
370
25
100
AcDbLine
 10
358.855685
 20
328.354469
 11
358.855685
 21
331.854469
  0
LINE
  5
EF
100
AcDbEntity
  8
M0
  6
CONTINUOUS
370
25
100
AcDbLine
 10
440.355685
 20
235.854469
 11
443.355685
 21
235.854469
  0
LINE
  5
F0
100
AcDbEntity
  8
M0
  6
CONTINUOUS
370
25
100
AcDbLine
 10
443.355685
 20
235.854469
 11
443.355685
 21
300.854469
  0
LINE
  5
F1
100
AcDbEntity
  8
M0
  6
CONTINUOUS
370
25
100
AcDbLine
 10
443.355685
 20
365.854469
 11
440.355685
 21
365.854469
  0
LINE
  5
F2
100
AcDbEntity
  8
M0
  6
CONTINUOUS
370
25
100
AcDbLine
 10
431.355685
 20
362.854469
 11
431.355685
 21
342.913469
  0
LINE
  5
F3
100
AcDbEntity
  8
M0
  6
CONTINUOUS
370
25
100
AcDbLine
 10
434.355685
 20
239.408469
 11
440.355685
 21
239.408469
  0
LINE
  5
F4
100
AcDbEntity
  8
M0
  6
CONTINUOUS
370
25
100
AcDbLine
 10
434.355685
 20
249.409469
 11
440.355685
 21
249.409469
  0
LINE
  5
F5
100
AcDbEntity
  8
M0
  6
CONTINUOUS
370
25
100
AcDbLine
 10
432.654685
 20
268.305469
 11
438.355685
 21
268.305469
  0
LINE
  5
F6
100
AcDbEntity
  8
M0
  6
CONTINUOUS
370
25
100
AcDbLine
 10
434.355685
 20
283.903469
 11
440.355685
 21
283.903469
  0
LINE
  5
F7
100
AcDbEntity
  8
M0
  6
CONTINUOUS
370
25
100
AcDbLine
 10
432.847685
 20
292.830469
 11
438.355685
 21
292.830469
  0
LINE
  5
F8
100
AcDbEntity
  8
M0
  6
CONTINUOUS
370
25
100
AcDbLine
 10
432.847685
 20
295.813469
 11
438.355685
 21
295.813469
  0
LINE
  5
F9
100
AcDbEntity
  8
M0
  6
CONTINUOUS
370
25
100
AcDbLine
 10
434.355685
 20
298.531469
 11
440.355685
 21
298.531469
  0
LINE
  5
FA
100
AcDbEntity
  8
M0
  6
CONTINUOUS
370
25
100
AcDbLine
 10
440.355685
 20
235.854469
 11
440.355685
 21
300.854469
  0
ARC
  5
FB
100
AcDbEntity
  8
M0
  6
CONTINUOUS
370
25
100
AcDbCircle
 10
434.355685
 20
242.408469
 40
3.0
100
AcDbArc
 50
180.0
 51
270.0
  0
ARC
  5
FC
100
AcDbEntity
  8
M0
  6
CONTINUOUS
370
25
100
AcDbCircle
 10
434.355685
 20
252.409469
 40
3.0
100
AcDbArc
 50
180.0
 51
270.0
  0
ARC
  5
FD
100
AcDbEntity
  8
M0
  6
CONTINUOUS
370
25
100
AcDbCircle
 10
434.355685
 20
295.531469
 40
3.0
100
AcDbArc
 50
90.0
 51
180.0
  0
LINE
  5
FE
100
AcDbEntity
  8
M0
  6
CONTINUOUS
370
25
100
AcDbLine
 10
432.654685
 20
270.903469
 11
438.355685
 21
270.903469
  0
ARC
  5
FF
100
AcDbEntity
  8
M0
  6
CONTINUOUS
370
25
100
AcDbCircle
 10
434.355685
 20
280.903469
 40
3.0
100
AcDbArc
 50
90.0
 51
180.0
  0
ARC
  5
100
100
AcDbEntity
  8
M0
  6
CONTINUOUS
370
25
100
AcDbCircle
 10
432.847685
 20
294.321469
 40
1.492
100
AcDbArc
 50
90.0
 51
270.0
  0
ARC
  5
101
100
AcDbEntity
  8
M0
  6
CONTINUOUS
370
25
100
AcDbCircle
 10
432.654685
 20
269.604469
 40
1.299
100
AcDbArc
 50
90.0
 51
270.0
  0
ARC
  5
102
100
AcDbEntity
  8
M0
  6
CONTINUOUS
370
25
100
AcDbCircle
 10
438.355685
 20
266.305469
 40
2.0
100
AcDbArc
 50
0.0
 51
90.0
  0
ARC
  5
103
100
AcDbEntity
  8
M0
  6
CONTINUOUS
370
25
100
AcDbCircle
 10
438.355685
 20
272.903469
 40
2.0
100
AcDbArc
 50
270.0
 51
360.0
  0
ARC
  5
104
100
AcDbEntity
  8
M0
  6
CONTINUOUS
370
25
100
AcDbCircle
 10
438.355685
 20
290.830469
 40
2.0
100
AcDbArc
 50
0.0
 51
90.0
  0
ARC
  5
105
100
AcDbEntity
  8
M0
  6
CONTINUOUS
370
25
100
AcDbCircle
 10
438.355685
 20
297.813469
 40
2.0
100
AcDbArc
 50
270.0
 51
360.0
  0
LINE
  5
106
100
AcDbEntity
  8
M0
  6
CONTINUOUS
370
25
100
AcDbLine
 10
440.355685
 20
333.354469
 11
443.355685
 21
333.354469
  0
LINE
  5
107
100
AcDbEntity
  8
M0
  6
CONTINUOUS
370
25
100
AcDbLine
 10
433.355685
 20
364.854469
 11
440.355685
 21
364.854469
  0
LINE
  5
108
100
AcDbEntity
  8
M0
  6
CONTINUOUS
370
25
100
AcDbLine
 10
440.355685
 20
335.854469
 11
435.752685
 21
337.131469
  0
ARC
  5
109
100
AcDbEntity
  8
M0
  6
CONTINUOUS
370
25
100
AcDbCircle
 10
437.355685
 20
342.913469
 40
6.0
100
AcDbArc
 50
180.0
 51
254.504514
  0
ARC
  5
10A
100
AcDbEntity
  8
M0
  6
CONTINUOUS
370
25
100
AcDbCircle
 10
433.355685
 20
362.854469
 40
2.0
100
AcDbArc
 50
90.0
 51
180.0
  0
LINE
  5
10B
100
AcDbEntity
  8
M0
  6
CONTINUOUS
370
25
100
AcDbLine
 10
431.355685
 20
295.531469
 11
431.355685
 21
294.300469
  0
LINE
  5
10C
100
AcDbEntity
  8
M0
  6
CONTINUOUS
370
25
100
AcDbLine
 10
440.355685
 20
333.354469
 11
440.355685
 21
365.854469
  0
LINE
  5
10D
100
AcDbEntity
  8
M0
  6
CONTINUOUS
370
25
100
AcDbLine
 10
443.355685
 20
333.354469
 11
443.355685
 21
365.854469
  0
LINE
  5
10E
100
AcDbEntity
  8
M0
  6
CONTINUOUS
370
25
100
AcDbLine
 10
431.355685
 20
280.903469
 11
431.355685
 21
242.408469
  0
LINE
  5
10F
100
AcDbEntity
  8
M0
  6
CONTINUOUS
370
25
100
AcDbLine
 10
451.355685
 20
300.854469
 11
451.355685
 21
310.854469
  0
LINE
  5
110
100
AcDbEntity
  8
M0
  6
CONTINUOUS
370
25
100
AcDbLine
 10
392.355685
 20
330.854469
 11
391.355685
 21
330.854469
  0
LINE
  5
111
100
AcDbEntity
  8
M0
  6
CONTINUOUS
370
25
100
AcDbLine
 10
355.355685
 20
319.854469
 11
355.355685
 21
300.854469
  0
LINE
  5
112
100
AcDbEntity
  8
M0
  6
CONTINUOUS
370
25
100
AcDbLine
 10
391.355685
 20
330.854469
 11
391.355685
 21
322.354469
  0
LINE
  5
113
100
AcDbEntity
  8
M0
  6
CONTINUOUS
370
25
100
AcDbLine
 10
379.655685
 20
323.854469
 11
379.655685
 21
319.854469
  0
LINE
  5
114
100
AcDbEntity
  8
M0
  6
CONTINUOUS
370
25
100
AcDbLine
 10
359.355685
 20
320.854469
 11
359.355685
 21
319.854469
  0
LINE
  5
115
100
AcDbEntity
  8
M0
  6
CONTINUOUS
370
25
100
AcDbLine
 10
377.755685
 20
320.854469
 11
377.755685
 21
319.854469
  0
LINE
  5
116
100
AcDbEntity
  8
M0
  6
CONTINUOUS
370
25
100
AcDbLine
 10
361.255685
 20
320.854469
 11
361.255685
 21
319.854469
  0
LINE
  5
117
100
AcDbEntity
  8
M0
  6
CONTINUOUS
370
25
100
AcDbLine
 10
442.155685
 20
311.154469
 11
442.155685
 21
311.604469
  0
LINE
  5
118
100
AcDbEntity
  8
M0
  6
CONTINUOUS
370
25
100
AcDbLine
 10
440.955685
 20
312.104469
 11
440.955685
 21
313.354469
  0
LINE
  5
119
100
AcDbEntity
  8
M0
  6
CONTINUOUS
370
25
100
AcDbLine
 10
396.855685
 20
314.354469
 11
396.855685
 21
322.354469
  0
LINE
  5
11A
100
AcDbEntity
  8
M0
  6
CONTINUOUS
370
25
100
AcDbLine
 10
392.355685
 20
328.854469
 11
392.355685
 21
330.854469
  0
LINE
  5
11B
100
AcDbEntity
  8
M0
  6
CONTINUOUS
370
25
100
AcDbLine
 10
442.455685
 20
310.854469
 11
451.355685
 21
310.854469
  0
LINE
  5
11C
100
AcDbEntity
  8
M0
  6
CONTINUOUS
370
25
100
AcDbLine
 10
440.955685
 20
312.104469
 11
441.655685
 21
312.104469
  0
LINE
  5
11D
100
AcDbEntity
  8
M0
  6
CONTINUOUS
370
25
100
AcDbLine
 10
397.855685
 20
313.354469
 11
440.955685
 21
313.354469
  0
LINE
  5
11E
100
AcDbEntity
  8
M0
  6
CONTINUOUS
370
25
100
AcDbLine
 10
394.855685
 20
322.354469
 11
396.855685
 21
322.354469
  0
LINE
  5
11F
100
AcDbEntity
  8
M0
  6
CONTINUOUS
370
25
100
AcDbLine
 10
392.355685
 20
328.854469
 11
394.855685
 21
328.854469
  0
LINE
  5
120
100
AcDbEntity
  8
M0
  6
CONTINUOUS
370
25
100
AcDbLine
 10
356.355685
 20
320.854469
 11
359.355685
 21
320.854469
  0
LINE
  5
121
100
AcDbEntity
  8
M0
  6
CONTINUOUS
370
25
100
AcDbLine
 10
377.755685
 20
319.854469
 11
379.655685
 21
319.854469
  0
LINE
  5
122
100
AcDbEntity
  8
M0
  6
CONTINUOUS
370
25
100
AcDbLine
 10
359.355685
 20
319.854469
 11
361.255685
 21
319.854469
  0
ARC
  5
123
100
AcDbEntity
  8
M0
  6
CONTINUOUS
370
25
100
AcDbCircle
 10
442.455685
 20
311.154469
 40
0.3
100
AcDbArc
 50
180.0
 51
270.0
  0
LINE
  5
124
100
AcDbEntity
  8
M0
  6
CONTINUOUS
370
25
100
AcDbLine
 10
441.655685
 20
312.104469
 11
442.155685
 21
311.604469
  0
ARC
  5
125
100
AcDbEntity
  8
M0
  6
CONTINUOUS
370
25
100
AcDbCircle
 10
397.855685
 20
314.354469
 40
1.0
100
AcDbArc
 50
180.0
 51
270.0
  0
ARC
  5
126
100
AcDbEntity
  8
M0
  6
CONTINUOUS
370
25
100
AcDbCircle
 10
389.855685
 20
322.354469
 40
1.5
100
AcDbArc
 50
270.0
 51
360.0
  0
LINE
  5
127
100
AcDbEntity
  8
M0
  6
CONTINUOUS
370
25
100
AcDbLine
 10
356.355685
 20
320.854469
 11
355.355685
 21
319.854469
  0
LINE
  5
128
100
AcDbEntity
  8
M0
  6
CONTINUOUS
370
25
100
AcDbLine
 10
361.255685
 20
320.854469
 11
377.755685
 21
320.854469
  0
LINE
  5
129
100
AcDbEntity
  8
M0
  6
CONTINUOUS
370
25
100
AcDbLine
 10
379.655685
 20
320.854469
 11
389.855685
 21
320.854469
  0
LINE
  5
12A
100
AcDbEntity
  8
M0
  6
CONTINUOUS
370
25
100
AcDbLine
 10
355.355685
 20
308.354469
 11
380.355685
 21
308.354469
  0
LINE
  5
12B
100
AcDbEntity
  8
M0
  6
CONTINUOUS
370
25
100
AcDbLine
 10
355.355685
 20
310.354469
 11
451.355685
 21
310.354469
  0
LINE
  5
12C
100
AcDbEntity
  8
M0
  6
CONTINUOUS
370
25
100
AcDbLine
 10
426.355685
 20
308.104469
 11
426.355685
 21
300.854469
  0
LINE
  5
12D
100
AcDbEntity
  8
M0
  6
CONTINUOUS
370
25
100
AcDbLine
 10
380.355685
 20
308.104469
 11
380.355685
 21
300.854469
  0
LINE
  5
12E
100
AcDbEntity
  8
M0
  6
CONTINUOUS
370
25
100
AcDbLine
 10
380.855685
 20
308.604469
 11
425.855685
 21
308.604469
  0
ARC
  5
12F
100
AcDbEntity
  8
M0
  6
CONTINUOUS
370
25
100
AcDbCircle
 10
425.855685
 20
308.104469
 40
0.5
100
AcDbArc
 50
0.0
 51
90.0
  0
ARC
  5
130
100
AcDbEntity
  8
M0
  6
CONTINUOUS
370
25
100
AcDbCircle
 10
380.855685
 20
308.104469
 40
0.5
100
AcDbArc
 50
90.0
 51
180.0
  0
LINE
  5
131
100
AcDbEntity
  8
M0
  6
CONTINUOUS
370
25
100
AcDbLine
 10
426.355685
 20
308.354469
 11
451.355685
 21
308.354469
  0
LINE
  5
132
100
AcDbEntity
  8
M0
  6
CONTINUOUS
370
25
100
AcDbLine
 10
451.355685
 20
319.354469
 11
451.355685
 21
322.854469
  0
LINE
  5
133
100
AcDbEntity
  8
M0
  6
CONTINUOUS
370
25
100
AcDbLine
 10
446.855685
 20
345.354469
 11
443.355685
 21
345.354469
  0
LINE
  5
134
100
AcDbEntity
  8
M0
  6
CONTINUOUS
370
25
100
AcDbLine
 10
441.355685
 20
324.854469
 11
441.355685
 21
332.854469
  0
LINE
  5
135
100
AcDbEntity
  8
M0
  6
CONTINUOUS
370
25
100
AcDbLine
 10
440.355685
 20
321.354469
 11
440.355685
 21
324.854469
  0
LINE
  5
136
100
AcDbEntity
  8
M0
  6
CONTINUOUS
370
25
100
AcDbLine
 10
447.355685
 20
323.354469
 11
450.855685
 21
323.354469
  0
LINE
  5
137
100
AcDbEntity
  8
M0
  6
CONTINUOUS
370
25
100
AcDbLine
 10
441.855685
 20
333.354469
 11
443.355685
 21
333.354469
  0
LINE
  5
138
100
AcDbEntity
  8
M0
  6
CONTINUOUS
370
25
100
AcDbLine
 10
440.355685
 20
324.854469
 11
441.355685
 21
324.854469
  0
LINE
  5
139
100
AcDbEntity
  8
M0
  6
CONTINUOUS
370
25
100
AcDbLine
 10
409.355685
 20
320.854469
 11
439.855685
 21
320.854469
  0
LINE
  5
13A
100
AcDbEntity
  8
M0
  6
CONTINUOUS
370
25
100
AcDbLine
 10
446.855685
 20
345.354469
 11
447.355685
 21
344.854469
  0
LINE
  5
13B
100
AcDbEntity
  8
M0
  6
CONTINUOUS
370
25
100
AcDbLine
 10
441.855685
 20
333.354469
 11
441.355685
 21
332.854469
  0
ARC
  5
13C
100
AcDbEntity
  8
M0
  6
CONTINUOUS
370
25
100
AcDbCircle
 10
439.855685
 20
321.354469
 40
0.5
100
AcDbArc
 50
270.0
 51
360.0
  0
LINE
  5
13D
100
AcDbEntity
  8
M0
  6
CONTINUOUS
370
25
100
AcDbLine
 10
451.355685
 20
322.854469
 11
450.855685
 21
323.354469
  0
LINE
  5
13E
100
AcDbEntity
  8
M0
  6
CONTINUOUS
370
25
100
AcDbLine
 10
410.756685
 20
315.354469
 11
410.756685
 21
313.354469
  0
LINE
  5
13F
100
AcDbEntity
  8
M0
  6
CONTINUOUS
370
25
100
AcDbLine
 10
435.355685
 20
315.354469
 11
435.355685
 21
313.354469
  0
LINE
  5
140
100
AcDbEntity
  8
M0
  6
CONTINUOUS
370
25
100
AcDbLine
 10
439.355685
 20
315.354469
 11
439.355685
 21
313.354469
  0
LINE
  5
141
100
AcDbEntity
  8
M0
  6
CONTINUOUS
370
25
100
AcDbLine
 10
440.555685
 20
317.604469
 11
440.555685
 21
313.854469
  0
LINE
  5
142
100
AcDbEntity
  8
M0
  6
CONTINUOUS
370
25
100
AcDbLine
 10
442.155685
 20
317.604469
 11
442.155685
 21
319.354469
  0
LINE
  5
143
100
AcDbEntity
  8
M0
  6
CONTINUOUS
370
25
100
AcDbLine
 10
442.155685
 20
319.354469
 11
451.355685
 21
319.354469
  0
LINE
  5
144
100
AcDbEntity
  8
M0
  6
CONTINUOUS
370
25
100
AcDbLine
 10
439.355685
 20
313.854469
 11
440.555685
 21
313.854469
  0
LINE
  5
145
100
AcDbEntity
  8
M0
  6
CONTINUOUS
370
25
100
AcDbLine
 10
440.555685
 20
317.604469
 11
442.155685
 21
317.604469
  0
LINE
  5
146
100
AcDbEntity
  8
M0
  6
CONTINUOUS
370
25
100
AcDbLine
 10
410.756685
 20
313.854469
 11
435.355685
 21
313.854469
  0
LINE
  5
147
100
AcDbEntity
  8
M0
  6
CONTINUOUS
370
25
100
AcDbLine
 10
435.355685
 20
315.354469
 11
439.355685
 21
315.354469
  0
LINE
  5
148
100
AcDbEntity
  8
M0
  6
CONTINUOUS
370
25
100
AcDbLine
 10
408.855685
 20
315.354469
 11
410.756685
 21
315.354469
  0
LINE
  5
149
100
AcDbEntity
  8
M0
  6
CONTINUOUS
370
25
100
AcDbLine
 10
447.356685
 20
323.354469
 11
447.355685
 21
344.854469
  0
LINE
  5
14A
100
AcDbEntity
  8
M0
  6
CONTINUOUS
370
25
100
AcDbLine
 10
446.855685
 20
256.354469
 11
443.355685
 21
256.354469
  0
LINE
  5
14B
100
AcDbEntity
  8
M0
  6
CONTINUOUS
370
25
100
AcDbLine
 10
446.855685
 20
256.354469
 11
447.355685
 21
256.854469
  0
LINE
  5
14C
100
AcDbEntity
  8
M0
  6
CONTINUOUS
370
25
100
AcDbLine
 10
447.356685
 20
300.854469
 11
447.355685
 21
256.854469
  0
LINE
  5
14D
100
AcDbEntity
  8
M0
  6
CONTINUOUS
370
25
100
AcDbLine
 10
447.355685
 20
278.354469
 11
450.855685
 21
278.354469
  0
LINE
  5
14E
100
AcDbEntity
  8
M0
  6
CONTINUOUS
370
25
100
AcDbLine
 10
451.355685
 20
278.854469
 11
450.855685
 21
278.354469
  0
LINE
  5
14F
100
AcDbEntity
  8
M0
  6
CONTINUOUS
370
25
100
AcDbLine
 10
451.356685
 20
301.865469
 11
451.355685
 21
278.854469
  0
LINE
  5
150
100
AcDbEntity
  8
M0
  6
CONTINUOUS
370
25
100
AcDbLine
 10
440.355685
 20
321.854469
 11
440.355685
 21
330.854469
  0
LINE
  5
151
100
AcDbEntity
  8
M0
  6
CONTINUOUS
370
25
100
AcDbLine
 10
439.355685
 20
331.854469
 11
429.355685
 21
331.854469
  0
LINE
  5
152
100
AcDbEntity
  8
M0
  6
CONTINUOUS
370
25
100
AcDbLine
 10
428.355685
 20
330.854469
 11
428.355685
 21
320.854469
  0
CIRCLE
  5
153
100
AcDbEntity
  8
M0
  6
CONTINUOUS
370
25
100
AcDbCircle
 10
434.355685
 20
326.354469
 40
3.667
  0
LINE
  5
154
100
AcDbEntity
  8
M0
  6
CONTINUOUS
370
25
100
AcDbLine
 10
428.355685
 20
324.521469
 11
431.180685
 21
324.521469
  0
LINE
  5
155
100
AcDbEntity
  8
M0
  6
CONTINUOUS
370
25
100
AcDbLine
 10
440.355685
 20
328.188469
 11
437.531685
 21
328.188469
  0
LINE
  5
156
100
AcDbEntity
  8
M0
  6
CONTINUOUS
370
25
100
AcDbLine
 10
439.189685
 20
322.688469
 11
439.189685
 21
330.021469
  0
LINE
  5
157
100
AcDbEntity
  8
M0
  6
CONTINUOUS
370
25
100
AcDbLine
 10
429.522685
 20
330.021469
 11
429.522685
 21
322.688469
  0
LINE
  5
158
100
AcDbEntity
  8
M0
  6
CONTINUOUS
370
25
100
AcDbLine
 10
431.180685
 20
328.188469
 11
428.355685
 21
328.188469
  0
LINE
  5
159
100
AcDbEntity
  8
M0
  6
CONTINUOUS
370
25
100
AcDbLine
 10
437.531685
 20
324.521469
 11
440.355685
 21
324.521469
  0
ARC
  5
15A
100
AcDbEntity
  8
M0
  6
CONTINUOUS
370
25
100
AcDbCircle
 10
439.355685
 20
330.854469
 40
1.0
100
AcDbArc
 50
0.0
 51
90.0
  0
ARC
  5
15B
100
AcDbEntity
  8
M0
  6
CONTINUOUS
370
25
100
AcDbCircle
 10
429.355685
 20
330.854469
 40
1.0
100
AcDbArc
 50
90.0
 51
180.0
  0
ARC
  5
15C
100
AcDbEntity
  8
M0
  6
CONTINUOUS
370
25
100
AcDbCircle
 10
429.355685
 20
321.854469
 40
1.0
100
AcDbArc
 50
180.0
 51
270.0
  0
ARC
  5
15D
100
AcDbEntity
  8
M0
  6
CONTINUOUS
370
25
100
AcDbCircle
 10
439.355685
 20
321.854469
 40
1.0
100
AcDbArc
 50
270.0
 51
360.0
  0
LINE
  5
15E
100
AcDbEntity
  8
M0
  6
CONTINUOUS
370
25
100
AcDbLine
 10
442.655685
 20
310.854469
 11
450.655685
 21
310.854469
  0
LINE
  5
15F
100
AcDbEntity
  8
M0
  6
CONTINUOUS
370
25
100
AcDbLine
 10
451.155685
 20
311.354469
 11
451.155685
 21
318.854469
  0
LINE
  5
160
100
AcDbEntity
  8
M0
  6
CONTINUOUS
370
25
100
AcDbLine
 10
450.655685
 20
319.354469
 11
442.655685
 21
319.354469
  0
LINE
  5
161
100
AcDbEntity
  8
M0
  6
CONTINUOUS
370
25
100
AcDbLine
 10
442.155685
 20
318.854469
 11
442.155685
 21
311.354469
  0
CIRCLE
  5
162
100
AcDbEntity
  8
M0
  6
CONTINUOUS
370
25
100
AcDbCircle
 10
446.655685
 20
315.104469
 40
2.833
  0
LINE
  5
163
100
AcDbEntity
  8
M0
  6
CONTINUOUS
370
25
100
AcDbLine
 10
442.155685
 20
313.688469
 11
444.201685
 21
313.688469
  0
LINE
  5
164
100
AcDbEntity
  8
M0
  6
CONTINUOUS
370
25
100
AcDbLine
 10
451.155685
 20
316.521469
 11
449.109685
 21
316.521469
  0
LINE
  5
165
100
AcDbEntity
  8
M0
  6
CONTINUOUS
370
25
100
AcDbLine
 10
450.321685
 20
312.271469
 11
450.321685
 21
317.938469
  0
LINE
  5
166
100
AcDbEntity
  8
M0
  6
CONTINUOUS
370
25
100
AcDbLine
 10
443.138685
 20
317.938469
 11
443.138685
 21
312.271469
  0
LINE
  5
167
100
AcDbEntity
  8
M0
  6
CONTINUOUS
370
25
100
AcDbLine
 10
444.201685
 20
316.521469
 11
442.155685
 21
316.521469
  0
LINE
  5
168
100
AcDbEntity
  8
M0
  6
CONTINUOUS
370
25
100
AcDbLine
 10
449.109685
 20
313.688469
 11
451.155685
 21
313.688469
  0
ARC
  5
169
100
AcDbEntity
  8
M0
  6
CONTINUOUS
370
25
100
AcDbCircle
 10
450.655685
 20
318.854469
 40
0.5
100
AcDbArc
 50
0.0
 51
90.0
  0
ARC
  5
16A
100
AcDbEntity
  8
M0
  6
CONTINUOUS
370
25
100
AcDbCircle
 10
442.655685
 20
318.854469
 40
0.5
100
AcDbArc
 50
90.0
 51
180.0
  0
ARC
  5
16B
100
AcDbEntity
  8
M0
  6
CONTINUOUS
370
25
100
AcDbCircle
 10
442.655685
 20
311.354469
 40
0.5
100
AcDbArc
 50
180.0
 51
270.0
  0
ARC
  5
16C
100
AcDbEntity
  8
M0
  6
CONTINUOUS
370
25
100
AcDbCircle
 10
450.655685
 20
311.354469
 40
0.5
100
AcDbArc
 50
270.0
 51
360.0
  0
LINE
  5
16D
100
AcDbEntity
  8
M0
  6
CONTINUOUS
370
25
100
AcDbLine
 10
416.556685
 20
335.854469
 11
416.556685
 21
349.854469
  0
LINE
  5
16E
100
AcDbEntity
  8
M0
  6
CONTINUOUS
370
25
100
AcDbLine
 10
416.556685
 20
349.854469
 11
372.855685
 21
349.854469
  0
LINE
  5
16F
100
AcDbEntity
  8
M0
  6
CONTINUOUS
370
25
100
AcDbLine
 10
413.355685
 20
343.904469
 11
413.355685
 21
349.854469
  0
LINE
  5
170
100
AcDbEntity
  8
M0
  6
CONTINUOUS
370
25
100
AcDbLine
 10
410.855685
 20
320.854469
 11
410.855685
 21
330.854469
  0
LINE
  5
171
100
AcDbEntity
  8
M0
  6
CONTINUOUS
370
25
100
AcDbLine
 10
408.855685
 20
313.354469
 11
408.855685
 21
320.854469
  0
LINE
  5
172
100
AcDbEntity
  8
M0
  6
CONTINUOUS
370
25
100
AcDbLine
 10
408.855685
 20
320.854469
 11
410.855685
 21
320.854469
  0
LINE
  5
173
100
AcDbEntity
  8
M0
  6
CONTINUOUS
370
25
100
AcDbLine
 10
406.556685
 20
313.854469
 11
408.155685
 21
313.854469
  0
LINE
  5
174
100
AcDbEntity
  8
M0
  6
CONTINUOUS
370
25
100
AcDbLine
 10
410.855685
 20
330.854469
 11
416.556685
 21
335.854469
  0
LINE
  5
175
100
AcDbEntity
  8
M0
  6
CONTINUOUS
370
25
100
AcDbLine
 10
400.855685
 20
332.854469
 11
405.855685
 21
327.854469
  0
LINE
  5
176
100
AcDbEntity
  8
M0
  6
CONTINUOUS
370
25
100
AcDbLine
 10
402.270685
 20
334.269469
 11
403.698685
 21
332.840469
  0
LINE
  5
177
100
AcDbEntity
  8
M0
  6
CONTINUOUS
370
25
100
AcDbLine
 10
402.270685
 20
334.269469
 11
400.855685
 21
332.854469
  0
LINE
  5
178
100
AcDbEntity
  8
M0
  6
CONTINUOUS
370
25
100
AcDbLine
 10
405.855685
 20
327.854469
 11
405.855685
 21
314.054469
  0
LINE
  5
179
100
AcDbEntity
  8
M0
  6
CONTINUOUS
370
25
100
AcDbLine
 10
410.855685
 20
335.854469
 11
407.976685
 21
332.876469
  0
ARC
  5
17A
100
AcDbEntity
  8
M0
  6
CONTINUOUS
370
25
100
AcDbCircle
 10
405.819685
 20
334.961469
 40
2.999547
100
AcDbArc
 50
225.0
 51
315.972395
  0
LINE
  5
17B
100
AcDbEntity
  8
M0
  6
CONTINUOUS
370
25
100
AcDbLine
 10
410.855685
 20
335.854469
 11
410.855685
 21
343.904469
  0
LINE
  5
17C
100
AcDbEntity
  8
M0
  6
CONTINUOUS
370
25
100
AcDbLine
 10
405.855685
 20
314.554469
 11
406.556685
 21
313.854469
  0
LINE
  5
17D
100
AcDbEntity
  8
M0
  6
CONTINUOUS
370
25
100
AcDbLine
 10
408.155685
 20
313.854469
 11
408.855685
 21
314.554469
  0
LINE
  5
17E
100
AcDbEntity
  8
M0
  6
CONTINUOUS
370
25
100
AcDbLine
 10
413.355685
 20
344.404469
 11
413.355685
 21
345.354469
  0
LINE
  5
17F
100
AcDbEntity
  8
M0
  6
CONTINUOUS
370
25
100
AcDbLine
 10
372.855685
 20
339.489469
 11
372.855685
 21
349.854469
  0
LINE
  5
180
100
AcDbEntity
  8
M0
  6
CONTINUOUS
370
25
100
AcDbLine
 10
379.355685
 20
343.904469
 11
379.355685
 21
349.854469
  0
LINE
  5
181
100
AcDbEntity
  8
M0
  6
CONTINUOUS
370
25
100
AcDbLine
 10
381.855685
 20
321.854469
 11
381.855685
 21
330.854469
  0
LINE
  5
182
100
AcDbEntity
  8
M0
  6
CONTINUOUS
370
25
100
AcDbLine
 10
382.756685
 20
320.854469
 11
382.756685
 21
325.854469
  0
LINE
  5
183
100
AcDbEntity
  8
M0
  6
CONTINUOUS
370
25
100
AcDbLine
 10
386.956685
 20
320.854469
 11
386.956685
 21
325.854469
  0
LINE
  5
184
100
AcDbEntity
  8
M0
  6
CONTINUOUS
370
25
100
AcDbLine
 10
387.855685
 20
321.854469
 11
387.855685
 21
330.854469
  0
LINE
  5
185
100
AcDbEntity
  8
M0
  6
CONTINUOUS
370
25
100
AcDbLine
 10
387.855685
 20
321.854469
 11
386.956685
 21
321.854469
  0
LINE
  5
186
100
AcDbEntity
  8
M0
  6
CONTINUOUS
370
25
100
AcDbLine
 10
373.554685
 20
337.970469
 11
381.855685
 21
330.854469
  0
LINE
  5
187
100
AcDbEntity
  8
M0
  6
CONTINUOUS
370
25
100
AcDbLine
 10
386.956685
 20
325.854469
 11
382.756685
 21
325.854469
  0
LINE
  5
188
100
AcDbEntity
  8
M0
  6
CONTINUOUS
370
25
100
AcDbLine
 10
413.355685
 20
343.904469
 11
379.355685
 21
343.904469
  0
LINE
  5
189
100
AcDbEntity
  8
M0
  6
CONTINUOUS
370
25
100
AcDbLine
 10
391.855685
 20
334.854469
 11
387.855685
 21
330.854469
  0
LINE
  5
18A
100
AcDbEntity
  8
M0
  6
CONTINUOUS
370
25
100
AcDbLine
 10
389.027685
 20
334.854469
 11
387.355685
 21
333.183469
  0
LINE
  5
18B
100
AcDbEntity
  8
M0
  6
CONTINUOUS
370
25
100
AcDbLine
 10
391.855685
 20
334.854469
 11
389.027685
 21
334.854469
  0
LINE
  5
18C
100
AcDbEntity
  8
M0
  6
CONTINUOUS
370
25
100
AcDbLine
 10
381.855685
 20
335.854469
 11
384.527685
 21
333.183469
  0
ARC
  5
18D
100
AcDbEntity
  8
M0
  6
CONTINUOUS
370
25
100
AcDbCircle
 10
385.941685
 20
334.597469
 40
1.999698
100
AcDbArc
 50
225.0
 51
315.0
  0
LINE
  5
18E
100
AcDbEntity
  8
M0
  6
CONTINUOUS
370
25
100
AcDbLine
 10
381.855685
 20
335.854469
 11
381.855685
 21
343.904469
  0
LINE
  5
18F
100
AcDbEntity
  8
M0
  6
CONTINUOUS
370
25
100
AcDbLine
 10
382.756685
 20
321.854469
 11
381.855685
 21
321.854469
  0
ARC
  5
190
100
AcDbEntity
  8
M0
  6
CONTINUOUS
370
25
100
AcDbCircle
 10
374.855685
 20
339.489469
 40
2.0
100
AcDbArc
 50
180.0
 51
229.420457
  0
LINE
  5
191
100
AcDbEntity
  8
M0
  6
CONTINUOUS
370
25
100
AcDbLine
 10
408.355685
 20
341.890469
 11
408.355685
 21
342.354469
  0
LINE
  5
192
100
AcDbEntity
  8
M0
  6
CONTINUOUS
370
25
100
AcDbLine
 10
407.355685
 20
343.354469
 11
385.355685
 21
343.354469
  0
LINE
  5
193
100
AcDbEntity
  8
M0
  6
CONTINUOUS
370
25
100
AcDbLine
 10
384.355685
 20
342.354469
 11
384.355685
 21
341.890469
  0
LINE
  5
194
100
AcDbEntity
  8
M0
  6
CONTINUOUS
370
25
100
AcDbLine
 10
384.800685
 20
341.058469
 11
394.187685
 21
334.800469
  0
LINE
  5
195
100
AcDbEntity
  8
M0
  6
CONTINUOUS
370
25
100
AcDbLine
 10
407.910685
 20
341.058469
 11
398.523685
 21
334.800469
  0
ARC
  5
196
100
AcDbEntity
  8
M0
  6
CONTINUOUS
370
25
100
AcDbCircle
 10
399.355685
 20
333.552469
 40
1.499909
100
AcDbArc
 50
123.690068
 51
180.0
  0
ARC
  5
197
100
AcDbEntity
  8
M0
  6
CONTINUOUS
370
25
100
AcDbCircle
 10
393.355685
 20
333.552469
 40
1.5
100
AcDbArc
 50
0.0
 51
56.309932
  0
ARC
  5
198
100
AcDbEntity
  8
M0
  6
CONTINUOUS
370
25
100
AcDbCircle
 10
407.355685
 20
341.890469
 40
1.000124
100
AcDbArc
 50
303.705957
 51
360.0
  0
ARC
  5
199
100
AcDbEntity
  8
M0
  6
CONTINUOUS
370
25
100
AcDbCircle
 10
407.355685
 20
342.354469
 40
1.0
100
AcDbArc
 50
0.0
 51
90.0
  0
ARC
  5
19A
100
AcDbEntity
  8
M0
  6
CONTINUOUS
370
25
100
AcDbCircle
 10
385.355685
 20
342.354469
 40
1.0
100
AcDbArc
 50
90.0
 51
180.0
  0
ARC
  5
19B
100
AcDbEntity
  8
M0
  6
CONTINUOUS
370
25
100
AcDbCircle
 10
385.355685
 20
341.890469
 40
1.0
100
AcDbArc
 50
180.0
 51
236.294043
  0
LINE
  5
19C
100
AcDbEntity
  8
M0
  6
CONTINUOUS
370
25
100
AcDbLine
 10
395.355685
 20
322.354469
 11
397.355685
 21
322.354469
  0
LINE
  5
19D
100
AcDbEntity
  8
M0
  6
CONTINUOUS
370
25
100
AcDbLine
 10
397.355685
 20
322.354469
 11
397.855685
 21
322.854469
  0
LINE
  5
19E
100
AcDbEntity
  8
M0
  6
CONTINUOUS
370
25
100
AcDbLine
 10
438.855685
 20
331.854469
 11
438.855685
 21
333.354469
  0
LINE
  5
19F
100
AcDbEntity
  8
M0
  6
CONTINUOUS
370
25
100
AcDbLine
 10
424.855685
 20
366.854469
 11
417.355685
 21
366.854469
  0
LINE
  5
1A0
100
AcDbEntity
  8
M0
  6
CONTINUOUS
370
25
100
AcDbLine
 10
417.355685
 20
366.854469
 11
417.355685
 21
364.854469
  0
LINE
  5
1A1
100
AcDbEntity
  8
M0
  6
CONTINUOUS
370
25
100
AcDbLine
 10
417.355685
 20
364.854469
 11
418.855685
 21
364.854469
  0
LINE
  5
1A2
100
AcDbEntity
  8
M0
  6
CONTINUOUS
370
25
100
AcDbLine
 10
417.355685
 20
331.854469
 11
426.155685
 21
331.854469
  0
LINE
  5
1A3
100
AcDbEntity
  8
M0
  6
CONTINUOUS
370
25
100
AcDbLine
 10
420.855685
 20
350.854469
 11
420.855685
 21
339.011469
  0
LINE
  5
1A4
100
AcDbEntity
  8
M0
  6
CONTINUOUS
370
25
100
AcDbLine
 10
417.355685
 20
333.854469
 11
419.684685
 21
336.183469
  0
ARC
  5
1A5
100
AcDbEntity
  8
M0
  6
CONTINUOUS
370
25
100
AcDbCircle
 10
418.855685
 20
350.854469
 40
2.0
100
AcDbArc
 50
0.0
 51
90.0
  0
ARC
  5
1A6
100
AcDbEntity
  8
M0
  6
CONTINUOUS
370
25
100
AcDbCircle
 10
416.855685
 20
339.011469
 40
4.000103
100
AcDbArc
 50
315.010128
 51
360.0
  0
LINE
  5
1A7
100
AcDbEntity
  8
M0
  6
CONTINUOUS
370
25
100
AcDbLine
 10
426.155685
 20
333.354469
 11
428.355685
 21
333.354469
  0
LINE
  5
1A8
100
AcDbEntity
  8
M0
  6
CONTINUOUS
370
25
100
AcDbLine
 10
424.855685
 20
366.854469
 11
424.855685
 21
341.453469
  0
LINE
  5
1A9
100
AcDbEntity
  8
M0
  6
CONTINUOUS
370
25
100
AcDbLine
 10
428.875685
 20
336.550469
 11
437.355685
 21
334.854469
  0
LINE
  5
1AA
100
AcDbEntity
  8
M0
  6
CONTINUOUS
370
25
100
AcDbLine
 10
438.855685
 20
333.354469
 11
437.355685
 21
334.854469
  0
ARC
  5
1AB
100
AcDbEntity
  8
M0
  6
CONTINUOUS
370
25
100
AcDbCircle
 10
429.855685
 20
341.453469
 40
5.0
100
AcDbArc
 50
180.0
 51
258.69681
  0
LINE
  5
1AC
100
AcDbEntity
  8
M0
  6
CONTINUOUS
370
25
100
AcDbLine
 10
426.155685
 20
333.354469
 11
426.155685
 21
330.955469
  0
LINE
  5
1AD
100
AcDbEntity
  8
M0
  6
CONTINUOUS
370
25
100
AcDbLine
 10
428.355685
 20
333.354469
 11
428.355685
 21
330.875469
  0
LINE
  5
1AE
100
AcDbEntity
  8
M0
  6
CONTINUOUS
370
25
100
AcDbLine
 10
428.355685
 20
331.854469
 11
438.855685
 21
331.854469
  0
LINE
  5
1AF
100
AcDbEntity
  8
M0
  6
CONTINUOUS
370
25
100
AcDbLine
 10
417.355685
 20
333.854469
 11
417.355685
 21
331.854469
  0
LINE
  5
1B0
100
AcDbEntity
  8
M0
  6
CONTINUOUS
370
25
100
AcDbLine
 10
414.155685
 20
320.854469
 11
414.155685
 21
330.854469
  0
LINE
  5
1B1
100
AcDbEntity
  8
M0
  6
CONTINUOUS
370
25
100
AcDbLine
 10
415.155685
 20
331.854469
 11
425.155685
 21
331.854469
  0
LINE
  5
1B2
100
AcDbEntity
  8
M0
  6
CONTINUOUS
370
25
100
AcDbLine
 10
426.155685
 20
330.854469
 11
426.155685
 21
320.854469
  0
CIRCLE
  5
1B3
100
AcDbEntity
  8
M0
  6
CONTINUOUS
370
25
100
AcDbCircle
 10
420.155685
 20
326.354469
 40
3.667
  0
LINE
  5
1B4
100
AcDbEntity
  8
M0
  6
CONTINUOUS
370
25
100
AcDbLine
 10
426.155685
 20
324.521469
 11
423.330685
 21
324.521469
  0
LINE
  5
1B5
100
AcDbEntity
  8
M0
  6
CONTINUOUS
370
25
100
AcDbLine
 10
414.155685
 20
328.188469
 11
416.980685
 21
328.188469
  0
LINE
  5
1B6
100
AcDbEntity
  8
M0
  6
CONTINUOUS
370
25
100
AcDbLine
 10
415.322685
 20
322.688469
 11
415.322685
 21
330.021469
  0
LINE
  5
1B7
100
AcDbEntity
  8
M0
  6
CONTINUOUS
370
25
100
AcDbLine
 10
424.988685
 20
330.021469
 11
424.988685
 21
322.688469
  0
LINE
  5
1B8
100
AcDbEntity
  8
M0
  6
CONTINUOUS
370
25
100
AcDbLine
 10
423.330685
 20
328.188469
 11
426.155685
 21
328.188469
  0
LINE
  5
1B9
100
AcDbEntity
  8
M0
  6
CONTINUOUS
370
25
100
AcDbLine
 10
416.980685
 20
324.521469
 11
414.155685
 21
324.521469
  0
ARC
  5
1BA
100
AcDbEntity
  8
M0
  6
CONTINUOUS
370
25
100
AcDbCircle
 10
415.155685
 20
330.854469
 40
1.0
100
AcDbArc
 50
90.0
 51
180.0
  0
ARC
  5
1BB
100
AcDbEntity
  8
M0
  6
CONTINUOUS
370
25
100
AcDbCircle
 10
425.155685
 20
330.854469
 40
1.0
100
AcDbArc
 50
0.0
 51
90.0
  0
ARC
  5
1BC
100
AcDbEntity
  8
M0
  6
CONTINUOUS
370
25
100
AcDbCircle
 10
425.155685
 20
321.854469
 40
1.0
100
AcDbArc
 50
270.0
 51
360.0
  0
ARC
  5
1BD
100
AcDbEntity
  8
M0
  6
CONTINUOUS
370
25
100
AcDbCircle
 10
415.155685
 20
321.854469
 40
1.0
100
AcDbArc
 50
180.0
 51
270.0
  0
LINE
  5
1BE
100
AcDbEntity
  8
M0
  6
CONTINUOUS
370
25
100
AcDbLine
 10
416.855685
 20
364.854469
 11
418.855685
 21
364.854469
  0
LINE
  5
1BF
100
AcDbEntity
  8
M0
  6
CONTINUOUS
370
25
100
AcDbLine
 10
416.855685
 20
375.854469
 11
416.855685
 21
364.854469
  0
LINE
  5
1C0
100
AcDbEntity
  8
M0
  6
CONTINUOUS
370
25
100
AcDbLine
 10
416.855685
 20
375.854469
 11
415.855685
 21
376.854469
  0
LINE
  5
1C1
100
AcDbEntity
  8
M0
  6
CONTINUOUS
370
25
100
AcDbLine
 10
414.355685
 20
351.334469
 11
418.855685
 21
354.354469
  0
LINE
  5
1C2
100
AcDbEntity
  8
M0
  6
CONTINUOUS
370
25
100
AcDbLine
 10
426.155685
 20
324.854469
 11
428.355685
 21
324.854469
  0
LINE
  5
1C3
100
AcDbEntity
  8
M0
  6
CONTINUOUS
370
25
100
AcDbLine
 10
410.855685
 20
325.854469
 11
414.155685
 21
325.854469
  0
LINE
  5
1C4
100
AcDbEntity
  8
M0
  6
CONTINUOUS
370
25
100
AcDbLine
 10
418.855685
 20
352.854469
 11
418.855685
 21
364.854469
  0
LINE
  5
1C5
100
AcDbEntity
  8
M0
  6
CONTINUOUS
370
25
100
AcDbLine
 10
375.855685
 20
376.854469
 11
415.855685
 21
376.854469
  0
LINE
  5
1C6
100
AcDbEntity
  8
M0
  6
CONTINUOUS
370
25
100
AcDbLine
 10
374.855685
 20
364.854469
 11
372.855685
 21
364.854469
  0
LINE
  5
1C7
100
AcDbEntity
  8
M0
  6
CONTINUOUS
370
25
100
AcDbLine
 10
414.355685
 20
351.334469
 11
377.355685
 21
351.334469
  0
LINE
  5
1C8
100
AcDbEntity
  8
M0
  6
CONTINUOUS
370
25
100
AcDbLine
 10
374.855685
 20
375.854469
 11
374.855685
 21
364.854469
  0
LINE
  5
1C9
100
AcDbEntity
  8
M0
  6
CONTINUOUS
370
25
100
AcDbLine
 10
374.855685
 20
375.854469
 11
375.855685
 21
376.854469
  0
LINE
  5
1CA
100
AcDbEntity
  8
M0
  6
CONTINUOUS
370
25
100
AcDbLine
 10
377.355685
 20
351.334469
 11
372.855685
 21
354.354469
  0
LINE
  5
1CB
100
AcDbEntity
  8
M0
  6
CONTINUOUS
370
25
100
AcDbLine
 10
374.355685
 20
329.854469
 11
374.355685
 21
335.854469
  0
LINE
  5
1CC
100
AcDbEntity
  8
M0
  6
CONTINUOUS
370
25
100
AcDbLine
 10
374.355685
 20
366.854469
 11
366.855685
 21
366.854469
  0
LINE
  5
1CD
100
AcDbEntity
  8
M0
  6
CONTINUOUS
370
25
100
AcDbLine
 10
355.355685
 20
335.854469
 11
355.355685
 21
332.354469
  0
LINE
  5
1CE
100
AcDbEntity
  8
M0
  6
CONTINUOUS
370
25
100
AcDbLine
 10
372.855685
 20
364.854469
 11
374.355685
 21
364.854469
  0
LINE
  5
1CF
100
AcDbEntity
  8
M0
  6
CONTINUOUS
370
25
100
AcDbLine
 10
355.355685
 20
335.854469
 11
359.355685
 21
335.854469
  0
LINE
  5
1D0
100
AcDbEntity
  8
M0
  6
CONTINUOUS
370
25
100
AcDbLine
 10
372.855685
 20
329.854469
 11
374.355685
 21
329.854469
  0
LINE
  5
1D1
100
AcDbEntity
  8
M0
  6
CONTINUOUS
370
25
100
AcDbLine
 10
355.855685
 20
331.854469
 11
358.855685
 21
331.854469
  0
LINE
  5
1D2
100
AcDbEntity
  8
M0
  6
CONTINUOUS
370
25
100
AcDbLine
 10
358.855685
 20
333.354469
 11
361.055685
 21
333.354469
  0
LINE
  5
1D3
100
AcDbEntity
  8
M0
  6
CONTINUOUS
370
25
100
AcDbLine
 10
372.855685
 20
364.854469
 11
372.855685
 21
352.854469
  0
LINE
  5
1D4
100
AcDbEntity
  8
M0
  6
CONTINUOUS
370
25
100
AcDbLine
 10
370.855685
 20
350.854469
 11
370.855685
 21
337.854469
  0
LINE
  5
1D5
100
AcDbEntity
  8
M0
  6
CONTINUOUS
370
25
100
AcDbLine
 10
366.855685
 20
366.854469
 11
366.855685
 21
348.854469
  0
LINE
  5
1D6
100
AcDbEntity
  8
M0
  6
CONTINUOUS
370
25
100
AcDbLine
 10
359.355685
 20
346.854469
 11
359.355685
 21
335.854469
  0
LINE
  5
1D7
100
AcDbEntity
  8
M0
  6
CONTINUOUS
370
25
100
AcDbLine
 10
372.855685
 20
331.854469
 11
372.855685
 21
329.854469
  0
LINE
  5
1D8
100
AcDbEntity
  8
M0
  6
CONTINUOUS
370
25
100
AcDbLine
 10
358.855685
 20
333.354469
 11
358.855685
 21
331.854469
  0
LINE
  5
1D9
100
AcDbEntity
  8
M0
  6
CONTINUOUS
370
25
100
AcDbLine
 10
361.055685
 20
333.354469
 11
361.055685
 21
331.854469
  0
LINE
  5
1DA
100
AcDbEntity
  8
M0
  6
CONTINUOUS
370
25
100
AcDbLine
 10
359.355685
 20
346.854469
 11
364.855685
 21
346.854469
  0
LINE
  5
1DB
100
AcDbEntity
  8
M0
  6
CONTINUOUS
370
25
100
AcDbLine
 10
361.055685
 20
331.854469
 11
372.855685
 21
331.854469
  0
LINE
  5
1DC
100
AcDbEntity
  8
M0
  6
CONTINUOUS
370
25
100
AcDbLine
 10
372.855685
 20
335.854469
 11
374.355685
 21
335.854469
  0
ARC
  5
1DD
100
AcDbEntity
  8
M0
  6
CONTINUOUS
370
25
100
AcDbCircle
 10
372.855685
 20
337.854469
 40
2.0
100
AcDbArc
 50
180.0
 51
270.0
  0
ARC
  5
1DE
100
AcDbEntity
  8
M0
  6
CONTINUOUS
370
25
100
AcDbCircle
 10
372.855685
 20
350.854469
 40
2.0
100
AcDbArc
 50
90.0
 51
180.0
  0
ARC
  5
1DF
100
AcDbEntity
  8
M0
  6
CONTINUOUS
370
25
100
AcDbCircle
 10
364.855685
 20
348.854469
 40
2.0
100
AcDbArc
 50
270.0
 51
360.0
  0
LINE
  5
1E0
100
AcDbEntity
  8
M0
  6
CONTINUOUS
370
25
100
AcDbLine
 10
374.355685
 20
364.854469
 11
374.355685
 21
366.854469
  0
LINE
  5
1E1
100
AcDbEntity
  8
M0
  6
CONTINUOUS
370
25
100
AcDbLine
 10
355.355685
 20
332.354469
 11
355.855685
 21
331.854469
  0
LINE
  5
1E2
100
AcDbEntity
  8
M0
  6
CONTINUOUS
370
25
100
AcDbLine
 10
361.855685
 20
320.854469
 11
371.855685
 21
320.854469
  0
LINE
  5
1E3
100
AcDbEntity
  8
M0
  6
CONTINUOUS
370
25
100
AcDbLine
 10
372.855685
 20
320.854469
 11
372.855685
 21
330.854469
  0
LINE
  5
1E4
100
AcDbEntity
  8
M0
  6
CONTINUOUS
370
25
100
AcDbLine
 10
371.855685
 20
331.854469
 11
361.855685
 21
331.854469
  0
LINE
  5
1E5
100
AcDbEntity
  8
M0
  6
CONTINUOUS
370
25
100
AcDbLine
 10
360.855685
 20
333.354469
 11
360.855685
 21
319.854469
  0
CIRCLE
  5
1E6
100
AcDbEntity
  8
M0
  6
CONTINUOUS
370
25
100
AcDbCircle
 10
366.855685
 20
326.354469
 40
3.667
  0
LINE
  5
1E7
100
AcDbEntity
  8
M0
  6
CONTINUOUS
370
25
100
AcDbLine
 10
360.855685
 20
324.521469
 11
363.680685
 21
324.521469
  0
LINE
  5
1E8
100
AcDbEntity
  8
M0
  6
CONTINUOUS
370
25
100
AcDbLine
 10
372.855685
 20
328.188469
 11
370.031685
 21
328.188469
  0
LINE
  5
1E9
100
AcDbEntity
  8
M0
  6
CONTINUOUS
370
25
100
AcDbLine
 10
371.689685
 20
322.688469
 11
371.689685
 21
330.021469
  0
LINE
  5
1EA
100
AcDbEntity
  8
M0
  6
CONTINUOUS
370
25
100
AcDbLine
 10
362.022685
 20
330.021469
 11
362.022685
 21
322.688469
  0
LINE
  5
1EB
100
AcDbEntity
  8
M0
  6
CONTINUOUS
370
25
100
AcDbLine
 10
363.680685
 20
328.188469
 11
360.855685
 21
328.188469
  0
LINE
  5
1EC
100
AcDbEntity
  8
M0
  6
CONTINUOUS
370
25
100
AcDbLine
 10
370.031685
 20
324.521469
 11
372.855685
 21
324.521469
  0
ARC
  5
1ED
100
AcDbEntity
  8
M0
  6
CONTINUOUS
370
25
100
AcDbCircle
 10
371.855685
 20
330.854469
 40
1.0
100
AcDbArc
 50
0.0
 51
90.0
  0
ARC
  5
1EE
100
AcDbEntity
  8
M0
  6
CONTINUOUS
370
25
100
AcDbCircle
 10
361.855685
 20
330.854469
 40
1.0
100
AcDbArc
 50
90.0
 51
180.0
  0
ARC
  5
1EF
100
AcDbEntity
  8
M0
  6
CONTINUOUS
370
25
100
AcDbCircle
 10
361.855685
 20
321.854469
 40
1.0
100
AcDbArc
 50
180.0
 51
270.0
  0
ARC
  5
1F0
100
AcDbEntity
  8
M0
  6
CONTINUOUS
370
25
100
AcDbCircle
 10
371.855685
 20
321.854469
 40
1.0
100
AcDbArc
 50
270.0
 51
360.0
  0
LINE
  5
1F1
100
AcDbEntity
  8
M0
  6
CONTINUOUS
370
25
100
AcDbLine
 10
372.855685
 20
323.854469
 11
377.255685
 21
323.854469
  0
LINE
  5
1F2
100
AcDbEntity
  8
M0
  6
CONTINUOUS
370
25
100
AcDbLine
 10
377.755685
 20
323.854469
 11
379.655685
 21
323.854469
  0
LINE
  5
1F3
100
AcDbEntity
  8
M0
  6
CONTINUOUS
370
25
100
AcDbLine
 10
398.355685
 20
322.854469
 11
398.355685
 21
329.316469
  0
LINE
  5
1F4
100
AcDbEntity
  8
M0
  6
CONTINUOUS
370
25
100
AcDbLine
 10
401.319685
 20
331.604469
 11
397.855685
 21
329.604469
  0
LINE
  5
1F5
100
AcDbEntity
  8
M0
  6
CONTINUOUS
370
25
100
AcDbLine
 10
401.569685
 20
331.171469
 11
398.355685
 21
329.316469
  0
LINE
  5
1F6
100
AcDbEntity
  8
M0
  6
CONTINUOUS
370
25
100
AcDbLine
 10
401.569685
 20
331.171469
 11
401.319685
 21
331.604469
  0
LINE
  5
1F7
100
AcDbEntity
  8
M0
  6
CONTINUOUS
370
25
100
AcDbLine
 10
398.355685
 20
322.854469
 11
397.855685
 21
322.854469
  0
LINE
  5
1F8
100
AcDbEntity
  8
M0
  6
CONTINUOUS
370
25
100
AcDbLine
 10
377.755685
 20
331.354469
 11
377.755685
 21
320.854469
  0
LINE
  5
1F9
100
AcDbEntity
  8
M0
  6
CONTINUOUS
370
25
100
AcDbLine
 10
377.755685
 20
320.854469
 11
377.255685
 21
320.854469
  0
LINE
  5
1FA
100
AcDbEntity
  8
M0
  6
CONTINUOUS
370
25
100
AcDbLine
 10
377.255685
 20
331.147469
 11
377.255685
 21
320.854469
  0
LINE
  5
1FB
100
AcDbEntity
  8
M0
  6
CONTINUOUS
370
25
100
AcDbLine
 10
377.755685
 20
331.354469
 11
376.609685
 21
332.501469
  0
LINE
  5
1FC
100
AcDbEntity
  8
M0
  6
CONTINUOUS
370
25
100
AcDbLine
 10
377.255685
 20
331.147469
 11
376.255685
 21
332.147469
  0
LINE
  5
1FD
100
AcDbEntity
  8
M0
  6
CONTINUOUS
370
25
100
AcDbLine
 10
376.255685
 20
332.147469
 11
376.609685
 21
332.501469
  0
LINE
  5
1FE
100
AcDbEntity
  8
M0
  6
CONTINUOUS
370
25
100
AcDbLine
 10
404.855685
 20
314.054469
 11
405.855685
 21
314.054469
  0
LINE
  5
1FF
100
AcDbEntity
  8
M0
  6
CONTINUOUS
370
25
100
AcDbLine
 10
405.855685
 20
321.654469
 11
404.855685
 21
321.654469
  0
LINE
  5
200
100
AcDbEntity
  8
M0
  6
CONTINUOUS
370
25
100
AcDbLine
 10
404.855685
 20
321.896469
 11
404.855685
 21
313.813469
  0
LINE
  5
201
100
AcDbEntity
  8
M0
  6
CONTINUOUS
370
25
100
AcDbLine
 10
404.855685
 20
317.854469
 11
405.855685
 21
318.854469
  0
LINE
  5
202
100
AcDbEntity
  8
M0
  6
CONTINUOUS
370
25
100
AcDbLine
 10
404.855685
 20
316.854469
 11
405.855685
 21
317.854469
  0
LINE
  5
203
100
AcDbEntity
  8
M0
  6
CONTINUOUS
370
25
100
AcDbLine
 10
402.395685
 20
313.813469
 11
404.855685
 21
313.813469
  0
LINE
  5
204
100
AcDbEntity
  8
M0
  6
CONTINUOUS
370
25
100
AcDbLine
 10
404.855685
 20
321.896469
 11
402.395685
 21
321.896469
  0
LINE
  5
205
100
AcDbEntity
  8
M0
  6
CONTINUOUS
370
25
100
AcDbLine
 10
402.056685
 20
320.875469
 11
402.056685
 21
314.834469
  0
LINE
  5
206
100
AcDbEntity
  8
M0
  6
CONTINUOUS
370
25
100
AcDbLine
 10
402.395685
 20
315.854469
 11
404.855685
 21
315.854469
  0
ARC
  5
207
100
AcDbEntity
  8
M0
  6
CONTINUOUS
370
25
100
AcDbCircle
 10
408.118685
 20
317.854469
 40
6.062403
100
AcDbArc
 50
160.737161
 51
199.262839
  0
ARC
  5
208
100
AcDbEntity
  8
M0
  6
CONTINUOUS
370
25
100
AcDbCircle
 10
403.760685
 20
320.875469
 40
1.704601
100
AcDbArc
 50
143.20405
 51
216.79595
  0
ARC
  5
209
100
AcDbEntity
  8
M0
  6
CONTINUOUS
370
25
100
AcDbCircle
 10
403.760685
 20
314.834469
 40
1.704003
100
AcDbArc
 50
143.230975
 51
216.79595
  0
LINE
  5
20A
100
AcDbEntity
  8
M0
  6
CONTINUOUS
370
25
100
AcDbLine
 10
439.355685
 20
337.054469
 11
440.355685
 21
337.054469
  0
LINE
  5
20B
100
AcDbEntity
  8
M0
  6
CONTINUOUS
370
25
100
AcDbLine
 10
440.355685
 20
344.654469
 11
439.355685
 21
344.654469
  0
LINE
  5
20C
100
AcDbEntity
  8
M0
  6
CONTINUOUS
370
25
100
AcDbLine
 10
439.355685
 20
344.896469
 11
439.355685
 21
336.813469
  0
LINE
  5
20D
100
AcDbEntity
  8
M0
  6
CONTINUOUS
370
25
100
AcDbLine
 10
439.355685
 20
340.854469
 11
440.355685
 21
341.854469
  0
LINE
  5
20E
100
AcDbEntity
  8
M0
  6
CONTINUOUS
370
25
100
AcDbLine
 10
439.355685
 20
339.854469
 11
440.355685
 21
340.854469
  0
LINE
  5
20F
100
AcDbEntity
  8
M0
  6
CONTINUOUS
370
25
100
AcDbLine
 10
436.895685
 20
336.813469
 11
439.355685
 21
336.813469
  0
LINE
  5
210
100
AcDbEntity
  8
M0
  6
CONTINUOUS
370
25
100
AcDbLine
 10
439.355685
 20
344.896469
 11
436.895685
 21
344.896469
  0
LINE
  5
211
100
AcDbEntity
  8
M0
  6
CONTINUOUS
370
25
100
AcDbLine
 10
436.555685
 20
343.875469
 11
436.555685
 21
337.834469
  0
LINE
  5
212
100
AcDbEntity
  8
M0
  6
CONTINUOUS
370
25
100
AcDbLine
 10
436.895685
 20
338.854469
 11
439.355685
 21
338.854469
  0
ARC
  5
213
100
AcDbEntity
  8
M0
  6
CONTINUOUS
370
25
100
AcDbCircle
 10
442.617685
 20
340.854469
 40
6.061459
100
AcDbArc
 50
160.734043
 51
199.265957
  0
ARC
  5
214
100
AcDbEntity
  8
M0
  6
CONTINUOUS
370
25
100
AcDbCircle
 10
438.260685
 20
343.875469
 40
1.704601
100
AcDbArc
 50
143.20405
 51
216.79595
  0
ARC
  5
215
100
AcDbEntity
  8
M0
  6
CONTINUOUS
370
25
100
AcDbCircle
 10
438.260685
 20
337.834469
 40
1.704003
100
AcDbArc
 50
143.230975
 51
216.79595
  0
LINE
  5
216
100
AcDbEntity
  8
M0
  6
CONTINUOUS
370
25
100
AcDbLine
 10
439.355685
 20
342.854469
 11
436.895685
 21
342.854469
  0
LINE
  5
217
100
AcDbEntity
  8
M0
  6
CONTINUOUS
370
25
100
AcDbLine
 10
365.355685
 20
354.254469
 11
366.855685
 21
354.254469
  0
LINE
  5
218
100
AcDbEntity
  8
M0
  6
CONTINUOUS
370
25
100
AcDbLine
 10
366.855685
 20
366.454469
 11
365.355685
 21
366.454469
  0
LINE
  5
219
100
AcDbEntity
  8
M0
  6
CONTINUOUS
370
25
100
AcDbLine
 10
365.355685
 20
366.454469
 11
365.355685
 21
354.254469
  0
LINE
  5
21A
100
AcDbEntity
  8
M0
  6
CONTINUOUS
370
25
100
AcDbLine
 10
365.355685
 20
360.354469
 11
366.855685
 21
361.854469
  0
LINE
  5
21B
100
AcDbEntity
  8
M0
  6
CONTINUOUS
370
25
100
AcDbLine
 10
365.355685
 20
358.854469
 11
366.855685
 21
360.354469
  0
LINE
  5
21C
100
AcDbEntity
  8
M0
  6
CONTINUOUS
370
25
100
AcDbLine
 10
426.355685
 20
366.454469
 11
424.855685
 21
366.454469
  0
LINE
  5
21D
100
AcDbEntity
  8
M0
  6
CONTINUOUS
370
25
100
AcDbLine
 10
424.855685
 20
354.254469
 11
426.355685
 21
354.254469
  0
LINE
  5
21E
100
AcDbEntity
  8
M0
  6
CONTINUOUS
370
25
100
AcDbLine
 10
426.355685
 20
354.254469
 11
426.355685
 21
366.454469
  0
LINE
  5
21F
100
AcDbEntity
  8
M0
  6
CONTINUOUS
370
25
100
AcDbLine
 10
426.355685
 20
360.354469
 11
424.855685
 21
358.854469
  0
LINE
  5
220
100
AcDbEntity
  8
M0
  6
CONTINUOUS
370
25
100
AcDbLine
 10
426.355685
 20
361.854469
 11
424.855685
 21
360.354469
  0
LINE
  5
221
100
AcDbEntity
  8
M0
  6
CONTINUOUS
370
25
100
AcDbLine
 10
361.892685
 20
354.581469
 11
365.355685
 21
354.581469
  0
LINE
  5
222
100
AcDbEntity
  8
M0
  6
CONTINUOUS
370
25
100
AcDbLine
 10
365.355685
 20
366.128469
 11
361.892685
 21
366.128469
  0
LINE
  5
223
100
AcDbEntity
  8
M0
  6
CONTINUOUS
370
25
100
AcDbLine
 10
361.355685
 20
364.741469
 11
361.355685
 21
355.968469
  0
LINE
  5
224
100
AcDbEntity
  8
M0
  6
CONTINUOUS
370
25
100
AcDbLine
 10
361.892685
 20
357.354469
 11
365.355685
 21
357.354469
  0
ARC
  5
225
100
AcDbEntity
  8
M0
  6
CONTINUOUS
370
25
100
AcDbCircle
 10
370.016685
 20
360.354469
 40
8.660218
100
AcDbArc
 50
159.732011
 51
200.267989
  0
ARC
  5
226
100
AcDbEntity
  8
M0
  6
CONTINUOUS
370
25
100
AcDbCircle
 10
363.417685
 20
364.741469
 40
2.061406
100
AcDbArc
 50
137.713223
 51
222.286777
  0
ARC
  5
227
100
AcDbEntity
  8
M0
  6
CONTINUOUS
370
25
100
AcDbCircle
 10
363.417685
 20
355.968469
 40
2.060733
100
AcDbArc
 50
137.733792
 51
222.286777
  0
LINE
  5
228
100
AcDbEntity
  8
M0
  6
CONTINUOUS
370
25
100
AcDbLine
 10
365.355685
 20
363.354469
 11
361.892685
 21
363.354469
  0
LINE
  5
229
100
AcDbEntity
  8
M0
  6
CONTINUOUS
370
25
100
AcDbLine
 10
429.819685
 20
366.128469
 11
426.355685
 21
366.128469
  0
LINE
  5
22A
100
AcDbEntity
  8
M0
  6
CONTINUOUS
370
25
100
AcDbLine
 10
426.355685
 20
354.581469
 11
429.819685
 21
354.581469
  0
LINE
  5
22B
100
AcDbEntity
  8
M0
  6
CONTINUOUS
370
25
100
AcDbLine
 10
430.355685
 20
355.968469
 11
430.355685
 21
364.741469
  0
LINE
  5
22C
100
AcDbEntity
  8
M0
  6
CONTINUOUS
370
25
100
AcDbLine
 10
429.819685
 20
363.354469
 11
426.355685
 21
363.354469
  0
ARC
  5
22D
100
AcDbEntity
  8
M0
  6
CONTINUOUS
370
25
100
AcDbCircle
 10
421.695685
 20
360.354469
 40
8.660218
100
AcDbArc
 50
339.732011
 51
380.267989
  0
ARC
  5
22E
100
AcDbEntity
  8
M0
  6
CONTINUOUS
370
25
100
AcDbCircle
 10
428.294685
 20
355.968469
 40
2.061406
100
AcDbArc
 50
317.713223
 51
402.266208
  0
ARC
  5
22F
100
AcDbEntity
  8
M0
  6
CONTINUOUS
370
25
100
AcDbCircle
 10
428.294685
 20
364.741469
 40
2.061406
100
AcDbArc
 50
317.713223
 51
402.286777
  0
LINE
  5
230
100
AcDbEntity
  8
M0
  6
CONTINUOUS
370
25
100
AcDbLine
 10
426.355685
 20
357.354469
 11
429.819685
 21
357.354469
  0
LINE
  5
231
100
AcDbEntity
  8
M0
  6
CONTINUOUS
370
25
100
AcDbLine
 10
358.185685
 20
340.854469
 11
372.362685
 21
340.854469
  0
LINE
  5
232
100
AcDbEntity
  8
M0
  6
CONTINUOUS
370
25
100
AcDbLine
 10
375.855685
 20
224.854469
 11
415.855685
 21
224.854469
  0
LINE
  5
233
100
AcDbEntity
  8
M0
  6
CONTINUOUS
370
25
100
AcDbLine
 10
374.855685
 20
225.854469
 11
374.855685
 21
300.854469
  0
LINE
  5
234
100
AcDbEntity
  8
M0
  6
CONTINUOUS
370
25
100
AcDbLine
 10
374.855685
 20
225.854469
 11
375.855685
 21
224.854469
  0
LINE
  5
235
100
AcDbEntity
  8
M0
  6
CONTINUOUS
370
25
100
AcDbLine
 10
416.855685
 20
225.854469
 11
416.855685
 21
300.854469
  0
LINE
  5
236
100
AcDbEntity
  8
M0
  6
CONTINUOUS
370
25
100
AcDbLine
 10
416.855685
 20
225.854469
 11
415.855685
 21
224.854469
  0
LINE
  5
237
100
AcDbEntity
  8
M0
  6
CONTINUOUS
370
25
100
AcDbLine
 10
424.855685
 20
234.854469
 11
416.855685
 21
234.854469
  0
LINE
  5
238
100
AcDbEntity
  8
M0
  6
CONTINUOUS
370
25
100
AcDbLine
 10
424.855685
 20
234.854469
 11
424.855685
 21
300.854469
  0
LINE
  5
239
100
AcDbEntity
  8
M0
  6
CONTINUOUS
370
25
100
AcDbLine
 10
428.875685
 20
265.158469
 11
431.355685
 21
265.654469
  0
ARC
  5
23A
100
AcDbEntity
  8
M0
  6
CONTINUOUS
370
25
100
AcDbCircle
 10
429.855685
 20
260.255469
 40
4.999981
100
AcDbArc
 50
101.30319
 51
180.0
  0
LINE
  5
23B
100
AcDbEntity
  8
M0
  6
CONTINUOUS
370
25
100
AcDbLine
 10
374.855685
 20
234.854469
 11
366.855685
 21
234.854469
  0
LINE
  5
23C
100
AcDbEntity
  8
M0
  6
CONTINUOUS
370
25
100
AcDbLine
 10
355.355685
 20
265.854469
 11
355.355685
 21
301.314469
  0
LINE
  5
23D
100
AcDbEntity
  8
M0
  6
CONTINUOUS
370
25
100
AcDbLine
 10
355.355685
 20
265.854469
 11
359.355685
 21
265.854469
  0
LINE
  5
23E
100
AcDbEntity
  8
M0
  6
CONTINUOUS
370
25
100
AcDbLine
 10
366.855685
 20
234.854469
 11
366.855685
 21
300.854469
  0
LINE
  5
23F
100
AcDbEntity
  8
M0
  6
CONTINUOUS
370
25
100
AcDbLine
 10
359.355685
 20
254.854469
 11
359.355685
 21
301.224469
  0
LINE
  5
240
100
AcDbEntity
  8
M0
  6
CONTINUOUS
370
25
100
AcDbLine
 10
359.355685
 20
254.854469
 11
364.855685
 21
254.854469
  0
ARC
  5
241
100
AcDbEntity
  8
M0
  6
CONTINUOUS
370
25
100
AcDbCircle
 10
364.855685
 20
252.854469
 40
2.0
100
AcDbArc
 50
0.0
 51
90.0
  0
LINE
  5
242
100
AcDbEntity
  8
M0
  6
CONTINUOUS
370
25
100
AcDbLine
 10
347.128645
 20
300.854469
 11
357.534795
 21
300.854469
  0
LINE
  5
243
100
AcDbEntity
  8
M0
  6
CONTINUOUS
370
25
100
AcDbLine
 10
365.355685
 20
265.004469
 11
366.855685
 21
265.004469
  0
LINE
  5
244
100
AcDbEntity
  8
M0
  6
CONTINUOUS
370
25
100
AcDbLine
 10
366.855685
 20
277.204469
 11
365.355685
 21
277.204469
  0
LINE
  5
245
100
AcDbEntity
  8
M0
  6
CONTINUOUS
370
25
100
AcDbLine
 10
365.355685
 20
277.204469
 11
365.355685
 21
265.004469
  0
LINE
  5
246
100
AcDbEntity
  8
M0
  6
CONTINUOUS
370
25
100
AcDbLine
 10
361.892685
 20
265.331469
 11
365.355685
 21
265.331469
  0
LINE
  5
247
100
AcDbEntity
  8
M0
  6
CONTINUOUS
370
25
100
AcDbLine
 10
365.355685
 20
276.878469
 11
361.892685
 21
276.878469
  0
LINE
  5
248
100
AcDbEntity
  8
M0
  6
CONTINUOUS
370
25
100
AcDbLine
 10
361.355685
 20
275.491469
 11
361.355685
 21
266.718469
  0
LINE
  5
249
100
AcDbEntity
  8
M0
  6
CONTINUOUS
370
25
100
AcDbLine
 10
361.892685
 20
268.104469
 11
365.355685
 21
268.104469
  0
LINE
  5
24A
100
AcDbEntity
  8
M0
  6
CONTINUOUS
370
25
100
AcDbLine
 10
365.355685
 20
274.104469
 11
361.892685
 21
274.104469
  0
ARC
  5
24B
100
AcDbEntity
  8
M0
  6
CONTINUOUS
370
25
100
AcDbCircle
 10
370.015685
 20
271.104469
 40
8.65928
100
AcDbArc
 50
159.729719
 51
200.270281
  0
ARC
  5
24C
100
AcDbEntity
  8
M0
  6
CONTINUOUS
370
25
100
AcDbCircle
 10
363.417685
 20
275.491469
 40
2.061406
100
AcDbArc
 50
137.713223
 51
222.286777
  0
ARC
  5
24D
100
AcDbEntity
  8
M0
  6
CONTINUOUS
370
25
100
AcDbCircle
 10
363.417685
 20
266.718469
 40
2.060733
100
AcDbArc
 50
137.733792
 51
222.286777
  0
LINE
  5
24E
100
AcDbEntity
  8
M0
  6
CONTINUOUS
370
25
100
AcDbLine
 10
365.355685
 20
271.104469
 11
366.855685
 21
272.604469
  0
LINE
  5
24F
100
AcDbEntity
  8
M0
  6
CONTINUOUS
370
25
100
AcDbLine
 10
365.355685
 20
269.604469
 11
366.855685
 21
271.104469
  0
LINE
  5
250
100
AcDbEntity
  8
M0
  6
CONTINUOUS
370
25
100
AcDbLine
 10
365.355685
 20
235.254469
 11
366.855685
 21
235.254469
  0
LINE
  5
251
100
AcDbEntity
  8
M0
  6
CONTINUOUS
370
25
100
AcDbLine
 10
366.855685
 20
247.454469
 11
365.355685
 21
247.454469
  0
LINE
  5
252
100
AcDbEntity
  8
M0
  6
CONTINUOUS
370
25
100
AcDbLine
 10
365.355685
 20
247.454469
 11
365.355685
 21
235.254469
  0
LINE
  5
253
100
AcDbEntity
  8
M0
  6
CONTINUOUS
370
25
100
AcDbLine
 10
361.892685
 20
235.581469
 11
365.355685
 21
235.581469
  0
LINE
  5
254
100
AcDbEntity
  8
M0
  6
CONTINUOUS
370
25
100
AcDbLine
 10
365.355685
 20
247.128469
 11
361.892685
 21
247.128469
  0
LINE
  5
255
100
AcDbEntity
  8
M0
  6
CONTINUOUS
370
25
100
AcDbLine
 10
361.355685
 20
245.741469
 11
361.355685
 21
236.968469
  0
LINE
  5
256
100
AcDbEntity
  8
M0
  6
CONTINUOUS
370
25
100
AcDbLine
 10
361.892685
 20
238.354469
 11
365.355685
 21
238.354469
  0
LINE
  5
257
100
AcDbEntity
  8
M0
  6
CONTINUOUS
370
25
100
AcDbLine
 10
365.355685
 20
244.354469
 11
361.892685
 21
244.354469
  0
ARC
  5
258
100
AcDbEntity
  8
M0
  6
CONTINUOUS
370
25
100
AcDbCircle
 10
370.015685
 20
241.354469
 40
8.65928
100
AcDbArc
 50
159.729719
 51
200.270281
  0
ARC
  5
259
100
AcDbEntity
  8
M0
  6
CONTINUOUS
370
25
100
AcDbCircle
 10
363.417685
 20
245.741469
 40
2.061406
100
AcDbArc
 50
137.713223
 51
222.286777
  0
ARC
  5
25A
100
AcDbEntity
  8
M0
  6
CONTINUOUS
370
25
100
AcDbCircle
 10
363.417685
 20
236.968469
 40
2.060733
100
AcDbArc
 50
137.733792
 51
222.286777
  0
LINE
  5
25B
100
AcDbEntity
  8
M0
  6
CONTINUOUS
370
25
100
AcDbLine
 10
365.355685
 20
241.354469
 11
366.855685
 21
242.854469
  0
LINE
  5
25C
100
AcDbEntity
  8
M0
  6
CONTINUOUS
370
25
100
AcDbLine
 10
365.355685
 20
239.855469
 11
366.855685
 21
241.355469
  0
LINE
  5
25D
100
AcDbEntity
  8
M0
  6
CONTINUOUS
370
25
100
AcDbLine
 10
426.355685
 20
235.254469
 11
424.855685
 21
235.254469
  0
LINE
  5
25E
100
AcDbEntity
  8
M0
  6
CONTINUOUS
370
25
100
AcDbLine
 10
424.855685
 20
247.454469
 11
426.355685
 21
247.454469
  0
LINE
  5
25F
100
AcDbEntity
  8
M0
  6
CONTINUOUS
370
25
100
AcDbLine
 10
426.355685
 20
247.454469
 11
426.355685
 21
235.254469
  0
LINE
  5
260
100
AcDbEntity
  8
M0
  6
CONTINUOUS
370
25
100
AcDbLine
 10
429.819685
 20
235.581469
 11
426.355685
 21
235.581469
  0
LINE
  5
261
100
AcDbEntity
  8
M0
  6
CONTINUOUS
370
25
100
AcDbLine
 10
426.355685
 20
247.128469
 11
429.819685
 21
247.128469
  0
LINE
  5
262
100
AcDbEntity
  8
M0
  6
CONTINUOUS
370
25
100
AcDbLine
 10
430.355685
 20
245.741469
 11
430.355685
 21
236.968469
  0
LINE
  5
263
100
AcDbEntity
  8
M0
  6
CONTINUOUS
370
25
100
AcDbLine
 10
429.819685
 20
238.354469
 11
426.355685
 21
238.354469
  0
LINE
  5
264
100
AcDbEntity
  8
M0
  6
CONTINUOUS
370
25
100
AcDbLine
 10
426.355685
 20
244.354469
 11
429.819685
 21
244.354469
  0
ARC
  5
265
100
AcDbEntity
  8
M0
  6
CONTINUOUS
370
25
100
AcDbCircle
 10
421.695685
 20
241.354469
 40
8.660218
100
AcDbArc
 50
339.732011
 51
380.267989
  0
ARC
  5
266
100
AcDbEntity
  8
M0
  6
CONTINUOUS
370
25
100
AcDbCircle
 10
428.294685
 20
245.741469
 40
2.061406
100
AcDbArc
 50
317.713223
 51
402.286777
  0
ARC
  5
267
100
AcDbEntity
  8
M0
  6
CONTINUOUS
370
25
100
AcDbCircle
 10
428.294685
 20
236.968469
 40
2.061406
100
AcDbArc
 50
317.713223
 51
402.266208
  0
LINE
  5
268
100
AcDbEntity
  8
M0
  6
CONTINUOUS
370
25
100
AcDbLine
 10
426.355685
 20
242.854469
 11
424.855685
 21
241.354469
  0
LINE
  5
269
100
AcDbEntity
  8
M0
  6
CONTINUOUS
370
25
100
AcDbLine
 10
426.355685
 20
241.354469
 11
424.855685
 21
239.854469
  0
LINE
  5
26A
100
AcDbEntity
  8
M0
  6
CONTINUOUS
370
25
100
AcDbLine
 10
416.855685
 20
261.279469
 11
416.855685
 21
267.179469
  0
LINE
  5
26B
100
AcDbEntity
  8
M0
  6
CONTINUOUS
370
25
100
AcDbLine
 10
426.355685
 20
265.004469
 11
424.855685
 21
265.004469
  0
LINE
  5
26C
100
AcDbEntity
  8
M0
  6
CONTINUOUS
370
25
100
AcDbLine
 10
424.855685
 20
277.204469
 11
426.355685
 21
277.204469
  0
LINE
  5
26D
100
AcDbEntity
  8
M0
  6
CONTINUOUS
370
25
100
AcDbLine
 10
426.355685
 20
277.204469
 11
426.355685
 21
265.004469
  0
LINE
  5
26E
100
AcDbEntity
  8
M0
  6
CONTINUOUS
370
25
100
AcDbLine
 10
429.819685
 20
265.331469
 11
426.355685
 21
265.331469
  0
LINE
  5
26F
100
AcDbEntity
  8
M0
  6
CONTINUOUS
370
25
100
AcDbLine
 10
426.355685
 20
276.878469
 11
429.819685
 21
276.878469
  0
LINE
  5
270
100
AcDbEntity
  8
M0
  6
CONTINUOUS
370
25
100
AcDbLine
 10
430.355685
 20
275.491469
 11
430.355685
 21
266.718469
  0
LINE
  5
271
100
AcDbEntity
  8
M0
  6
CONTINUOUS
370
25
100
AcDbLine
 10
429.819685
 20
268.104469
 11
426.355685
 21
268.104469
  0
LINE
  5
272
100
AcDbEntity
  8
M0
  6
CONTINUOUS
370
25
100
AcDbLine
 10
426.355685
 20
274.104469
 11
429.819685
 21
274.104469
  0
ARC
  5
273
100
AcDbEntity
  8
M0
  6
CONTINUOUS
370
25
100
AcDbCircle
 10
421.695685
 20
271.104469
 40
8.660218
100
AcDbArc
 50
339.732011
 51
380.267989
  0
ARC
  5
274
100
AcDbEntity
  8
M0
  6
CONTINUOUS
370
25
100
AcDbCircle
 10
428.294685
 20
275.491469
 40
2.061406
100
AcDbArc
 50
317.713223
 51
402.286777
  0
ARC
  5
275
100
AcDbEntity
  8
M0
  6
CONTINUOUS
370
25
100
AcDbCircle
 10
428.294685
 20
266.718469
 40
2.061406
100
AcDbArc
 50
317.713223
 51
402.266208
  0
LINE
  5
276
100
AcDbEntity
  8
M0
  6
CONTINUOUS
370
25
100
AcDbLine
 10
426.355685
 20
272.604469
 11
424.855685
 21
271.104469
  0
LINE
  5
277
100
AcDbEntity
  8
M0
  6
CONTINUOUS
370
25
100
AcDbLine
 10
426.355685
 20
271.104469
 11
424.855685
 21
269.604469
  0
LINE
  5
278
100
AcDbEntity
  8
M0
  6
CONTINUOUS
370
25
100
AcDbLine
 10
440.855685
 20
328.354469
 11
447.855685
 21
328.354469
  0
LINE
  5
279
100
AcDbEntity
  8
M0
  6
CONTINUOUS
370
25
100
AcDbLine
 10
404.855685
 20
319.854469
 11
402.395685
 21
319.854469
  0
LINE
  5
27A
100
AcDbEntity
  8
M0
  6
CONTINUOUS
370
25
100
AcDbLine
 10
394.855685
 20
322.354469
 11
394.855685
 21
333.552469
  0
LINE
  5
27B
100
AcDbEntity
  8
M0
  6
CONTINUOUS
370
25
100
AcDbLine
 10
397.855685
 20
322.854469
 11
397.855685
 21
333.552469
  0
LINE
  5
27C
100
AcDbEntity
  8
M0
  6
CONTINUOUS
370
25
100
AcDbLine
 10
426.155685
 20
328.354469
 11
428.355685
 21
328.354469
  0
LINE
  5
27D
100
AcDbEntity
  8
M0
  6
CONTINUOUS
370
25
100
AcDbLine
 10
424.154685
 20
397.166469
 11
424.154685
 21
392.166469
  0
LINE
  5
27E
100
AcDbEntity
  8
M0
  6
CONTINUOUS
370
25
100
AcDbLine
 10
425.554685
 20
397.166469
 11
425.554685
 21
392.166469
  0
LINE
  5
27F
100
AcDbEntity
  8
M0
  6
CONTINUOUS
370
25
100
AcDbLine
 10
424.154685
 20
397.166469
 11
425.554685
 21
397.166469
  0
LINE
  5
280
100
AcDbEntity
  8
M0
  6
CONTINUOUS
370
25
100
AcDbLine
 10
423.454685
 20
392.166469
 11
423.453685
 21
383.626469
  0
LINE
  5
281
100
AcDbEntity
  8
M0
  6
CONTINUOUS
370
25
100
AcDbLine
 10
426.254685
 20
392.166469
 11
426.253685
 21
381.958469
  0
LINE
  5
282
100
AcDbEntity
  8
M0
  6
CONTINUOUS
370
25
100
AcDbLine
 10
423.454685
 20
392.166469
 11
426.254685
 21
392.166469
  0
LINE
  5
283
100
AcDbEntity
  8
M0
  6
CONTINUOUS
370
25
100
AcDbLine
 10
423.454685
 20
380.730469
 11
423.454685
 21
372.504469
  0
LINE
  5
284
100
AcDbEntity
  8
M0
  6
CONTINUOUS
370
25
100
AcDbLine
 10
426.253685
 20
379.319469
 11
426.254685
 21
372.504469
  0
ARC
  5
285
100
AcDbEntity
  8
M0
  6
CONTINUOUS
370
25
100
AcDbCircle
 10
420.454685
 20
372.504469
 40
3.0
100
AcDbArc
 50
270.0
 51
360.0
  0
ARC
  5
286
100
AcDbEntity
  8
M0
  6
CONTINUOUS
370
25
100
AcDbCircle
 10
420.454685
 20
372.504469
 40
5.8
100
AcDbArc
 50
270.0
 51
360.0
  0
LINE
  5
287
100
AcDbEntity
  8
M0
  6
CONTINUOUS
370
25
100
AcDbLine
 10
416.855685
 20
366.704469
 11
420.454685
 21
366.704469
  0
LINE
  5
288
100
AcDbEntity
  8
M0
  6
CONTINUOUS
370
25
100
AcDbLine
 10
416.855685
 20
369.504469
 11
420.454685
 21
369.504469
  0
LINE
  5
289
100
AcDbEntity
  8
M0
  6
CONTINUOUS
370
25
100
AcDbLine
 10
441.355685
 20
325.854469
 11
447.355685
 21
325.854469
  0
LINE
  5
28A
100
AcDbEntity
  8
M0
  6
CONTINUOUS
370
25
100
AcDbLine
 10
447.355685
 20
330.854469
 11
441.355685
 21
330.854469
  0
LINE
  5
28B
100
AcDbEntity
  8
M0
  6
CONTINUOUS
370
25
100
AcDbLine
 10
447.355685
 20
330.354469
 11
441.355685
 21
330.354469
  0
LINE
  5
28C
100
AcDbEntity
  8
M0
  6
CONTINUOUS
370
25
100
AcDbLine
 10
441.355685
 20
326.354469
 11
447.355685
 21
326.354469
  0
LINE
  5
28D
100
AcDbEntity
  8
M0
  6
CONTINUOUS
370
25
100
AcDbLine
 10
359.355685
 20
338.854469
 11
370.855685
 21
338.854469
  0
LINE
  5
28E
100
AcDbEntity
  8
M0
  6
CONTINUOUS
370
25
100
AcDbLine
 10
370.855685
 20
342.854469
 11
359.355685
 21
342.854469
  0
LINE
  5
28F
100
AcDbEntity
  8
M0
  6
CONTINUOUS
370
25
100
AcDbLine
 10
370.855685
 20
342.454469
 11
359.355685
 21
342.454469
  0
LINE
  5
290
100
AcDbEntity
  8
M0
  6
CONTINUOUS
370
25
100
AcDbLine
 10
359.355685
 20
339.254469
 11
370.855685
 21
339.254469
  0
CIRCLE
  5
291
100
AcDbEntity
  8
M0
  6
CONTINUOUS
370
25
100
AcDbCircle
 10
210.572685
 20
340.854469
 40
2.0
  0
CIRCLE
  5
292
100
AcDbEntity
  8
M0
  6
CONTINUOUS
370
25
100
AcDbCircle
 10
210.572685
 20
340.854469
 40
1.6
  0
ARC
  5
293
100
AcDbEntity
  8
M0
  6
CONTINUOUS
370
25
100
AcDbCircle
 10
210.572685
 20
300.854469
 40
40.000381
100
AcDbArc
 50
85.879787
 51
94.329933
  0
LINE
  5
294
100
AcDbEntity
  8
M0
  6
CONTINUOUS
370
25
100
AcDbLine
 10
210.572685
 20
344.854469
 11
210.572685
 21
336.854469
  0
CIRCLE
  5
295
100
AcDbEntity
  8
M0
  6
CONTINUOUS
370
25
100
AcDbCircle
 10
175.931685
 20
320.854469
 40
2.0
  0
CIRCLE
  5
296
100
AcDbEntity
  8
M0
  6
CONTINUOUS
370
25
100
AcDbCircle
 10
175.931685
 20
320.854469
 40
1.6
  0
ARC
  5
297
100
AcDbEntity
  8
M0
  6
CONTINUOUS
370
25
100
AcDbCircle
 10
210.572685
 20
300.854469
 40
40.000838
100
AcDbArc
 50
145.879292
 51
154.329862
  0
LINE
  5
298
100
AcDbEntity
  8
M0
  6
CONTINUOUS
370
25
100
AcDbLine
 10
172.466685
 20
322.854469
 11
179.395685
 21
318.854469
  0
CIRCLE
  5
299
100
AcDbEntity
  8
M0
  6
CONTINUOUS
370
25
100
AcDbCircle
 10
175.931685
 20
280.854469
 40
2.0
  0
CIRCLE
  5
29A
100
AcDbEntity
  8
M0
  6
CONTINUOUS
370
25
100
AcDbCircle
 10
175.931685
 20
280.854469
 40
1.6
  0
ARC
  5
29B
100
AcDbEntity
  8
M0
  6
CONTINUOUS
370
25
100
AcDbCircle
 10
210.572685
 20
300.854469
 40
39.999874
100
AcDbArc
 50
205.877683
 51
214.32889
  0
LINE
  5
29C
100
AcDbEntity
  8
M0
  6
CONTINUOUS
370
25
100
AcDbLine
 10
172.466685
 20
278.854469
 11
179.395685
 21
282.854469
  0
CIRCLE
  5
29D
100
AcDbEntity
  8
M0
  6
CONTINUOUS
370
25
100
AcDbCircle
 10
210.572685
 20
260.854469
 40
2.0
  0
CIRCLE
  5
29E
100
AcDbEntity
  8
M0
  6
CONTINUOUS
370
25
100
AcDbCircle
 10
210.572685
 20
260.854469
 40
1.6
  0
ARC
  5
29F
100
AcDbEntity
  8
M0
  6
CONTINUOUS
370
25
100
AcDbCircle
 10
210.572685
 20
300.854469
 40
39.999456
100
AcDbArc
 50
265.878256
 51
274.328613
  0
LINE
  5
2A0
100
AcDbEntity
  8
M0
  6
CONTINUOUS
370
25
100
AcDbLine
 10
210.572685
 20
256.854469
 11
210.572685
 21
264.854469
  0
CIRCLE
  5
2A1
100
AcDbEntity
  8
M0
  6
CONTINUOUS
370
25
100
AcDbCircle
 10
245.213685
 20
280.854469
 40
2.0
  0
CIRCLE
  5
2A2
100
AcDbEntity
  8
M0
  6
CONTINUOUS
370
25
100
AcDbCircle
 10
245.213685
 20
280.854469
 40
1.6
  0
ARC
  5
2A3
100
AcDbEntity
  8
M0
  6
CONTINUOUS
370
25
100
AcDbCircle
 10
210.572685
 20
300.854469
 40
39.99945
100
AcDbArc
 50
325.879674
 51
334.330533
  0
LINE
  5
2A4
100
AcDbEntity
  8
M0
  6
CONTINUOUS
370
25
100
AcDbLine
 10
248.677685
 20
278.854469
 11
241.748685
 21
282.854469
  0
CIRCLE
  5
2A5
100
AcDbEntity
  8
M0
  6
CONTINUOUS
370
25
100
AcDbCircle
 10
245.213685
 20
320.854469
 40
2.0
  0
CIRCLE
  5
2A6
100
AcDbEntity
  8
M0
  6
CONTINUOUS
370
25
100
AcDbCircle
 10
245.213685
 20
320.854469
 40
1.6
  0
ARC
  5
2A7
100
AcDbEntity
  8
M0
  6
CONTINUOUS
370
25
100
AcDbCircle
 10
210.572685
 20
300.854469
 40
39.99941
100
AcDbArc
 50
25.879597
 51
34.330881
  0
LINE
  5
2A8
100
AcDbEntity
  8
M0
  6
CONTINUOUS
370
25
100
AcDbLine
 10
248.677685
 20
322.854469
 11
241.748685
 21
318.854469
  0
ARC
  5
2A9
100
AcDbEntity
  8
M0
  6
CONTINUOUS
370
25
100
AcDbCircle
 10
608.481685
 20
300.854469
 40
76.000075
100
AcDbArc
 50
61.351575
 51
418.649272
  0
CIRCLE
  5
2AA
100
AcDbEntity
  8
M0
  6
CONTINUOUS
370
25
100
AcDbCircle
 10
608.481685
 20
300.854469
 40
22.5
  0
CIRCLE
  5
2AB
100
AcDbEntity
  8
M0
  6
CONTINUOUS
370
25
100
AcDbCircle
 10
608.481685
 20
300.854469
 40
44.5
  0
CIRCLE
  5
2AC
100
AcDbEntity
  8
M0
  6
CONTINUOUS
370
25
100
AcDbCircle
 10
608.481685
 20
300.854469
 40
64.999
  0
ARC
  5
2AD
100
AcDbEntity
  8
M0
  6
CONTINUOUS
370
25
100
AcDbCircle
 10
608.481685
 20
300.854469
 40
7.499936
100
AcDbArc
 50
109.471393
 51
430.528607
  0
CIRCLE
  5
2AE
100
AcDbEntity
  8
M0
  6
CONTINUOUS
370
25
100
AcDbCircle
 10
608.481685
 20
300.854469
 40
18.5
  0
LINE
  5
2AF
100
AcDbEntity
  8
M0
  6
CONTINUOUS
370
25
100
AcDbLine
 10
610.981685
 20
307.925469
 11
610.981685
 21
310.354469
  0
LINE
  5
2B0
100
AcDbEntity
  8
M0
  6
CONTINUOUS
370
25
100
AcDbLine
 10
610.981685
 20
310.354469
 11
605.981685
 21
310.354469
  0
LINE
  5
2B1
100
AcDbEntity
  8
M0
  6
CONTINUOUS
370
25
100
AcDbLine
 10
605.981685
 20
310.354469
 11
605.981685
 21
307.925469
  0
CIRCLE
  5
2B2
100
AcDbEntity
  8
M0
  6
CONTINUOUS
370
25
100
AcDbCircle
 10
608.481685
 20
328.354469
 40
2.0
  0
CIRCLE
  5
2B3
100
AcDbEntity
  8
M0
  6
CONTINUOUS
370
25
100
AcDbCircle
 10
608.481685
 20
328.354469
 40
2.5
  0
ARC
  5
2B4
100
AcDbEntity
  8
M0
  6
CONTINUOUS
370
25
100
AcDbCircle
 10
608.481685
 20
300.854469
 40
27.500544
100
AcDbArc
 50
81.107633
 51
98.430938
  0
LINE
  5
2B5
100
AcDbEntity
  8
M0
  6
CONTINUOUS
370
25
100
AcDbLine
 10
608.481685
 20
332.854469
 11
608.481685
 21
323.854469
  0
CIRCLE
  5
2B6
100
AcDbEntity
  8
M0
  6
CONTINUOUS
370
25
100
AcDbCircle
 10
584.665685
 20
314.604469
 40
2.0
  0
CIRCLE
  5
2B7
100
AcDbEntity
  8
M0
  6
CONTINUOUS
370
25
100
AcDbCircle
 10
584.665685
 20
314.604469
 40
2.5
  0
ARC
  5
2B8
100
AcDbEntity
  8
M0
  6
CONTINUOUS
370
25
100
AcDbCircle
 10
608.481685
 20
300.854469
 40
27.500555
100
AcDbArc
 50
141.106244
 51
158.429954
  0
LINE
  5
2B9
100
AcDbEntity
  8
M0
  6
CONTINUOUS
370
25
100
AcDbLine
 10
580.768685
 20
316.854469
 11
588.562685
 21
312.354469
  0
CIRCLE
  5
2BA
100
AcDbEntity
  8
M0
  6
CONTINUOUS
370
25
100
AcDbCircle
 10
584.665685
 20
287.104469
 40
2.0
  0
CIRCLE
  5
2BB
100
AcDbEntity
  8
M0
  6
CONTINUOUS
370
25
100
AcDbCircle
 10
584.665685
 20
287.104469
 40
2.5
  0
ARC
  5
2BC
100
AcDbEntity
  8
M0
  6
CONTINUOUS
370
25
100
AcDbCircle
 10
608.481685
 20
300.854469
 40
27.499972
100
AcDbArc
 50
201.106919
 51
218.431058
  0
LINE
  5
2BD
100
AcDbEntity
  8
M0
  6
CONTINUOUS
370
25
100
AcDbLine
 10
580.768685
 20
284.854469
 11
588.562685
 21
289.354469
  0
CIRCLE
  5
2BE
100
AcDbEntity
  8
M0
  6
CONTINUOUS
370
25
100
AcDbCircle
 10
608.481685
 20
273.354469
 40
2.0
  0
CIRCLE
  5
2BF
100
AcDbEntity
  8
M0
  6
CONTINUOUS
370
25
100
AcDbCircle
 10
608.481685
 20
273.354469
 40
2.5
  0
ARC
  5
2C0
100
AcDbEntity
  8
M0
  6
CONTINUOUS
370
25
100
AcDbCircle
 10
608.481685
 20
300.854469
 40
27.499556
100
AcDbArc
 50
261.107311
 51
278.431244
  0
LINE
  5
2C1
100
AcDbEntity
  8
M0
  6
CONTINUOUS
370
25
100
AcDbLine
 10
608.481685
 20
268.854469
 11
608.481685
 21
277.854469
  0
CIRCLE
  5
2C2
100
AcDbEntity
  8
M0
  6
CONTINUOUS
370
25
100
AcDbCircle
 10
632.297685
 20
287.104469
 40
2.0
  0
CIRCLE
  5
2C3
100
AcDbEntity
  8
M0
  6
CONTINUOUS
370
25
100
AcDbCircle
 10
632.297685
 20
287.104469
 40
2.5
  0
ARC
  5
2C4
100
AcDbEntity
  8
M0
  6
CONTINUOUS
370
25
100
AcDbCircle
 10
608.481685
 20
300.854469
 40
27.499927
100
AcDbArc
 50
321.107865
 51
338.431892
  0
LINE
  5
2C5
100
AcDbEntity
  8
M0
  6
CONTINUOUS
370
25
100
AcDbLine
 10
636.194685
 20
284.854469
 11
628.399685
 21
289.354469
  0
CIRCLE
  5
2C6
100
AcDbEntity
  8
M0
  6
CONTINUOUS
370
25
100
AcDbCircle
 10
632.297685
 20
314.604469
 40
2.0
  0
CIRCLE
  5
2C7
100
AcDbEntity
  8
M0
  6
CONTINUOUS
370
25
100
AcDbCircle
 10
632.297685
 20
314.604469
 40
2.5
  0
ARC
  5
2C8
100
AcDbEntity
  8
M0
  6
CONTINUOUS
370
25
100
AcDbCircle
 10
608.481685
 20
300.854469
 40
27.499972
100
AcDbArc
 50
21.106919
 51
38.432691
  0
LINE
  5
2C9
100
AcDbEntity
  8
M0
  6
CONTINUOUS
370
25
100
AcDbLine
 10
636.194685
 20
316.854469
 11
628.399685
 21
312.354469
  0
LINE
  5
2CA
100
AcDbEntity
  8
M0
  6
CONTINUOUS
370
25
100
AcDbLine
 10
162.932154
 20
383.36934
 11
164.923685
 21
379.920469
  0
LINE
  5
2CB
100
AcDbEntity
  8
M0
  6
CONTINUOUS
370
25
100
AcDbLine
 10
164.524685
 20
384.196469
 11
166.774685
 21
380.298469
  0
LINE
  5
2CC
100
AcDbEntity
  8
M0
  6
CONTINUOUS
370
25
100
AcDbLine
 10
161.420685
 20
382.404469
 11
163.201685
 21
379.318469
  0
ARC
  5
2CD
100
AcDbEntity
  8
M0
  6
CONTINUOUS
370
25
100
AcDbCircle
 10
167.128685
 20
385.700469
 40
4.799485
100
AcDbArc
 50
165.00245
 51
210.005503
  0
ARC
  5
2CE
100
AcDbEntity
  8
M0
  6
CONTINUOUS
370
25
100
AcDbCircle
 10
167.128685
 20
385.700469
 40
3.007376
100
AcDbArc
 50
165.007221
 51
210.009569
  0
ARC
  5
2CF
100
AcDbEntity
  8
M0
  6
CONTINUOUS
370
25
100
AcDbCircle
 10
158.815685
 20
380.900469
 40
3.007996
100
AcDbArc
 50
30.000042
 51
75.007221
  0
ARC
  5
2D0
100
AcDbEntity
  8
M0
  6
CONTINUOUS
370
25
100
AcDbCircle
 10
158.815685
 20
380.900469
 40
4.800068
100
AcDbArc
 50
29.999534
 51
75.00245
  0
LINE
  5
2D1
100
AcDbEntity
  8
M0
  6
CONTINUOUS
370
25
100
AcDbLine
 10
164.127685
 20
377.714469
 11
171.030685
 21
365.758469
  0
LINE
  5
2D2
100
AcDbEntity
  8
M0
  6
CONTINUOUS
370
25
100
AcDbLine
 10
167.737685
 20
378.630469
 11
174.134685
 21
367.550469
  0
LINE
  5
2D3
100
AcDbEntity
  8
M0
  6
CONTINUOUS
370
25
100
AcDbLine
 10
162.492685
 20
386.942469
 11
164.223685
 21
386.478469
  0
LINE
  5
2D4
100
AcDbEntity
  8
M0
  6
CONTINUOUS
370
25
100
AcDbLine
 10
163.790685
 20
386.594469
 11
164.619685
 21
389.685469
  0
LINE
  5
2D5
100
AcDbEntity
  8
M0
  6
CONTINUOUS
370
25
100
AcDbLine
 10
162.925685
 20
386.826469
 11
163.753685
 21
389.917469
  0
LINE
  5
2D6
100
AcDbEntity
  8
M0
  6
CONTINUOUS
370
25
100
AcDbLine
 10
163.753685
 20
389.917469
 11
164.619685
 21
389.685469
  0
LINE
  5
2D7
100
AcDbEntity
  8
M0
  6
CONTINUOUS
370
25
100
AcDbLine
 10
160.057685
 20
385.536469
 11
159.593685
 21
383.805469
  0
LINE
  5
2D8
100
AcDbEntity
  8
M0
  6
CONTINUOUS
370
25
100
AcDbLine
 10
159.709685
 20
384.238469
 11
156.618685
 21
385.066469
  0
LINE
  5
2D9
100
AcDbEntity
  8
M0
  6
CONTINUOUS
370
25
100
AcDbLine
 10
159.941685
 20
385.103469
 11
156.850685
 21
385.932469
  0
LINE
  5
2DA
100
AcDbEntity
  8
M0
  6
CONTINUOUS
370
25
100
AcDbLine
 10
156.850685
 20
385.931469
 11
156.618685
 21
385.066469
  0
LINE
  5
2DB
100
AcDbEntity
  8
M0
  6
CONTINUOUS
370
25
100
AcDbLine
 10
165.790685
 20
378.417469
 11
172.571685
 21
366.672469
  0
LINE
  5
2DC
100
AcDbEntity
  8
M0
  6
CONTINUOUS
370
25
100
AcDbLine
 10
656.090685
 20
383.316469
 11
654.129685
 21
379.920469
  0
LINE
  5
2DD
100
AcDbEntity
  8
M0
  6
CONTINUOUS
370
25
100
AcDbLine
 10
657.632685
 20
382.404469
 11
655.382685
 21
378.506469
  0
LINE
  5
2DE
100
AcDbEntity
  8
M0
  6
CONTINUOUS
370
25
100
AcDbLine
 10
654.529685
 20
384.196469
 11
652.747685
 21
381.110469
  0
ARC
  5
2DF
100
AcDbEntity
  8
M0
  6
CONTINUOUS
370
25
100
AcDbCircle
 10
660.238685
 20
380.900469
 40
4.799744
100
AcDbArc
 50
105.009081
 51
150.000466
  0
ARC
  5
2E0
100
AcDbEntity
  8
M0
  6
CONTINUOUS
370
25
100
AcDbCircle
 10
660.237685
 20
380.900469
 40
3.007376
100
AcDbArc
 50
104.992779
 51
149.999958
  0
ARC
  5
2E1
100
AcDbEntity
  8
M0
  6
CONTINUOUS
370
25
100
AcDbCircle
 10
651.924685
 20
385.700469
 40
3.007996
100
AcDbArc
 50
329.999958
 51
374.992779
  0
ARC
  5
2E2
100
AcDbEntity
  8
M0
  6
CONTINUOUS
370
25
100
AcDbCircle
 10
651.924685
 20
385.700469
 40
4.800068
100
AcDbArc
 50
330.000466
 51
374.99755
  0
LINE
  5
2E3
100
AcDbEntity
  8
M0
  6
CONTINUOUS
370
25
100
AcDbLine
 10
651.821685
 20
379.506469
 11
641.185685
 21
361.084469
  0
LINE
  5
2E4
100
AcDbEntity
  8
M0
  6
CONTINUOUS
370
25
100
AcDbLine
 10
654.419685
 20
376.838469
 11
644.288685
 21
359.291469
  0
LINE
  5
2E5
100
AcDbEntity
  8
M0
  6
CONTINUOUS
370
25
100
AcDbLine
 10
658.995685
 20
385.536469
 11
659.459685
 21
383.805469
  0
LINE
  5
2E6
100
AcDbEntity
  8
M0
  6
CONTINUOUS
370
25
100
AcDbLine
 10
659.343685
 20
384.238469
 11
662.434685
 21
385.066469
  0
LINE
  5
2E7
100
AcDbEntity
  8
M0
  6
CONTINUOUS
370
25
100
AcDbLine
 10
659.111685
 20
385.103469
 11
662.202685
 21
385.932469
  0
LINE
  5
2E8
100
AcDbEntity
  8
M0
  6
CONTINUOUS
370
25
100
AcDbLine
 10
662.202685
 20
385.932469
 11
662.434685
 21
385.066469
  0
LINE
  5
2E9
100
AcDbEntity
  8
M0
  6
CONTINUOUS
370
25
100
AcDbLine
 10
656.560685
 20
386.942469
 11
654.829685
 21
386.478469
  0
LINE
  5
2EA
100
AcDbEntity
  8
M0
  6
CONTINUOUS
370
25
100
AcDbLine
 10
655.262685
 20
386.594469
 11
654.434685
 21
389.685469
  0
LINE
  5
2EB
100
AcDbEntity
  8
M0
  6
CONTINUOUS
370
25
100
AcDbLine
 10
656.127685
 20
386.826469
 11
655.299685
 21
389.917469
  0
LINE
  5
2EC
100
AcDbEntity
  8
M0
  6
CONTINUOUS
370
25
100
AcDbLine
 10
655.299685
 20
389.917469
 11
654.434685
 21
389.685469
  0
LINE
  5
2ED
100
AcDbEntity
  8
M0
  6
CONTINUOUS
370
25
100
AcDbLine
 10
653.262685
 20
378.418469
 11
642.558384
 21
359.877748
  0
POINT
  5
2EE
100
AcDbEntity
  8
M0
  6
CONTINUOUS
370
25
100
AcDbPoint
 10
210.572685
 20
300.854469
  0
LINE
  5
2EF
100
AcDbEntity
  8
M0
  6
CONTINUOUS
370
25
100
AcDbLine
 10
608.481685
 20
296.489587
 11
608.481685
 21
305.717941
  0
LINE
  5
2F0
100
AcDbEntity
  8
M0
  6
CONTINUOUS
370
25
100
AcDbLine
 10
603.705146
 20
300.854469
 11
613.043518
 21
300.854469
  0
LINE
  5
2F1
100
AcDbEntity
  8
M0
  6
CONTINUOUS
370
25
100
AcDbLine
 10
205.425294
 20
300.854469
 11
215.597316
 21
300.854469
  0
LINE
  5
2F2
100
AcDbEntity
  8
M0
  6
CONTINUOUS
370
25
100
AcDbLine
 10
210.572685
 20
295.964661
 11
210.572685
 21
306.80477
  0
LINE
  5
2F3
100
AcDbEntity
  8
M0
  6
CONTINUOUS
370
25
100
AcDbLine
 10
448.970167
 20
300.854469
 11
458.127579
 21
300.854469
  0
TEXT
  5
2F4
100
AcDbEntity
  8
M0
100
AcDbText
 10
594.911799
 20
167.356947
 40
9.72
  1
ＰＨＣ－１．２Ｒ
 41
1.026667
  7
STANDARD
100
AcDbText
  0
TEXT
  5
2F5
100
AcDbEntity
  8
M0
100
AcDbText
 10
594.388178
 20
147.301115
 40
9.0
  1
（ＳＤＫ６２３１）
 41
1.0
  7
STANDARD
100
AcDbText
  0
ARC
  5
2F6
100
AcDbEntity
  8
M0
  6
CONTINUOUS
370
25
100
AcDbCircle
 10
423.47289
 20
382.272456
 40
1.664708
100
AcDbArc
 50
21.912106
 51
59.544244
  0
ARC
  5
2F7
100
AcDbEntity
  8
M0
  6
CONTINUOUS
370
25
100
AcDbCircle
 10
426.716928
 20
383.577353
 40
1.831939
100
AcDbArc
 50
201.912265
 51
237.72434
  0
ARC
  5
2F8
100
AcDbEntity
  8
M0
  6
CONTINUOUS
370
25
100
AcDbCircle
 10
426.067822
 20
382.5496
 40
0.616367
100
AcDbArc
 50
237.724236
 51
262.259466
  0
ARC
  5
2F9
100
AcDbEntity
  8
M0
  6
CONTINUOUS
370
25
100
AcDbCircle
 10
426.072749
 20
382.585867
 40
0.652967
100
AcDbArc
 50
262.259724
 51
286.087154
  0
ARC
  5
2FA
100
AcDbEntity
  8
M0
  6
CONTINUOUS
370
25
100
AcDbCircle
 10
424.056092
 20
382.632226
 40
1.162503
100
AcDbArc
 50
95.362071
 51
121.211469
  0
ARC
  5
2FB
100
AcDbEntity
  8
M0
  6
CONTINUOUS
370
25
100
AcDbCircle
 10
424.004932
 20
383.177281
 40
0.615053
100
AcDbArc
 50
59.544271
 51
95.361936
  0
ARC
  5
2FC
100
AcDbEntity
  8
M0
  6
CONTINUOUS
370
25
100
AcDbCircle
 10
423.697866
 20
379.75249
 40
1.423562
100
AcDbArc
 50
22.074884
 51
62.523056
  0
ARC
  5
2FD
100
AcDbEntity
  8
M0
  6
CONTINUOUS
370
25
100
AcDbCircle
 10
426.766516
 20
380.996974
 40
1.887836
100
AcDbArc
 50
202.074926
 51
237.012971
  0
ARC
  5
2FE
100
AcDbEntity
  8
M0
  6
CONTINUOUS
370
25
100
AcDbCircle
 10
426.107443
 20
379.981586
 40
0.677303
100
AcDbArc
 50
237.012899
 51
259.656023
  0
ARC
  5
2FF
100
AcDbEntity
  8
M0
  6
CONTINUOUS
370
25
100
AcDbCircle
 10
426.109243
 20
379.99144
 40
0.68732
100
AcDbArc
 50
259.655923
 51
282.131317
  0
ARC
  5
300
100
AcDbEntity
  8
M0
  6
CONTINUOUS
370
25
100
AcDbCircle
 10
424.415837
 20
379.712118
 40
1.400264
100
AcDbArc
 50
107.610792
 51
133.402713
  0
ARC
  5
301
100
AcDbEntity
  8
M0
  6
CONTINUOUS
370
25
100
AcDbCircle
 10
424.13575
 20
380.594485
 40
0.47451
100
AcDbArc
 50
62.52306
 51
107.610715
  0
ARC
  5
302
100
AcDbEntity
  8
M0
  6
CONTINUOUS
370
25
100
AcDbCircle
 10
164.289822
 20
378.425424
 40
1.613611
100
AcDbArc
 50
68.484032
 51
102.714226
  0
ARC
  5
303
100
AcDbEntity
  8
M0
  6
CONTINUOUS
370
25
100
AcDbCircle
 10
165.71778
 20
382.047548
 40
2.279825
100
AcDbArc
 50
248.484059
 51
277.153577
  0
ARC
  5
304
100
AcDbEntity
  8
M0
  6
CONTINUOUS
370
25
100
AcDbCircle
 10
165.88399
 20
380.723225
 40
0.945113
100
AcDbArc
 50
277.153639
 51
303.57016
  0
ARC
  5
305
100
AcDbEntity
  8
M0
  6
CONTINUOUS
370
25
100
AcDbCircle
 10
165.658411
 20
381.063133
 40
1.353063
100
AcDbArc
 50
303.570155
 51
325.58831
  0
ARC
  5
306
100
AcDbEntity
  8
M0
  6
CONTINUOUS
370
25
100
AcDbCircle
 10
164.68604
 20
378.591635
 40
1.652754
100
AcDbArc
 50
132.89392
 51
153.910716
  0
ARC
  5
307
100
AcDbEntity
  8
M0
  6
CONTINUOUS
370
25
100
AcDbCircle
 10
164.113212
 20
379.208203
 40
0.811156
100
AcDbArc
 50
102.714269
 51
132.893911
  0
ARC
  5
308
100
AcDbEntity
  8
M0
  6
CONTINUOUS
370
25
100
AcDbCircle
 10
165.136421
 20
377.426501
 40
1.118712
100
AcDbArc
 50
67.940835
 51
108.163518
  0
ARC
  5
309
100
AcDbEntity
  8
M0
  6
CONTINUOUS
370
25
100
AcDbCircle
 10
166.809778
 20
381.555926
 40
3.336876
100
AcDbArc
 50
247.940856
 51
270.908478
  0
ARC
  5
30A
100
AcDbEntity
  8
M0
  6
CONTINUOUS
370
25
100
AcDbCircle
 10
166.844825
 20
379.345647
 40
1.12632
100
AcDbArc
 50
270.908585
 51
295.160116
  0
ARC
  5
30B
100
AcDbEntity
  8
M0
  6
CONTINUOUS
370
25
100
AcDbCircle
 10
166.759104
 20
379.528145
 40
1.327947
100
AcDbArc
 50
295.160091
 51
317.469092
  0
ARC
  5
30C
100
AcDbEntity
  8
M0
  6
CONTINUOUS
370
25
100
AcDbCircle
 10
166.039688
 20
376.936678
 40
2.064149
100
AcDbArc
 50
139.581797
 51
157.863819
  0
ARC
  5
30D
100
AcDbEntity
  8
M0
  6
CONTINUOUS
370
25
100
AcDbCircle
 10
165.009209
 20
377.814251
 40
0.710628
100
AcDbArc
 50
108.163508
 51
139.581927
  0
ARC
  5
30E
100
AcDbEntity
  8
M0
  6
CONTINUOUS
370
25
100
AcDbCircle
 10
652.516966
 20
379.720687
 40
1.615252
100
AcDbArc
 50
8.523464
 51
42.718472
  0
ARC
  5
30F
100
AcDbEntity
  8
M0
  6
CONTINUOUS
370
25
100
AcDbCircle
 10
656.372242
 20
380.298479
 40
2.28308
100
AcDbArc
 50
188.523525
 51
217.157847
  0
ARC
  5
310
100
AcDbEntity
  8
M0
  6
CONTINUOUS
370
25
100
AcDbCircle
 10
655.306595
 20
379.490839
 40
0.945962
100
AcDbArc
 50
217.15762
 51
243.545419
  0
ARC
  5
311
100
AcDbEntity
  8
M0
  6
CONTINUOUS
370
25
100
AcDbCircle
 10
655.487235
 20
379.85388
 40
1.351461
100
AcDbArc
 50
243.545641
 51
265.563115
  0
ARC
  5
312
100
AcDbEntity
  8
M0
  6
CONTINUOUS
370
25
100
AcDbCircle
 10
652.860671
 20
379.461719
 40
1.652617
100
AcDbArc
 50
72.905709
 51
93.920233
  0
ARC
  5
313
100
AcDbEntity
  8
M0
  6
CONTINUOUS
370
25
100
AcDbCircle
 10
653.108203
 20
380.266618
 40
0.810515
100
AcDbArc
 50
42.71847
 51
72.905769
  0
ARC
  5
314
100
AcDbEntity
  8
M0
  6
CONTINUOUS
370
25
100
AcDbCircle
 10
652.076681
 20
378.489775
 40
1.118735
100
AcDbArc
 50
7.923701
 51
48.177269
  0
ARC
  5
315
100
AcDbEntity
  8
M0
  6
CONTINUOUS
370
25
100
AcDbCircle
 10
656.487156
 20
379.103643
 40
3.334256
100
AcDbArc
 50
187.923779
 51
210.917947
  0
ARC
  5
316
100
AcDbEntity
  8
M0
  6
CONTINUOUS
370
25
100
AcDbCircle
 10
654.59345
 20
377.969477
 40
1.126891
100
AcDbArc
 50
210.917946
 51
235.158599
  0
ARC
  5
317
100
AcDbEntity
  8
M0
  6
CONTINUOUS
370
25
100
AcDbCircle
 10
654.706978
 20
378.132569
 40
1.325606
100
AcDbArc
 50
235.158559
 51
257.483224
  0
ARC
  5
318
100
AcDbEntity
  8
M0
  6
CONTINUOUS
370
25
100
AcDbCircle
 10
652.105619
 20
377.455448
 40
2.07058
100
AcDbArc
 50
79.639722
 51
97.881663
  0
ARC
  5
319
100
AcDbEntity
  8
M0
  6
CONTINUOUS
370
25
100
AcDbCircle
 10
652.350697
 20
378.795998
 40
0.707812
100
AcDbArc
 50
48.177371
 51
79.639869
  0
ARC
  5
31A
100
AcDbEntity
  8
M0
  6
CONTINUOUS
370
25
100
AcDbCircle
 10
642.834554
 20
359.300841
 40
0.639603
100
AcDbArc
 50
23.928208
 51
116.973108
  0
ARC
  5
31B
100
AcDbEntity
  8
M0
  6
CONTINUOUS
370
25
100
AcDbCircle
 10
644.003771
 20
359.819547
 40
0.639508
100
AcDbArc
 50
203.919272
 51
296.982161
  0
ARC
  5
31C
100
AcDbEntity
  8
M0
  6
CONTINUOUS
370
25
100
AcDbCircle
 10
641.360286
 20
360.627843
 40
0.502488
100
AcDbArc
 50
-17.915885
 51
109.050341
  0
ARC
  5
31D
100
AcDbEntity
  8
M0
  6
CONTINUOUS
370
25
100
AcDbCircle
 10
642.316533
 20
360.318696
 40
0.502489
100
AcDbArc
 50
162.084638
 51
296.973114
  0
ENDSEC
  0
SECTION
  2
OBJECTS
  0
DICTIONARY
  5
C
100
AcDbDictionary
  3
ACAD_GROUP
350
D
  3
ACAD_MLINESTYLE
350
E
  0
DICTIONARY
  5
D
102
{ACAD_REACTORS
330
C
102
}
100
AcDbDictionary
  0
DICTIONARY
  5
E
102
{ACAD_REACTORS
330
C
102
}
100
AcDbDictionary
  3
STANDARD
350
13
  0
MLINESTYLE
  5
13
102
{ACAD_REACTORS
330
E
102
}
100
AcDbMlineStyle
  2
STANDARD
 70
     0
  3

 62
     0
 51
90.0
 52
90.0
 71
     2
 49
0.5
 62
   256
  6
BYLAYER
 49
-0.5
 62
   256
  6
BYLAYER
  0
ENDSEC
  0
EOF
