  0
SECTION
  2
HEADER
  9
$ACADVER
  1
AC1015
  9
$INSBASE
 10
0.0
 20
0.0
  9
$VIEWCTR
 10
7.531722
 20
4.5
  9
$VIEWSIZE
 40
9.0
  9
$SNAPMODE
 70
     0
  9
$SNAPUNIT
 10
1.0
 20
1.0
  9
$SNAPBASE
 10
0.0
 20
0.0
  9
$SNAPANG
 50
0.0
  9
$SNAPSTYLE
 70
     0
  9
$SNAPISOPAIR
 70
     0
  9
$GRIDMODE
 70
     0
  9
$GRIDUNIT
 10
0.0
 20
0.0
  9
$ORTHOMODE
 70
     0
  9
$REGENMODE
 70
     1
  9
$FILLMODE
 70
     1
  9
$QTEXTMODE
 70
     0
  9
$DRAGMODE
 70
     2
  9
$LTSCALE
 40
1.0
  9
$OSMODE
 70
     0
  9
$ATTMODE
 70
     1
  9
$TEXTSIZE
 40
0.2
  9
$TRACEWID
 40
0.05
  9
$TEXTSTYLE
  7
STANDARD
  9
$CELTYPE
  6
BYLAYER
  9
$CECOLOR
 62
   256
  9
$DIMSCALE
 40
1.0
  9
$DIMASZ
 40
0.18
  9
$DIMEXO
 40
0.0625
  9
$DIMDLI
 40
0.38
  9
$DIMRND
 40
0.0
  9
$DIMDLE
 40
0.0
  9
$DIMEXE
 40
0.18
  9
$DIMTP
 40
0.0
  9
$DIMTM
 40
0.0
  9
$DIMTXT
 40
0.18
  9
$DIMCEN
 40
0.09
  9
$DIMTSZ
 40
0.0
  9
$DIMADEC
 70
     0
  9
$DIMALTRND
 40
0.000000
  9
$DIMAZIN
 70
     0
  9
$DIMDSEP
 70
    46
  9
$DIMATFIT
 70
     3
  9
$DIMFRAC
 70
     0
  9
$DIMLDRBLK
  1

  9
$DIMLUNIT
 70
     2
  9
$DIMLWD
 70
   13
  9
$DIMLWE
 70
   13
  9
$DIMTMOVE
 70
     0
  9
$CELWEIGHT
370
    25
  9
$LWDISPLAY
290
    1
  9
$EXTNAMES
290
    1
  9
$DIMTOL
 70
     0
  9
$DIMLIM
 70
     0
  9
$DIMTIH
 70
     1
  9
$DIMTOH
 70
     1
  9
$DIMSE1
 70
     0
  9
$DIMSE2
 70
     0
  9
$DIMTAD
 70
     0
  9
$DIMZIN
 70
     0
  9
$DIMBLK
  1

  9
$LUNITS
 70
     2
  9
$LUPREC
 70
     4
  9
$AXISMODE
 70
     0
  9
$AXISUNIT
 10
0.0
 20
0.0
  9
$SKETCHINC
 40
0.1
  9
$FILLETRAD
 40
0.0
  9
$AUNITS
 70
     0
  9
$AUPREC
 70
     0
  9
$MENU
  1
ACAD
  9
$ELEVATION
 40
0.0
  9
$THICKNESS
 40
0.0
  9
$VIEWDIR
 10
0.0
 20
0.0
 30
1.0
  9
$LIMCHECK
 70
     0
  9
$BLIPMODE
 70
     1
  9
$CHAMFERA
 40
0.0
  9
$CHAMFERB
 40
0.0
  9
$FASTZOOM
 70
     1
  9
$SKPOLY
 70
     0
  9
$TDCREATE
 40
0000000.0000000000
  9
$TDUPDATE
 40
0000000.0000000000
  9
$TDINDWG
 40
0.0000000000
  9
$TDUSRTIMER
 40
0.0000000000
  9
$USRTIMER
 70
     1
  9
$ANGBASE
 50
0.0
  9
$ANGDIR
 70
     0
  9
$PDMODE
 70
     0
  9
$PDSIZE
 40
0.0
  9
$PLINEWID
 40
0.0
  9
$COORDS
 70
     0
  9
$USERI1
 70
     0
  9
$USERI2
 70
     0
  9
$USERI3
 70
     0
  9
$USERI4
 70
     0
  9
$USERI5
 70
     0
  9
$USERR1
 40
0.0
  9
$USERR2
 40
0.0
  9
$USERR3
 40
0.0
  9
$USERR4
 40
0.0
  9
$USERR5
 40
0.0
  9
$CLAYER
  8
M0
  9
$EXTMIN
 10
0.0
 20
0.0
  9
$EXTMAX
 10
841.0
 20
594.0
  9
$LIMMIN
 10
0.0
 20
0.0
  9
$LIMMAX
 10
841.0
 20
594.0
  9
$HANDSEED
  5
2FF
  0
ENDSEC
  0
SECTION
  2
CLASSES
  0
ENDSEC
  0
SECTION
  2
TABLES
  0
TABLE
  2
VPORT
  5
8
100
AcDbSymbolTable
 70
     2
  0
VPORT
  5
14
100
AcDbSymbolTableRecord
100
AcDbViewportTableRecord
  2
*ACTIVE
 70
     0
 10
0.0
 20
0.0
 11
1.0
 21
1.0
 12
484.0
 22
297.0
 13
0.0
 23
0.0
 14
1.0
 24
1.0
 15
0.0
 25
0.0
 16
0.0
 26
0.0
 36
1.0
 17
0.0
 27
0.0
 37
0.0
 40
594.0
 41
2.0
 42
50.0
 43
0.0
 44
0.0
 50
0.0
 51
0.0
 71
     0
 72
   100
 73
     1
 74
     1
 75
     0
 76
     0
 77
     0
 78
     0
  0
ENDTAB
  0
TABLE
  2
LTYPE
  5
5
100
AcDbSymbolTable
 70
     5
  0
LTYPE
  5
15
100
AcDbSymbolTableRecord
100
AcDbLinetypeTableRecord
  2
BYBLOCK
 70
     0
  3

 72
    65
 73
     0
 40
0.0
  0
LTYPE
  5
16
100
AcDbSymbolTableRecord
100
AcDbLinetypeTableRecord
  2
BYLAYER
 70
     0
  3

 72
    65
 73
     0
 40
0.0
  0
LTYPE
  5
17
100
AcDbSymbolTableRecord
100
AcDbLinetypeTableRecord
  2
CONTINUOUS
 70
    64
  3
Solid line
 72
    65
 73
     0
 40
0.0
  0
LTYPE
  5
18
100
AcDbSymbolTableRecord
100
AcDbLinetypeTableRecord
  2
DASHED
 70
    64
  3
__ __ __ __ __ __ __ __ __ __ __ __ __ __ __ __
 72
    65
 73
     2
 40
0.75
 49
0.5
 74
     0
 49
-0.25
 74
     0
  0
LTYPE
  5
19
100
AcDbSymbolTableRecord
100
AcDbLinetypeTableRecord
  2
DASHDOT
 70
    64
  3
__ . __ . __ . __ . __ . __ . __ . __ . __ . __
 72
    65
 73
     4
 40
1.0
 49
0.5
 74
     0
 49
-0.25
 74
     0
 49
0.0
 74
     0
 49
-0.25
 74
     0
  0
LTYPE
  5
1A
100
AcDbSymbolTableRecord
100
AcDbLinetypeTableRecord
  2
DIVIDE
 70
    64
  3
____ . . ____ . . ____ . . ____ . . ____ . . __
 72
    65
 73
     6
 40
1.25
 49
0.5
 74
     0
 49
-0.25
 74
     0
 49
0.0
 74
     0
 49
-0.25
 74
     0
 49
0.0
 74
     0
 49
-0.25
 74
     0
  0
LTYPE
  5
1B
100
AcDbSymbolTableRecord
100
AcDbLinetypeTableRecord
  2
DOT
 70
    64
  3
. . . . . . . . . . . . . . . . . . . . . . . .
 72
    65
 73
     2
 40
0.25
 49
0.0
 74
     0
 49
-0.25
 74
     0
  0
ENDTAB
  0
TABLE
  2
LAYER
  5
2
100
AcDbSymbolTable
 70
   102
  0
LAYER
  5
F
100
AcDbSymbolTableRecord
100
AcDbLayerTableRecord
  2
0
 70
     0
 62
     7
  6
CONTINUOUS
370
     -3
390
F
  0
LAYER
  5
1C
100
AcDbSymbolTableRecord
100
AcDbLayerTableRecord
  2
M0
 70
     0
 62
     7
  6
CONTINUOUS
370
     -3
390
F
  0
ENDTAB
  0
TABLE
  2
STYLE
  5
3
100
AcDbSymbolTable
 70
     2
  0
STYLE
  5
10
100
AcDbSymbolTableRecord
100
AcDbTextStyleTableRecord
  2
STANDARD
 70
     0
 40
0.0
 41
1.0
 50
0.0
 71
     0
 42
0.2
  3
txt
  4
BIGFONT
  0
ENDTAB
  0
TABLE
  2
VIEW
  5
6
100
AcDbSymbolTable
 70
     0
  0
ENDTAB
  0
TABLE
  2
UCS
  5
7
100
AcDbSymbolTable
 70
     0
  0
ENDTAB
  0
TABLE
  2
APPID
  5
9
100
AcDbSymbolTable
 70
     1
  0
APPID
  5
11
100
AcDbSymbolTableRecord
100
AcDbRegAppTableRecord
  2
ACAD
 70
     0
  0
ENDTAB
  0
TABLE
  2
DIMSTYLE
  5
A
100
AcDbSymbolTable
 70
     2
100
AcDbDimStyleTable
 71
     1
  0
DIMSTYLE
105
23
100
AcDbSymbolTableRecord
100
AcDbDimStyleTableRecord
  2
STANDARD
 70
     0
  3

  4

  5

  6
_OPEN
  7
_OPEN
 40
1.0
 41
3.0
 42
0.5
 43
8.0
 44
1.5
 45
0.0
 46
0.0
 47
0.0
 48
0.0
140
3.15
141
0.09
142
0.0
143
0.03937
144
1.0
145
0.0
146
1.0
147
1.0
148
0.000000
 71
     0
 72
     0
 73
     0
 74
     0
 75
     0
 76
     0
 77
     3
 78
     8
170
     0
171
     2
172
     0
173
     1
174
     0
175
     0
176
     0
177
     0
178
     0
270
     2
271
     2
272
     4
273
     2
274
     2
340
10
275
     0
278
    46
280
     0
281
     0
282
     0
283
     1
284
     0
285
     0
286
     0
287
     3
288
     0
371
   13
372
   13
  0
DIMSTYLE
105
24
100
AcDbSymbolTableRecord
100
AcDbDimStyleTableRecord
  2
LEADSTYL
 70
     0
  3

  4

  5

  6
_OPEN
  7
_OPEN
 40
1.0
 41
3.0
 42
0.0625
 43
0.38
 44
0.18
 45
0.0
 46
0.0
 47
0.0
 48
0.0
140
3.15
141
0.09
142
0.0
143
25.4
144
1.0
145
0.0
146
1.0
147
1.0
 71
     0
 72
     0
 73
     1
 74
     1
 75
     0
 76
     0
 77
     0
 78
     0
170
     0
171
     2
172
     0
173
     1
174
     0
175
     0
176
     0
177
     0
178
     0
270
     2
271
     4
272
     4
273
     2
274
     2
340
10
275
     0
280
     0
281
     0
282
     0
283
     1
284
     0
285
     0
286
     0
287
     3
288
     0
  0
ENDTAB
  0
TABLE
  2
BLOCK_RECORD
  5
1
100
AcDbSymbolTable
 70
     6
  0
BLOCK_RECORD
  5
1D
100
AcDbSymbolTableRecord
100
AcDbBlockTableRecord
  2
*MODEL_SPACE
  0
BLOCK_RECORD
  5
20
100
AcDbSymbolTableRecord
100
AcDbBlockTableRecord
  2
*PAPER_SPACE
  0
BLOCK_RECORD
  5
25
100
AcDbSymbolTableRecord
100
AcDbBlockTableRecord
  2
_NONE
  0
BLOCK_RECORD
  5
29
100
AcDbSymbolTableRecord
100
AcDbBlockTableRecord
  2
_OPEN
  0
BLOCK_RECORD
  5
2F
100
AcDbSymbolTableRecord
100
AcDbBlockTableRecord
  2
_CLOSED
  0
BLOCK_RECORD
  5
36
100
AcDbSymbolTableRecord
100
AcDbBlockTableRecord
  2
_ORIGIN
  0
BLOCK_RECORD
  5
3B
100
AcDbSymbolTableRecord
100
AcDbBlockTableRecord
  2
_DOT
  0
BLOCK_RECORD
  5
43
100
AcDbSymbolTableRecord
100
AcDbBlockTableRecord
  2
_OBLIQUE
  0
ENDTAB
  0
ENDSEC
  0
SECTION
  2
BLOCKS
  0
BLOCK
  5
1E
100
AcDbEntity
  8
0
100
AcDbBlockBegin
  2
*MODEL_SPACE
 70
     0
 10
0.0
 20
0.0
 30
0.0
  3
*MODEL_SPACE
  1

  0
ENDBLK
  5
1F
100
AcDbEntity
  8
0
100
AcDbBlockEnd
  0
BLOCK
  5
21
100
AcDbEntity
 67
     1
  8
0
100
AcDbBlockBegin
  2
*PAPER_SPACE
 70
     0
 10
0.0
 20
0.0
 30
0.0
  3
*PAPER_SPACE
  1

  0
ENDBLK
  5
22
100
AcDbEntity
 67
     1
  8
0
100
AcDbBlockEnd
  0
BLOCK
  5
26
100
AcDbEntity
  8
0
100
AcDbBlockBegin
  2
_NONE
 70
     0
 10
0.0
 20
0.0
  0
CIRCLE
  5
27
100
AcDbEntity
  8
0
 62
     0
370
13
100
AcDbCircle
 10
0.0
 20
0.0
 40
0.25
  0
ENDBLK
  5
28
100
AcDbEntity
  8
0
100
AcDbBlockEnd
  0
BLOCK
  5
2A
100
AcDbEntity
  8
0
100
AcDbBlockBegin
  2
_OPEN
 70
     0
 10
0.0
 20
0.0
  0
LINE
  5
2B
100
AcDbEntity
  8
0
 62
     0
370
13
100
AcDbLine
 10
-0.965926
 20
0.258819
 11
0.0
 21
0.0
  0
LINE
  5
2C
100
AcDbEntity
  8
0
 62
     0
370
13
100
AcDbLine
 10
0.0
 20
0.0
 11
-0.965926
 21
-0.258819
  0
LINE
  5
2D
100
AcDbEntity
  8
0
 62
     0
370
13
100
AcDbLine
 10
0.0
 20
0.0
 11
-1.0
 21
0.0
  0
ENDBLK
  5
2E
100
AcDbEntity
  8
0
100
AcDbBlockEnd
  0
BLOCK
  5
30
100
AcDbEntity
  8
0
100
AcDbBlockBegin
  2
_CLOSED
 70
     0
 10
0.0
 20
0.0
  0
LINE
  5
31
100
AcDbEntity
  8
0
 62
     0
370
13
100
AcDbLine
 10
-0.965926
 20
0.258819
 11
0.0
 21
0.0
  0
LINE
  5
32
100
AcDbEntity
  8
0
 62
     0
370
13
100
AcDbLine
 10
0.0
 20
0.0
 11
-0.965926
 21
-0.258819
  0
LINE
  5
33
100
AcDbEntity
  8
0
 62
     0
370
13
100
AcDbLine
 10
-0.965926
 20
0.258819
 11
-0.965926
 21
-0.258819
  0
LINE
  5
34
100
AcDbEntity
  8
0
 62
     0
370
13
100
AcDbLine
 10
0.0
 20
0.0
 11
-1.0
 21
0.0
  0
ENDBLK
  5
35
100
AcDbEntity
  8
0
100
AcDbBlockEnd
  0
BLOCK
  5
37
100
AcDbEntity
  8
0
100
AcDbBlockBegin
  2
_ORIGIN
 70
     0
 10
0.0
 20
0.0
  0
CIRCLE
  5
38
100
AcDbEntity
  8
0
 62
     0
370
13
100
AcDbCircle
 10
0.0
 20
0.0
 40
0.5
  0
LINE
  5
39
100
AcDbEntity
  8
0
 62
     0
370
13
100
AcDbLine
 10
0.0
 20
0.0
 11
-1.0
 21
0.0
  0
ENDBLK
  5
3A
100
AcDbEntity
  8
0
100
AcDbBlockEnd
  0
BLOCK
  5
3C
100
AcDbEntity
  8
0
100
AcDbBlockBegin
  2
_DOT
 70
     0
 10
0.0
 20
0.0
  0
POLYLINE
  5
3D
100
AcDbEntity
  8
0
 62
     0
100
AcDb2dPolyline
 66
     1
 70
     1
 40
0.5
 41
0.5
  0
VERTEX
  5
3E
100
AcDbEntity
  8
0
 62
     0
100
AcDbVertex
100
AcDb2dVertex
 10
-0.25
 20
0.0
 42
1.0
  0
VERTEX
  5
3F
100
AcDbEntity
  8
0
 62
     0
100
AcDbVertex
100
AcDb2dVertex
 10
0.25
 20
0.0
 42
1.0
  0
SEQEND
  5
40
100
AcDbEntity
  8
0
 62
     0
  0
LINE
  5
41
100
AcDbEntity
  8
0
 62
     0
370
13
100
AcDbLine
 10
-0.5
 20
0.0
 11
-1.0
 21
0.0
  0
ENDBLK
  5
42
100
AcDbEntity
  8
0
100
AcDbBlockEnd
  0
BLOCK
  5
44
100
AcDbEntity
  8
0
100
AcDbBlockBegin
  2
_OBLIQUE
 70
     0
 10
0.0
 20
0.0
  0
LINE
  5
45
100
AcDbEntity
  8
0
 62
     0
370
13
100
AcDbLine
 10
-0.353553
 20
-0.353553
 11
0.353553
 21
0.353553
  0
ENDBLK
  5
46
100
AcDbEntity
  8
0
100
AcDbBlockEnd
  0
ENDSEC
  0
SECTION
  2
ENTITIES
  0
LINE
  5
47
100
AcDbEntity
  8
M0
  6
CONTINUOUS
370
25
100
AcDbLine
 10
368.654891
 20
332.289837
 11
372.854904
 21
338.289867
  0
LINE
  5
48
100
AcDbEntity
  8
M0
  6
CONTINUOUS
370
25
100
AcDbLine
 10
368.654983
 20
338.289745
 11
372.855026
 21
332.289715
  0
LINE
  5
49
100
AcDbEntity
  8
M0
  6
CONTINUOUS
370
25
100
AcDbLine
 10
395.254714
 20
324.290051
 11
398.254714
 21
327.29002
  0
LINE
  5
4A
100
AcDbEntity
  8
M0
  6
CONTINUOUS
370
25
100
AcDbLine
 10
395.254989
 20
327.289806
 11
398.25502
 21
324.289776
  0
LINE
  5
4B
100
AcDbEntity
  8
M0
  6
CONTINUOUS
370
25
100
AcDbLine
 10
454.955306
 20
324.289532
 11
457.254318
 21
327.789501
  0
LINE
  5
4C
100
AcDbEntity
  8
M0
  6
CONTINUOUS
370
25
100
AcDbLine
 10
457.254104
 20
324.289623
 11
454.955032
 21
327.789715
  0
LINE
  5
4D
100
AcDbEntity
  8
M0
  6
CONTINUOUS
370
25
100
AcDbLine
 10
408.25505
 20
345.989758
 11
408.25505
 21
366.289745
  0
LINE
  5
4E
100
AcDbEntity
  8
M0
  6
CONTINUOUS
370
25
100
AcDbLine
 10
393.25505
 20
339.289745
 11
393.25505
 21
325.039745
  0
LINE
  5
4F
100
AcDbEntity
  8
M0
  6
CONTINUOUS
370
25
100
AcDbLine
 10
398.25505
 20
335.289745
 11
400.25505
 21
335.289745
  0
LINE
  5
50
100
AcDbEntity
  8
M0
  6
CONTINUOUS
370
25
100
AcDbLine
 10
395.25505
 20
327.289745
 11
398.25505
 21
327.289745
  0
LINE
  5
51
100
AcDbEntity
  8
M0
  6
CONTINUOUS
370
25
100
AcDbLine
 10
393.25505
 20
325.039745
 11
395.25505
 21
325.039745
  0
LINE
  5
52
100
AcDbEntity
  8
M0
  6
CONTINUOUS
370
25
100
AcDbLine
 10
400.25505
 20
335.289745
 11
400.25505
 21
336.587749
  0
LINE
  5
53
100
AcDbEntity
  8
M0
  6
CONTINUOUS
370
25
100
AcDbLine
 10
398.25505
 20
335.289745
 11
398.25505
 21
327.289745
  0
LINE
  5
54
100
AcDbEntity
  8
M0
  6
CONTINUOUS
370
25
100
AcDbLine
 10
395.25505
 20
327.289745
 11
395.25505
 21
324.289745
  0
LINE
  5
55
100
AcDbEntity
  8
M0
  6
CONTINUOUS
370
25
100
AcDbLine
 10
408.255203
 20
345.989574
 11
401.481185
 21
339.469555
  0
LINE
  5
56
100
AcDbEntity
  8
M0
  6
CONTINUOUS
370
25
100
AcDbLine
 10
404.25505
 20
366.289745
 11
404.25505
 21
359.989758
  0
LINE
  5
57
100
AcDbEntity
  8
M0
  6
CONTINUOUS
370
25
100
AcDbLine
 10
401.75505
 20
359.989758
 11
401.75505
 21
352.289745
  0
LINE
  5
58
100
AcDbEntity
  8
M0
  6
CONTINUOUS
370
25
100
AcDbLine
 10
394.75505
 20
340.789745
 11
394.75505
 21
345.289745
  0
LINE
  5
59
100
AcDbEntity
  8
M0
  6
CONTINUOUS
370
25
100
AcDbLine
 10
391.755142
 20
348.289837
 11
394.755172
 21
345.289806
  0
LINE
  5
5A
100
AcDbEntity
  8
M0
  6
CONTINUOUS
370
25
100
AcDbLine
 10
393.16896
 20
349.703686
 11
393.473953
 21
349.398693
  0
LINE
  5
5B
100
AcDbEntity
  8
M0
  6
CONTINUOUS
370
25
100
AcDbLine
 10
401.755111
 20
352.289654
 11
397.360092
 21
349.09367
  0
LINE
  5
5C
100
AcDbEntity
  8
M0
  6
CONTINUOUS
370
25
100
AcDbLine
 10
393.169113
 20
349.703655
 11
391.755111
 21
348.289654
  0
LINE
  5
5D
100
AcDbEntity
  8
M0
  6
CONTINUOUS
370
25
100
AcDbLine
 10
393.254714
 20
339.29002
 11
394.754745
 21
340.790051
  0
LINE
  5
5E
100
AcDbEntity
  8
M0
  6
CONTINUOUS
370
25
100
AcDbLine
 10
354.75505
 20
346.289745
 11
354.75505
 21
366.289745
  0
LINE
  5
5F
100
AcDbEntity
  8
M0
  6
CONTINUOUS
370
25
100
AcDbLine
 10
354.75505
 20
366.289745
 11
408.25505
 21
366.289745
  0
LINE
  5
60
100
AcDbEntity
  8
M0
  6
CONTINUOUS
370
25
100
AcDbLine
 10
373.75505
 20
333.289745
 11
372.855026
 21
333.289745
  0
LINE
  5
61
100
AcDbEntity
  8
M0
  6
CONTINUOUS
370
25
100
AcDbLine
 10
367.754959
 20
336.05476
 11
367.753952
 21
333.289745
  0
LINE
  5
62
100
AcDbEntity
  8
M0
  6
CONTINUOUS
370
25
100
AcDbLine
 10
354.755081
 20
346.289654
 11
365.851119
 21
339.460644
  0
LINE
  5
63
100
AcDbEntity
  8
M0
  6
CONTINUOUS
370
25
100
AcDbLine
 10
404.25505
 20
359.989758
 11
363.25505
 21
359.989758
  0
LINE
  5
64
100
AcDbEntity
  8
M0
  6
CONTINUOUS
370
25
100
AcDbLine
 10
373.25505
 20
345.289745
 11
373.25505
 21
340.789745
  0
LINE
  5
65
100
AcDbEntity
  8
M0
  6
CONTINUOUS
370
25
100
AcDbLine
 10
363.25505
 20
366.289745
 11
363.25505
 21
359.989758
  0
LINE
  5
66
100
AcDbEntity
  8
M0
  6
CONTINUOUS
370
25
100
AcDbLine
 10
365.75505
 20
359.989758
 11
365.75505
 21
352.289745
  0
LINE
  5
67
100
AcDbEntity
  8
M0
  6
CONTINUOUS
370
25
100
AcDbLine
 10
372.855026
 20
338.289745
 11
368.655014
 21
338.289745
  0
LINE
  5
68
100
AcDbEntity
  8
M0
  6
CONTINUOUS
370
25
100
AcDbLine
 10
368.655014
 20
338.289745
 11
368.655014
 21
332.289745
  0
LINE
  5
69
100
AcDbEntity
  8
M0
  6
CONTINUOUS
370
25
100
AcDbLine
 10
372.855026
 20
338.289745
 11
372.855026
 21
332.289745
  0
LINE
  5
6A
100
AcDbEntity
  8
M0
  6
CONTINUOUS
370
25
100
AcDbLine
 10
373.75505
 20
339.789745
 11
373.75505
 21
333.289745
  0
LINE
  5
6B
100
AcDbEntity
  8
M0
  6
CONTINUOUS
370
25
100
AcDbLine
 10
365.754959
 20
352.289776
 11
370.438949
 21
348.882824
  0
LINE
  5
6C
100
AcDbEntity
  8
M0
  6
CONTINUOUS
370
25
100
AcDbLine
 10
373.254989
 20
340.789776
 11
373.754989
 21
339.789776
  0
LINE
  5
6D
100
AcDbEntity
  8
M0
  6
CONTINUOUS
370
25
100
AcDbLine
 10
375.755142
 20
347.789684
 11
373.255142
 21
345.289684
  0
LINE
  5
6E
100
AcDbEntity
  8
M0
  6
CONTINUOUS
370
25
100
AcDbLine
 10
374.340011
 20
349.203686
 11
374.32405
 21
349.187695
  0
LINE
  5
6F
100
AcDbEntity
  8
M0
  6
CONTINUOUS
370
25
100
AcDbLine
 10
375.75502
 20
347.789776
 11
374.340011
 21
349.203777
  0
LINE
  5
70
100
AcDbEntity
  8
M0
  6
CONTINUOUS
370
25
100
AcDbLine
 10
368.655014
 20
333.289745
 11
367.754013
 21
333.289745
  0
LINE
  5
71
100
AcDbEntity
  8
M0
  6
CONTINUOUS
370
25
100
AcDbLine
 10
409.25505
 20
370.289745
 11
409.25505
 21
382.288738
  0
LINE
  5
72
100
AcDbEntity
  8
M0
  6
CONTINUOUS
370
25
100
AcDbLine
 10
407.25505
 20
382.288738
 11
409.25505
 21
382.288738
  0
LINE
  5
73
100
AcDbEntity
  8
M0
  6
CONTINUOUS
370
25
100
AcDbLine
 10
407.25505
 20
395.288738
 11
407.25505
 21
382.288738
  0
LINE
  5
74
100
AcDbEntity
  8
M0
  6
CONTINUOUS
370
25
100
AcDbLine
 10
409.255172
 20
370.289593
 11
403.005172
 21
367.919598
  0
LINE
  5
75
100
AcDbEntity
  8
M0
  6
CONTINUOUS
370
25
100
AcDbLine
 10
407.255081
 20
395.288708
 11
406.255081
 21
396.288708
  0
LINE
  5
76
100
AcDbEntity
  8
M0
  6
CONTINUOUS
370
25
100
AcDbLine
 10
407.254043
 20
215.289715
 11
406.254043
 21
214.289715
  0
LINE
  5
77
100
AcDbEntity
  8
M0
  6
CONTINUOUS
370
25
100
AcDbLine
 10
407.254013
 20
215.289745
 11
407.254013
 21
305.289745
  0
LINE
  5
78
100
AcDbEntity
  8
M0
  6
CONTINUOUS
370
25
100
AcDbLine
 10
354.754013
 20
370.289745
 11
354.754013
 21
382.288738
  0
LINE
  5
79
100
AcDbEntity
  8
M0
  6
CONTINUOUS
370
25
100
AcDbLine
 10
357.754013
 20
396.288738
 11
406.25505
 21
396.288738
  0
LINE
  5
7A
100
AcDbEntity
  8
M0
  6
CONTINUOUS
370
25
100
AcDbLine
 10
356.754013
 20
382.288738
 11
354.754013
 21
382.288738
  0
LINE
  5
7B
100
AcDbEntity
  8
M0
  6
CONTINUOUS
370
25
100
AcDbLine
 10
403.004013
 20
367.918743
 11
361.004013
 21
367.918743
  0
LINE
  5
7C
100
AcDbEntity
  8
M0
  6
CONTINUOUS
370
25
100
AcDbLine
 10
356.75502
 20
395.288738
 11
356.754013
 21
382.288738
  0
LINE
  5
7D
100
AcDbEntity
  8
M0
  6
CONTINUOUS
370
25
100
AcDbLine
 10
354.754043
 20
370.289654
 11
361.003982
 21
367.919689
  0
LINE
  5
7E
100
AcDbEntity
  8
M0
  6
CONTINUOUS
370
25
100
AcDbLine
 10
356.75505
 20
395.288647
 11
357.754043
 21
396.288647
  0
LINE
  5
7F
100
AcDbEntity
  8
M0
  6
CONTINUOUS
370
25
100
AcDbLine
 10
356.754013
 20
215.289745
 11
356.754013
 21
305.289745
  0
LINE
  5
80
100
AcDbEntity
  8
M0
  6
CONTINUOUS
370
25
100
AcDbLine
 10
356.754043
 20
215.289745
 11
357.754074
 21
214.289715
  0
LINE
  5
81
100
AcDbEntity
  8
M0
  6
CONTINUOUS
370
25
100
AcDbLine
 10
357.754013
 20
214.289745
 11
406.254013
 21
214.289745
  0
LINE
  5
82
100
AcDbEntity
  8
M0
  6
CONTINUOUS
370
25
100
AcDbLine
 10
407.25505
 20
387.288738
 11
410.854049
 21
387.288738
  0
LINE
  5
83
100
AcDbEntity
  8
M0
  6
CONTINUOUS
370
25
100
AcDbLine
 10
407.25505
 20
390.088757
 11
410.854049
 21
390.088757
  0
LINE
  5
84
100
AcDbEntity
  8
M0
  6
CONTINUOUS
370
25
100
AcDbLine
 10
400.204025
 20
356.546734
 11
400.204025
 21
357.789745
  0
LINE
  5
85
100
AcDbEntity
  8
M0
  6
CONTINUOUS
370
25
100
AcDbLine
 10
368.204025
 20
357.789745
 11
368.204025
 21
356.546734
  0
LINE
  5
86
100
AcDbEntity
  8
M0
  6
CONTINUOUS
370
25
100
AcDbLine
 10
399.204025
 20
358.789745
 11
369.204025
 21
358.789745
  0
LINE
  5
87
100
AcDbEntity
  8
M0
  6
CONTINUOUS
370
25
100
AcDbLine
 10
382.204025
 20
334.289745
 11
382.204025
 21
345.260754
  0
LINE
  5
88
100
AcDbEntity
  8
M0
  6
CONTINUOUS
370
25
100
AcDbLine
 10
386.204025
 20
334.289745
 11
386.204025
 21
345.260754
  0
LINE
  5
89
100
AcDbEntity
  8
M0
  6
CONTINUOUS
370
25
100
AcDbLine
 10
382.704025
 20
333.789745
 11
385.704025
 21
333.789745
  0
LINE
  5
8A
100
AcDbEntity
  8
M0
  6
CONTINUOUS
370
25
100
AcDbLine
 10
368.412918
 20
356.139721
 11
381.365982
 21
346.887676
  0
LINE
  5
8B
100
AcDbEntity
  8
M0
  6
CONTINUOUS
370
25
100
AcDbLine
 10
399.995132
 20
356.13966
 11
387.042098
 21
346.887615
  0
LINE
  5
8C
100
AcDbEntity
  8
M0
  6
CONTINUOUS
370
25
100
AcDbLine
 10
382.203994
 20
334.289776
 11
382.703964
 21
333.789776
  0
LINE
  5
8D
100
AcDbEntity
  8
M0
  6
CONTINUOUS
370
25
100
AcDbLine
 10
386.204116
 20
334.289623
 11
385.704116
 21
333.789623
  0
LINE
  5
8E
100
AcDbEntity
  8
M0
  6
CONTINUOUS
370
25
100
AcDbLine
 10
329.856735
 20
305.289745
 11
343.780983
 21
305.289745
  0
LINE
  5
8F
100
AcDbEntity
  8
M0
  6
CONTINUOUS
370
25
100
AcDbLine
 10
472.204055
 20
305.289776
 11
472.203048
 21
322.289776
  0
LINE
  5
90
100
AcDbEntity
  8
M0
  6
CONTINUOUS
370
25
100
AcDbLine
 10
375.704025
 20
345.289745
 11
374.704025
 21
345.289745
  0
LINE
  5
91
100
AcDbEntity
  8
M0
  6
CONTINUOUS
370
25
100
AcDbLine
 10
340.204025
 20
322.289745
 11
340.204025
 21
305.289745
  0
LINE
  5
92
100
AcDbEntity
  8
M0
  6
CONTINUOUS
370
25
100
AcDbLine
 10
362.704025
 20
332.289745
 11
362.704025
 21
322.789745
  0
LINE
  5
93
100
AcDbEntity
  8
M0
  6
CONTINUOUS
370
25
100
AcDbLine
 10
342.704025
 20
326.789745
 11
342.704025
 21
321.789745
  0
LINE
  5
94
100
AcDbEntity
  8
M0
  6
CONTINUOUS
370
25
100
AcDbLine
 10
344.354049
 20
326.789745
 11
344.354049
 21
321.789745
  0
LINE
  5
95
100
AcDbEntity
  8
M0
  6
CONTINUOUS
370
25
100
AcDbLine
 10
374.704025
 20
345.289745
 11
374.704025
 21
341.789745
  0
LINE
  5
96
100
AcDbEntity
  8
M0
  6
CONTINUOUS
370
25
100
AcDbLine
 10
376.704025
 20
341.789745
 11
376.704025
 21
332.289745
  0
LINE
  5
97
100
AcDbEntity
  8
M0
  6
CONTINUOUS
370
25
100
AcDbLine
 10
383.704025
 20
333.789745
 11
383.704025
 21
324.289745
  0
LINE
  5
98
100
AcDbEntity
  8
M0
  6
CONTINUOUS
370
25
100
AcDbLine
 10
382.204025
 20
342.789745
 11
382.204025
 21
333.789745
  0
LINE
  5
99
100
AcDbEntity
  8
M0
  6
CONTINUOUS
370
25
100
AcDbLine
 10
457.704025
 20
324.289745
 11
457.704025
 21
323.789745
  0
LINE
  5
9A
100
AcDbEntity
  8
M0
  6
CONTINUOUS
370
25
100
AcDbLine
 10
458.704025
 20
322.789745
 11
471.704025
 21
322.789745
  0
LINE
  5
9B
100
AcDbEntity
  8
M0
  6
CONTINUOUS
370
25
100
AcDbLine
 10
388.704025
 20
324.289745
 11
457.704025
 21
324.289745
  0
LINE
  5
9C
100
AcDbEntity
  8
M0
  6
CONTINUOUS
370
25
100
AcDbLine
 10
384.204025
 20
323.789745
 11
388.204025
 21
323.789745
  0
LINE
  5
9D
100
AcDbEntity
  8
M0
  6
CONTINUOUS
370
25
100
AcDbLine
 10
382.204025
 20
333.789745
 11
383.704025
 21
333.789745
  0
LINE
  5
9E
100
AcDbEntity
  8
M0
  6
CONTINUOUS
370
25
100
AcDbLine
 10
378.204025
 20
342.789745
 11
382.204025
 21
342.789745
  0
LINE
  5
9F
100
AcDbEntity
  8
M0
  6
CONTINUOUS
370
25
100
AcDbLine
 10
374.704025
 20
341.789745
 11
376.704025
 21
341.789745
  0
LINE
  5
A0
100
AcDbEntity
  8
M0
  6
CONTINUOUS
370
25
100
AcDbLine
 10
362.704025
 20
332.289745
 11
376.704025
 21
332.289745
  0
LINE
  5
A1
100
AcDbEntity
  8
M0
  6
CONTINUOUS
370
25
100
AcDbLine
 10
340.704025
 20
322.789745
 11
342.704025
 21
322.789745
  0
LINE
  5
A2
100
AcDbEntity
  8
M0
  6
CONTINUOUS
370
25
100
AcDbLine
 10
342.704025
 20
321.789745
 11
344.354049
 21
321.789745
  0
LINE
  5
A3
100
AcDbEntity
  8
M0
  6
CONTINUOUS
370
25
100
AcDbLine
 10
375.704055
 20
345.289684
 11
378.204055
 21
342.789715
  0
LINE
  5
A4
100
AcDbEntity
  8
M0
  6
CONTINUOUS
370
25
100
AcDbLine
 10
471.703994
 20
322.789745
 11
472.203018
 21
322.289715
  0
LINE
  5
A5
100
AcDbEntity
  8
M0
  6
CONTINUOUS
370
25
100
AcDbLine
 10
340.704147
 20
322.789684
 11
340.204147
 21
322.289654
  0
LINE
  5
A6
100
AcDbEntity
  8
M0
  6
CONTINUOUS
370
25
100
AcDbLine
 10
344.354049
 20
322.789745
 11
362.704025
 21
322.789745
  0
LINE
  5
A7
100
AcDbEntity
  8
M0
  6
CONTINUOUS
370
25
100
AcDbLine
 10
459.75505
 20
322.789745
 11
470.75505
 21
322.789745
  0
LINE
  5
A8
100
AcDbEntity
  8
M0
  6
CONTINUOUS
370
25
100
AcDbLine
 10
472.25505
 20
324.289745
 11
472.25505
 21
334.789745
  0
LINE
  5
A9
100
AcDbEntity
  8
M0
  6
CONTINUOUS
370
25
100
AcDbLine
 10
470.75505
 20
336.289745
 11
459.75505
 21
336.289745
  0
LINE
  5
AA
100
AcDbEntity
  8
M0
  6
CONTINUOUS
370
25
100
AcDbLine
 10
458.25505
 20
334.789745
 11
458.25505
 21
324.289745
  0
LINE
  5
AB
100
AcDbEntity
  8
M0
  6
CONTINUOUS
370
25
100
AcDbLine
 10
458.25505
 20
327.289745
 11
461.358016
 21
327.289745
  0
LINE
  5
AC
100
AcDbEntity
  8
M0
  6
CONTINUOUS
370
25
100
AcDbLine
 10
472.25505
 20
331.789745
 11
469.152023
 21
331.789745
  0
LINE
  5
AD
100
AcDbEntity
  8
M0
  6
CONTINUOUS
370
25
100
AcDbLine
 10
471.00505
 20
325.039745
 11
471.00505
 21
334.039745
  0
LINE
  5
AE
100
AcDbEntity
  8
M0
  6
CONTINUOUS
370
25
100
AcDbLine
 10
459.50505
 20
334.039745
 11
459.50505
 21
325.039745
  0
LINE
  5
AF
100
AcDbEntity
  8
M0
  6
CONTINUOUS
370
25
100
AcDbLine
 10
461.358016
 20
331.789745
 11
458.25505
 21
331.789745
  0
LINE
  5
B0
100
AcDbEntity
  8
M0
  6
CONTINUOUS
370
25
100
AcDbLine
 10
469.152023
 20
327.289745
 11
472.25505
 21
327.289745
  0
LINE
  5
B1
100
AcDbEntity
  8
M0
  6
CONTINUOUS
370
25
100
AcDbLine
 10
472.255081
 20
336.289715
 11
472.254074
 21
339.789715
  0
LINE
  5
B2
100
AcDbEntity
  8
M0
  6
CONTINUOUS
370
25
100
AcDbLine
 10
467.25505
 20
375.038738
 11
461.25505
 21
375.038738
  0
LINE
  5
B3
100
AcDbEntity
  8
M0
  6
CONTINUOUS
370
25
100
AcDbLine
 10
398.25505
 20
334.789745
 11
398.25505
 21
324.289745
  0
LINE
  5
B4
100
AcDbEntity
  8
M0
  6
CONTINUOUS
370
25
100
AcDbLine
 10
467.25505
 20
340.289745
 11
467.25505
 21
375.039745
  0
LINE
  5
B5
100
AcDbEntity
  8
M0
  6
CONTINUOUS
370
25
100
AcDbLine
 10
461.25505
 20
352.789745
 11
461.25505
 21
375.039745
  0
LINE
  5
B6
100
AcDbEntity
  8
M0
  6
CONTINUOUS
370
25
100
AcDbLine
 10
457.254989
 20
342.289745
 11
457.253982
 21
352.289745
  0
LINE
  5
B7
100
AcDbEntity
  8
M0
  6
CONTINUOUS
370
25
100
AcDbLine
 10
451.75505
 20
336.789745
 11
451.75505
 21
340.289745
  0
LINE
  5
B8
100
AcDbEntity
  8
M0
  6
CONTINUOUS
370
25
100
AcDbLine
 10
408.75505
 20
333.789745
 11
408.75505
 21
338.789745
  0
LINE
  5
B9
100
AcDbEntity
  8
M0
  6
CONTINUOUS
370
25
100
AcDbLine
 10
410.955001
 20
333.789745
 11
410.955001
 21
335.289745
  0
LINE
  5
BA
100
AcDbEntity
  8
M0
  6
CONTINUOUS
370
25
100
AcDbLine
 10
467.25505
 20
340.289745
 11
471.75505
 21
340.289745
  0
LINE
  5
BB
100
AcDbEntity
  8
M0
  6
CONTINUOUS
370
25
100
AcDbLine
 10
457.75505
 20
352.789745
 11
461.25505
 21
352.789745
  0
LINE
  5
BC
100
AcDbEntity
  8
M0
  6
CONTINUOUS
370
25
100
AcDbLine
 10
451.75505
 20
340.289745
 11
455.25505
 21
340.289745
  0
LINE
  5
BD
100
AcDbEntity
  8
M0
  6
CONTINUOUS
370
25
100
AcDbLine
 10
398.75505
 20
335.289745
 11
408.75505
 21
335.289745
  0
LINE
  5
BE
100
AcDbEntity
  8
M0
  6
CONTINUOUS
370
25
100
AcDbLine
 10
408.75505
 20
333.789745
 11
410.955001
 21
333.789745
  0
LINE
  5
BF
100
AcDbEntity
  8
M0
  6
CONTINUOUS
370
25
100
AcDbLine
 10
410.955001
 20
335.289745
 11
450.25505
 21
335.289745
  0
LINE
  5
C0
100
AcDbEntity
  8
M0
  6
CONTINUOUS
370
25
100
AcDbLine
 10
458.25505
 20
330.289745
 11
458.25505
 21
336.289745
  0
LINE
  5
C1
100
AcDbEntity
  8
M0
  6
CONTINUOUS
370
25
100
AcDbLine
 10
457.25505
 20
324.289745
 11
457.25505
 21
330.289745
  0
LINE
  5
C2
100
AcDbEntity
  8
M0
  6
CONTINUOUS
370
25
100
AcDbLine
 10
454.955001
 20
324.289745
 11
454.955001
 21
327.789745
  0
LINE
  5
C3
100
AcDbEntity
  8
M0
  6
CONTINUOUS
370
25
100
AcDbLine
 10
458.25505
 20
336.289745
 11
472.25505
 21
336.289745
  0
LINE
  5
C4
100
AcDbEntity
  8
M0
  6
CONTINUOUS
370
25
100
AcDbLine
 10
457.25505
 20
330.289745
 11
458.25505
 21
330.289745
  0
LINE
  5
C5
100
AcDbEntity
  8
M0
  6
CONTINUOUS
370
25
100
AcDbLine
 10
398.25505
 20
325.289745
 11
454.955001
 21
325.289745
  0
LINE
  5
C6
100
AcDbEntity
  8
M0
  6
CONTINUOUS
370
25
100
AcDbLine
 10
454.955001
 20
327.789745
 11
457.25505
 21
327.789745
  0
LINE
  5
C7
100
AcDbEntity
  8
M0
  6
CONTINUOUS
370
25
100
AcDbLine
 10
398.755081
 20
335.289715
 11
398.255111
 21
334.789715
  0
LINE
  5
C8
100
AcDbEntity
  8
M0
  6
CONTINUOUS
370
25
100
AcDbLine
 10
457.75502
 20
352.789867
 11
457.253982
 21
352.289867
  0
LINE
  5
C9
100
AcDbEntity
  8
M0
  6
CONTINUOUS
370
25
100
AcDbLine
 10
471.754989
 20
340.289745
 11
472.253982
 21
339.789715
  0
LINE
  5
CA
100
AcDbEntity
  8
M0
  6
CONTINUOUS
370
25
100
AcDbLine
 10
467.25505
 20
305.289745
 11
467.25505
 21
235.539745
  0
LINE
  5
CB
100
AcDbEntity
  8
M0
  6
CONTINUOUS
370
25
100
AcDbLine
 10
467.25505
 20
235.539745
 11
462.25505
 21
235.539745
  0
LINE
  5
CC
100
AcDbEntity
  8
M0
  6
CONTINUOUS
370
25
100
AcDbLine
 10
472.256942
 20
309.535686
 11
472.253952
 21
270.789715
  0
LINE
  5
CD
100
AcDbEntity
  8
M0
  6
CONTINUOUS
370
25
100
AcDbLine
 10
467.25505
 20
270.289745
 11
471.75505
 21
270.289745
  0
LINE
  5
CE
100
AcDbEntity
  8
M0
  6
CONTINUOUS
370
25
100
AcDbLine
 10
471.755081
 20
270.2897
 11
472.254043
 21
270.789669
  0
LINE
  5
CF
100
AcDbEntity
  8
M0
  6
CONTINUOUS
370
25
100
AcDbLine
 10
340.204025
 20
317.789745
 11
385.203048
 21
317.789745
  0
LINE
  5
D0
100
AcDbEntity
  8
M0
  6
CONTINUOUS
370
25
100
AcDbLine
 10
340.204025
 20
320.789745
 11
472.204025
 21
320.789745
  0
LINE
  5
D1
100
AcDbEntity
  8
M0
  6
CONTINUOUS
370
25
100
AcDbLine
 10
427.203048
 20
317.739758
 11
427.203048
 21
305.289745
  0
LINE
  5
D2
100
AcDbEntity
  8
M0
  6
CONTINUOUS
370
25
100
AcDbLine
 10
385.203048
 20
317.739758
 11
385.203048
 21
305.289745
  0
LINE
  5
D3
100
AcDbEntity
  8
M0
  6
CONTINUOUS
370
25
100
AcDbLine
 10
385.502975
 20
318.039745
 11
426.902999
 21
318.039745
  0
LINE
  5
D4
100
AcDbEntity
  8
M0
  6
CONTINUOUS
370
25
100
AcDbLine
 10
427.203048
 20
317.789745
 11
472.204025
 21
317.789745
  0
LINE
  5
D5
100
AcDbEntity
  8
M0
  6
CONTINUOUS
370
25
100
AcDbLine
 10
357.254013
 20
322.789745
 11
346.254013
 21
322.789745
  0
LINE
  5
D6
100
AcDbEntity
  8
M0
  6
CONTINUOUS
370
25
100
AcDbLine
 10
344.754013
 20
322.789745
 11
344.754013
 21
337.789745
  0
LINE
  5
D7
100
AcDbEntity
  8
M0
  6
CONTINUOUS
370
25
100
AcDbLine
 10
346.254013
 20
336.289745
 11
357.254013
 21
336.289745
  0
LINE
  5
D8
100
AcDbEntity
  8
M0
  6
CONTINUOUS
370
25
100
AcDbLine
 10
358.754013
 20
334.789745
 11
358.754013
 21
322.789745
  0
LINE
  5
D9
100
AcDbEntity
  8
M0
  6
CONTINUOUS
370
25
100
AcDbLine
 10
358.754013
 20
327.289745
 11
355.651046
 21
327.289745
  0
LINE
  5
DA
100
AcDbEntity
  8
M0
  6
CONTINUOUS
370
25
100
AcDbLine
 10
344.754013
 20
331.789745
 11
347.856979
 21
331.789745
  0
LINE
  5
DB
100
AcDbEntity
  8
M0
  6
CONTINUOUS
370
25
100
AcDbLine
 10
346.004013
 20
325.039745
 11
346.004013
 21
334.039745
  0
LINE
  5
DC
100
AcDbEntity
  8
M0
  6
CONTINUOUS
370
25
100
AcDbLine
 10
357.504013
 20
334.039745
 11
357.504013
 21
325.039745
  0
LINE
  5
DD
100
AcDbEntity
  8
M0
  6
CONTINUOUS
370
25
100
AcDbLine
 10
355.651046
 20
331.789745
 11
358.754013
 21
331.789745
  0
LINE
  5
DE
100
AcDbEntity
  8
M0
  6
CONTINUOUS
370
25
100
AcDbLine
 10
347.856979
 20
327.289745
 11
344.754013
 21
327.289745
  0
LINE
  5
DF
100
AcDbEntity
  8
M0
  6
CONTINUOUS
370
25
100
AcDbLine
 10
386.204025
 20
342.789745
 11
386.204025
 21
334.289745
  0
LINE
  5
E0
100
AcDbEntity
  8
M0
  6
CONTINUOUS
370
25
100
AcDbLine
 10
386.704025
 20
342.500744
 11
386.704025
 21
334.289745
  0
LINE
  5
E1
100
AcDbEntity
  8
M0
  6
CONTINUOUS
370
25
100
AcDbLine
 10
392.266067
 20
346.289593
 11
386.204116
 21
342.789623
  0
LINE
  5
E2
100
AcDbEntity
  8
M0
  6
CONTINUOUS
370
25
100
AcDbLine
 10
392.515823
 20
345.856976
 11
386.703811
 21
342.500927
  0
LINE
  5
E3
100
AcDbEntity
  8
M0
  6
CONTINUOUS
370
25
100
AcDbLine
 10
386.204025
 20
334.289745
 11
386.704025
 21
334.289745
  0
LINE
  5
E4
100
AcDbEntity
  8
M0
  6
CONTINUOUS
370
25
100
AcDbLine
 10
392.265914
 20
346.289715
 11
392.515945
 21
345.856701
  0
LINE
  5
E5
100
AcDbEntity
  8
M0
  6
CONTINUOUS
370
25
100
AcDbLine
 10
408.75505
 20
338.789745
 11
410.75505
 21
338.789745
  0
LINE
  5
E6
100
AcDbEntity
  8
M0
  6
CONTINUOUS
370
25
100
AcDbLine
 10
428.75505
 20
340.289745
 11
433.75505
 21
340.289745
  0
LINE
  5
E7
100
AcDbEntity
  8
M0
  6
CONTINUOUS
370
25
100
AcDbLine
 10
362.704025
 20
322.789745
 11
362.704025
 21
340.289745
  0
LINE
  5
E8
100
AcDbEntity
  8
M0
  6
CONTINUOUS
370
25
100
AcDbLine
 10
362.704025
 20
340.289745
 11
361.704025
 21
340.289745
  0
LINE
  5
E9
100
AcDbEntity
  8
M0
  6
CONTINUOUS
370
25
100
AcDbLine
 10
361.704025
 20
340.289745
 11
361.704025
 21
322.789745
  0
LINE
  5
EA
100
AcDbEntity
  8
M0
  6
CONTINUOUS
370
25
100
AcDbLine
 10
361.704025
 20
322.789745
 11
362.704025
 21
322.789745
  0
LINE
  5
EB
100
AcDbEntity
  8
M0
  6
CONTINUOUS
370
25
100
AcDbLine
 10
342.704025
 20
326.789745
 11
344.354049
 21
326.789745
  0
LINE
  5
EC
100
AcDbEntity
  8
M0
  6
CONTINUOUS
370
25
100
AcDbLine
 10
342.754013
 20
332.789745
 11
344.754013
 21
332.789745
  0
LINE
  5
ED
100
AcDbEntity
  8
M0
  6
CONTINUOUS
370
25
100
AcDbLine
 10
358.754013
 20
327.789745
 11
361.704025
 21
327.789745
  0
LINE
  5
EE
100
AcDbEntity
  8
M0
  6
CONTINUOUS
370
25
100
AcDbLine
 10
455.017013
 20
345.288738
 11
468.975997
 21
345.288738
  0
LINE
  5
EF
100
AcDbEntity
  8
M0
  6
CONTINUOUS
370
25
100
AcDbLine
 10
451.75505
 20
352.789745
 11
451.75505
 21
356.789745
  0
LINE
  5
F0
100
AcDbEntity
  8
M0
  6
CONTINUOUS
370
25
100
AcDbLine
 10
418.75505
 20
386.289745
 11
407.75505
 21
386.289745
  0
LINE
  5
F1
100
AcDbEntity
  8
M0
  6
CONTINUOUS
370
25
100
AcDbLine
 10
407.75505
 20
386.289745
 11
407.75505
 21
382.289745
  0
LINE
  5
F2
100
AcDbEntity
  8
M0
  6
CONTINUOUS
370
25
100
AcDbLine
 10
409.25505
 20
382.289745
 11
409.25505
 21
369.289745
  0
LINE
  5
F3
100
AcDbEntity
  8
M0
  6
CONTINUOUS
370
25
100
AcDbLine
 10
418.75505
 20
386.289745
 11
418.75505
 21
365.268749
  0
LINE
  5
F4
100
AcDbEntity
  8
M0
  6
CONTINUOUS
370
25
100
AcDbLine
 10
433.75505
 20
347.789745
 11
433.75505
 21
351.789745
  0
LINE
  5
F5
100
AcDbEntity
  8
M0
  6
CONTINUOUS
370
25
100
AcDbLine
 10
428.75505
 20
347.789745
 11
428.75505
 21
351.789745
  0
LINE
  5
F6
100
AcDbEntity
  8
M0
  6
CONTINUOUS
370
25
100
AcDbLine
 10
410.75505
 20
352.789745
 11
410.75505
 21
354.289745
  0
LINE
  5
F7
100
AcDbEntity
  8
M0
  6
CONTINUOUS
370
25
100
AcDbLine
 10
407.75505
 20
382.289745
 11
409.25505
 21
382.289745
  0
LINE
  5
F8
100
AcDbEntity
  8
M0
  6
CONTINUOUS
370
25
100
AcDbLine
 10
409.25505
 20
369.289745
 11
411.75505
 21
369.289745
  0
LINE
  5
F9
100
AcDbEntity
  8
M0
  6
CONTINUOUS
370
25
100
AcDbLine
 10
410.75505
 20
352.789745
 11
427.75505
 21
352.789745
  0
LINE
  5
FA
100
AcDbEntity
  8
M0
  6
CONTINUOUS
370
25
100
AcDbLine
 10
428.75505
 20
347.789745
 11
433.75505
 21
347.789745
  0
LINE
  5
FB
100
AcDbEntity
  8
M0
  6
CONTINUOUS
370
25
100
AcDbLine
 10
434.75505
 20
352.789745
 11
451.75505
 21
352.789745
  0
LINE
  5
FC
100
AcDbEntity
  8
M0
  6
CONTINUOUS
370
25
100
AcDbLine
 10
451.754989
 20
356.789623
 11
424.210983
 21
359.293621
  0
LINE
  5
FD
100
AcDbEntity
  8
M0
  6
CONTINUOUS
370
25
100
AcDbLine
 10
410.75502
 20
354.289715
 11
413.75502
 21
356.351727
  0
LINE
  5
FE
100
AcDbEntity
  8
M0
  6
CONTINUOUS
370
25
100
AcDbLine
 10
413.75505
 20
367.289745
 11
413.75505
 21
356.351757
  0
LINE
  5
FF
100
AcDbEntity
  8
M0
  6
CONTINUOUS
370
25
100
AcDbLine
 10
418.75502
 20
369.289715
 11
423.538986
 21
361.713757
  0
LINE
  5
100
100
AcDbEntity
  8
M0
  6
CONTINUOUS
370
25
100
AcDbLine
 10
418.75505
 20
224.289745
 11
407.254013
 21
224.289745
  0
LINE
  5
101
100
AcDbEntity
  8
M0
  6
CONTINUOUS
370
25
100
AcDbLine
 10
418.75505
 20
224.289745
 11
418.75505
 21
305.289745
  0
LINE
  5
102
100
AcDbEntity
  8
M0
  6
CONTINUOUS
370
25
100
AcDbLine
 10
418.755233
 20
241.289639
 11
423.539199
 21
248.865627
  0
LINE
  5
103
100
AcDbEntity
  8
M0
  6
CONTINUOUS
370
25
100
AcDbLine
 10
430.255081
 20
251.834774
 11
424.211044
 21
251.285763
  0
LINE
  5
104
100
AcDbEntity
  8
M0
  6
CONTINUOUS
370
25
100
AcDbLine
 10
435.75505
 20
335.289745
 11
449.75505
 21
335.289745
  0
LINE
  5
105
100
AcDbEntity
  8
M0
  6
CONTINUOUS
370
25
100
AcDbLine
 10
451.75505
 20
337.289745
 11
451.75505
 21
350.789745
  0
LINE
  5
106
100
AcDbEntity
  8
M0
  6
CONTINUOUS
370
25
100
AcDbLine
 10
449.75505
 20
352.789745
 11
435.75505
 21
352.789745
  0
LINE
  5
107
100
AcDbEntity
  8
M0
  6
CONTINUOUS
370
25
100
AcDbLine
 10
433.75505
 20
350.789745
 11
433.75505
 21
335.289745
  0
LINE
  5
108
100
AcDbEntity
  8
M0
  6
CONTINUOUS
370
25
100
AcDbLine
 10
433.75505
 20
341.122753
 11
437.703048
 21
341.122753
  0
LINE
  5
109
100
AcDbEntity
  8
M0
  6
CONTINUOUS
370
25
100
AcDbLine
 10
451.75505
 20
346.955761
 11
447.806014
 21
346.955761
  0
LINE
  5
10A
100
AcDbEntity
  8
M0
  6
CONTINUOUS
370
25
100
AcDbLine
 10
450.171005
 20
338.206738
 11
450.171005
 21
349.872753
  0
LINE
  5
10B
100
AcDbEntity
  8
M0
  6
CONTINUOUS
370
25
100
AcDbLine
 10
435.338058
 20
349.872753
 11
435.338058
 21
338.206738
  0
LINE
  5
10C
100
AcDbEntity
  8
M0
  6
CONTINUOUS
370
25
100
AcDbLine
 10
437.703048
 20
346.955761
 11
433.75505
 21
346.955761
  0
LINE
  5
10D
100
AcDbEntity
  8
M0
  6
CONTINUOUS
370
25
100
AcDbLine
 10
447.806014
 20
341.122753
 11
451.75505
 21
341.122753
  0
LINE
  5
10E
100
AcDbEntity
  8
M0
  6
CONTINUOUS
370
25
100
AcDbLine
 10
426.75505
 20
335.289745
 11
412.75505
 21
335.289745
  0
LINE
  5
10F
100
AcDbEntity
  8
M0
  6
CONTINUOUS
370
25
100
AcDbLine
 10
410.75505
 20
333.789745
 11
410.75505
 21
350.789745
  0
LINE
  5
110
100
AcDbEntity
  8
M0
  6
CONTINUOUS
370
25
100
AcDbLine
 10
412.75505
 20
352.789745
 11
426.75505
 21
352.789745
  0
LINE
  5
111
100
AcDbEntity
  8
M0
  6
CONTINUOUS
370
25
100
AcDbLine
 10
428.75505
 20
350.789745
 11
428.75505
 21
335.289745
  0
LINE
  5
112
100
AcDbEntity
  8
M0
  6
CONTINUOUS
370
25
100
AcDbLine
 10
428.75505
 20
341.122753
 11
424.806014
 21
341.122753
  0
LINE
  5
113
100
AcDbEntity
  8
M0
  6
CONTINUOUS
370
25
100
AcDbLine
 10
410.75505
 20
346.955761
 11
414.703048
 21
346.955761
  0
LINE
  5
114
100
AcDbEntity
  8
M0
  6
CONTINUOUS
370
25
100
AcDbLine
 10
412.338058
 20
338.206738
 11
412.338058
 21
349.872753
  0
LINE
  5
115
100
AcDbEntity
  8
M0
  6
CONTINUOUS
370
25
100
AcDbLine
 10
427.171005
 20
349.872753
 11
427.171005
 21
338.206738
  0
LINE
  5
116
100
AcDbEntity
  8
M0
  6
CONTINUOUS
370
25
100
AcDbLine
 10
424.806014
 20
346.955761
 11
428.75505
 21
346.955761
  0
LINE
  5
117
100
AcDbEntity
  8
M0
  6
CONTINUOUS
370
25
100
AcDbLine
 10
414.703048
 20
341.122753
 11
410.75505
 21
341.122753
  0
LINE
  5
118
100
AcDbEntity
  8
M0
  6
CONTINUOUS
370
25
100
AcDbLine
 10
420.753982
 20
275.138744
 11
418.753982
 21
275.139751
  0
LINE
  5
119
100
AcDbEntity
  8
M0
  6
CONTINUOUS
370
25
100
AcDbLine
 10
418.754013
 20
275.139751
 11
418.754013
 21
262.939739
  0
LINE
  5
11A
100
AcDbEntity
  8
M0
  6
CONTINUOUS
370
25
100
AcDbLine
 10
418.754013
 20
262.939739
 11
420.754013
 21
262.939739
  0
LINE
  5
11B
100
AcDbEntity
  8
M0
  6
CONTINUOUS
370
25
100
AcDbLine
 10
420.754013
 20
262.939739
 11
420.754013
 21
275.139751
  0
LINE
  5
11C
100
AcDbEntity
  8
M0
  6
CONTINUOUS
370
25
100
AcDbLine
 10
424.218002
 20
274.812756
 11
420.754013
 21
274.812756
  0
LINE
  5
11D
100
AcDbEntity
  8
M0
  6
CONTINUOUS
370
25
100
AcDbLine
 10
420.754013
 20
274.812756
 11
420.754013
 21
263.265759
  0
LINE
  5
11E
100
AcDbEntity
  8
M0
  6
CONTINUOUS
370
25
100
AcDbLine
 10
420.754013
 20
263.265759
 11
424.218002
 21
263.265759
  0
LINE
  5
11F
100
AcDbEntity
  8
M0
  6
CONTINUOUS
370
25
100
AcDbLine
 10
424.754013
 20
264.652752
 11
424.754013
 21
273.425762
  0
LINE
  5
120
100
AcDbEntity
  8
M0
  6
CONTINUOUS
370
25
100
AcDbLine
 10
424.218002
 20
272.039745
 11
420.754013
 21
272.039745
  0
LINE
  5
121
100
AcDbEntity
  8
M0
  6
CONTINUOUS
370
25
100
AcDbLine
 10
420.754013
 20
266.039745
 11
424.218002
 21
266.039745
  0
LINE
  5
122
100
AcDbEntity
  8
M0
  6
CONTINUOUS
370
25
100
AcDbLine
 10
420.754013
 20
269.38876
 11
418.754013
 21
267.388744
  0
LINE
  5
123
100
AcDbEntity
  8
M0
  6
CONTINUOUS
370
25
100
AcDbLine
 10
420.754104
 20
271.188641
 11
418.754135
 21
269.188656
  0
LINE
  5
124
100
AcDbEntity
  8
M0
  6
CONTINUOUS
370
25
100
AcDbLine
 10
420.754135
 20
238.888729
 11
418.754135
 21
238.889736
  0
LINE
  5
125
100
AcDbEntity
  8
M0
  6
CONTINUOUS
370
25
100
AcDbLine
 10
418.754013
 20
238.889751
 11
418.754013
 21
226.689754
  0
LINE
  5
126
100
AcDbEntity
  8
M0
  6
CONTINUOUS
370
25
100
AcDbLine
 10
418.754013
 20
226.689754
 11
420.754013
 21
226.689754
  0
LINE
  5
127
100
AcDbEntity
  8
M0
  6
CONTINUOUS
370
25
100
AcDbLine
 10
420.754013
 20
226.689754
 11
420.754013
 21
238.889751
  0
LINE
  5
128
100
AcDbEntity
  8
M0
  6
CONTINUOUS
370
25
100
AcDbLine
 10
424.218002
 20
238.562756
 11
420.754013
 21
238.562756
  0
LINE
  5
129
100
AcDbEntity
  8
M0
  6
CONTINUOUS
370
25
100
AcDbLine
 10
420.754013
 20
238.562756
 11
420.754013
 21
227.015743
  0
LINE
  5
12A
100
AcDbEntity
  8
M0
  6
CONTINUOUS
370
25
100
AcDbLine
 10
420.754013
 20
227.015743
 11
424.218002
 21
227.015743
  0
LINE
  5
12B
100
AcDbEntity
  8
M0
  6
CONTINUOUS
370
25
100
AcDbLine
 10
424.754013
 20
228.402752
 11
424.754013
 21
237.176739
  0
LINE
  5
12C
100
AcDbEntity
  8
M0
  6
CONTINUOUS
370
25
100
AcDbLine
 10
424.218002
 20
235.789745
 11
420.754013
 21
235.789745
  0
LINE
  5
12D
100
AcDbEntity
  8
M0
  6
CONTINUOUS
370
25
100
AcDbLine
 10
420.754013
 20
229.789745
 11
424.218002
 21
229.789745
  0
LINE
  5
12E
100
AcDbEntity
  8
M0
  6
CONTINUOUS
370
25
100
AcDbLine
 10
420.754165
 20
233.138668
 11
418.754165
 21
231.13966
  0
LINE
  5
12F
100
AcDbEntity
  8
M0
  6
CONTINUOUS
370
25
100
AcDbLine
 10
420.754104
 20
234.939693
 11
418.754104
 21
232.939724
  0
LINE
  5
130
100
AcDbEntity
  8
M0
  6
CONTINUOUS
370
25
100
AcDbLine
 10
420.754043
 20
383.887768
 11
418.754043
 21
383.888775
  0
LINE
  5
131
100
AcDbEntity
  8
M0
  6
CONTINUOUS
370
25
100
AcDbLine
 10
418.754013
 20
383.888744
 11
418.754013
 21
371.688763
  0
LINE
  5
132
100
AcDbEntity
  8
M0
  6
CONTINUOUS
370
25
100
AcDbLine
 10
418.754013
 20
371.688763
 11
420.754013
 21
371.688763
  0
LINE
  5
133
100
AcDbEntity
  8
M0
  6
CONTINUOUS
370
25
100
AcDbLine
 10
420.754013
 20
371.688763
 11
420.754013
 21
383.888744
  0
LINE
  5
134
100
AcDbEntity
  8
M0
  6
CONTINUOUS
370
25
100
AcDbLine
 10
424.218002
 20
383.561749
 11
420.754013
 21
383.561749
  0
LINE
  5
135
100
AcDbEntity
  8
M0
  6
CONTINUOUS
370
25
100
AcDbLine
 10
420.754013
 20
383.561749
 11
420.754013
 21
372.014751
  0
LINE
  5
136
100
AcDbEntity
  8
M0
  6
CONTINUOUS
370
25
100
AcDbLine
 10
420.754013
 20
372.014751
 11
424.218002
 21
372.014751
  0
LINE
  5
137
100
AcDbEntity
  8
M0
  6
CONTINUOUS
370
25
100
AcDbLine
 10
424.754013
 20
373.401745
 11
424.754013
 21
382.175762
  0
LINE
  5
138
100
AcDbEntity
  8
M0
  6
CONTINUOUS
370
25
100
AcDbLine
 10
424.218002
 20
380.788738
 11
420.754013
 21
380.788738
  0
LINE
  5
139
100
AcDbEntity
  8
M0
  6
CONTINUOUS
370
25
100
AcDbLine
 10
420.754013
 20
374.788738
 11
424.218002
 21
374.788738
  0
LINE
  5
13A
100
AcDbEntity
  8
M0
  6
CONTINUOUS
370
25
100
AcDbLine
 10
420.754135
 20
378.137646
 11
418.754165
 21
376.138683
  0
LINE
  5
13B
100
AcDbEntity
  8
M0
  6
CONTINUOUS
370
25
100
AcDbLine
 10
420.754043
 20
379.938702
 11
418.754043
 21
377.938702
  0
LINE
  5
13C
100
AcDbEntity
  8
M0
  6
CONTINUOUS
370
25
100
AcDbLine
 10
360.754013
 20
332.789745
 11
360.754013
 21
338.289745
  0
LINE
  5
13D
100
AcDbEntity
  8
M0
  6
CONTINUOUS
370
25
100
AcDbLine
 10
356.754043
 20
386.289745
 11
346.755081
 21
386.288738
  0
LINE
  5
13E
100
AcDbEntity
  8
M0
  6
CONTINUOUS
370
25
100
AcDbLine
 10
340.75505
 20
340.289745
 11
340.75505
 21
336.289745
  0
LINE
  5
13F
100
AcDbEntity
  8
M0
  6
CONTINUOUS
370
25
100
AcDbLine
 10
344.75505
 20
351.289745
 11
344.75505
 21
340.289745
  0
LINE
  5
140
100
AcDbEntity
  8
M0
  6
CONTINUOUS
370
25
100
AcDbLine
 10
346.75505
 20
386.289745
 11
346.75505
 21
353.289745
  0
LINE
  5
141
100
AcDbEntity
  8
M0
  6
CONTINUOUS
370
25
100
AcDbLine
 10
354.75505
 20
382.289745
 11
354.75505
 21
369.289745
  0
LINE
  5
142
100
AcDbEntity
  8
M0
  6
CONTINUOUS
370
25
100
AcDbLine
 10
356.754013
 20
386.289745
 11
356.754013
 21
382.289745
  0
LINE
  5
143
100
AcDbEntity
  8
M0
  6
CONTINUOUS
370
25
100
AcDbLine
 10
354.75505
 20
382.289745
 11
356.754013
 21
382.289745
  0
LINE
  5
144
100
AcDbEntity
  8
M0
  6
CONTINUOUS
370
25
100
AcDbLine
 10
352.25505
 20
369.289745
 11
354.75505
 21
369.289745
  0
LINE
  5
145
100
AcDbEntity
  8
M0
  6
CONTINUOUS
370
25
100
AcDbLine
 10
340.75505
 20
340.289745
 11
344.75505
 21
340.289745
  0
LINE
  5
146
100
AcDbEntity
  8
M0
  6
CONTINUOUS
370
25
100
AcDbLine
 10
350.25505
 20
367.289745
 11
350.25505
 21
342.289745
  0
LINE
  5
147
100
AcDbEntity
  8
M0
  6
CONTINUOUS
370
25
100
AcDbLine
 10
352.75505
 20
369.289745
 11
352.75505
 21
345.289745
  0
LINE
  5
148
100
AcDbEntity
  8
M0
  6
CONTINUOUS
370
25
100
AcDbLine
 10
342.754013
 20
337.789745
 11
344.954025
 21
337.789745
  0
LINE
  5
149
100
AcDbEntity
  8
M0
  6
CONTINUOUS
370
25
100
AcDbLine
 10
340.75505
 20
336.289745
 11
342.754013
 21
336.289745
  0
LINE
  5
14A
100
AcDbEntity
  8
M0
  6
CONTINUOUS
370
25
100
AcDbLine
 10
358.754013
 20
332.789745
 11
360.754013
 21
332.789745
  0
LINE
  5
14B
100
AcDbEntity
  8
M0
  6
CONTINUOUS
370
25
100
AcDbLine
 10
358.754013
 20
335.289745
 11
358.754013
 21
332.789745
  0
LINE
  5
14C
100
AcDbEntity
  8
M0
  6
CONTINUOUS
370
25
100
AcDbLine
 10
342.754013
 20
337.789745
 11
342.754013
 21
332.789745
  0
LINE
  5
14D
100
AcDbEntity
  8
M0
  6
CONTINUOUS
370
25
100
AcDbLine
 10
344.954025
 20
337.789745
 11
344.954025
 21
336.289745
  0
LINE
  5
14E
100
AcDbEntity
  8
M0
  6
CONTINUOUS
370
25
100
AcDbLine
 10
344.954025
 20
336.289745
 11
357.754013
 21
336.289745
  0
LINE
  5
14F
100
AcDbEntity
  8
M0
  6
CONTINUOUS
370
25
100
AcDbLine
 10
352.25505
 20
340.289745
 11
358.754013
 21
340.289745
  0
LINE
  5
150
100
AcDbEntity
  8
M0
  6
CONTINUOUS
370
25
100
AcDbLine
 10
344.754013
 20
259.289745
 11
344.754013
 21
262.939739
  0
LINE
  5
151
100
AcDbEntity
  8
M0
  6
CONTINUOUS
370
25
100
AcDbLine
 10
346.754013
 20
224.289745
 11
346.754013
 21
305.289745
  0
LINE
  5
152
100
AcDbEntity
  8
M0
  6
CONTINUOUS
370
25
100
AcDbLine
 10
341.254013
 20
274.812756
 11
341.254013
 21
305.289745
  0
LINE
  5
153
100
AcDbEntity
  8
M0
  6
CONTINUOUS
370
25
100
AcDbLine
 10
356.753952
 20
224.289745
 11
346.753952
 21
224.290752
  0
LINE
  5
154
100
AcDbEntity
  8
M0
  6
CONTINUOUS
370
25
100
AcDbLine
 10
344.754013
 20
275.138744
 11
344.754013
 21
305.289745
  0
LINE
  5
155
100
AcDbEntity
  8
M0
  6
CONTINUOUS
370
25
100
AcDbLine
 10
342.169413
 20
345.289745
 11
352.354049
 21
345.289745
  0
LINE
  5
156
100
AcDbEntity
  8
M0
  6
CONTINUOUS
370
25
100
AcDbLine
 10
344.754013
 20
371.688763
 11
346.754013
 21
371.688763
  0
LINE
  5
157
100
AcDbEntity
  8
M0
  6
CONTINUOUS
370
25
100
AcDbLine
 10
346.754013
 20
371.688763
 11
346.754013
 21
383.888744
  0
LINE
  5
158
100
AcDbEntity
  8
M0
  6
CONTINUOUS
370
25
100
AcDbLine
 10
346.754013
 20
383.888744
 11
344.754013
 21
383.888744
  0
LINE
  5
159
100
AcDbEntity
  8
M0
  6
CONTINUOUS
370
25
100
AcDbLine
 10
344.754013
 20
383.888744
 11
344.754013
 21
371.688763
  0
LINE
  5
15A
100
AcDbEntity
  8
M0
  6
CONTINUOUS
370
25
100
AcDbLine
 10
340.790023
 20
372.014751
 11
344.754013
 21
372.014751
  0
LINE
  5
15B
100
AcDbEntity
  8
M0
  6
CONTINUOUS
370
25
100
AcDbLine
 10
344.754013
 20
372.014751
 11
344.754013
 21
383.561749
  0
LINE
  5
15C
100
AcDbEntity
  8
M0
  6
CONTINUOUS
370
25
100
AcDbLine
 10
344.754013
 20
383.561749
 11
340.790023
 21
383.561749
  0
LINE
  5
15D
100
AcDbEntity
  8
M0
  6
CONTINUOUS
370
25
100
AcDbLine
 10
340.254013
 20
382.175762
 11
340.254013
 21
373.401745
  0
LINE
  5
15E
100
AcDbEntity
  8
M0
  6
CONTINUOUS
370
25
100
AcDbLine
 10
340.790023
 20
374.788738
 11
344.754013
 21
374.788738
  0
LINE
  5
15F
100
AcDbEntity
  8
M0
  6
CONTINUOUS
370
25
100
AcDbLine
 10
344.754013
 20
380.788738
 11
340.790023
 21
380.788738
  0
LINE
  5
160
100
AcDbEntity
  8
M0
  6
CONTINUOUS
370
25
100
AcDbLine
 10
344.754074
 20
377.438702
 11
346.754043
 21
379.438702
  0
LINE
  5
161
100
AcDbEntity
  8
M0
  6
CONTINUOUS
370
25
100
AcDbLine
 10
344.754074
 20
375.638683
 11
346.754074
 21
377.638683
  0
LINE
  5
162
100
AcDbEntity
  8
M0
  6
CONTINUOUS
370
25
100
AcDbLine
 10
344.754013
 20
226.689754
 11
346.754013
 21
226.689754
  0
LINE
  5
163
100
AcDbEntity
  8
M0
  6
CONTINUOUS
370
25
100
AcDbLine
 10
346.754013
 20
226.689754
 11
346.754013
 21
238.889751
  0
LINE
  5
164
100
AcDbEntity
  8
M0
  6
CONTINUOUS
370
25
100
AcDbLine
 10
346.754013
 20
238.889751
 11
344.754013
 21
238.889751
  0
LINE
  5
165
100
AcDbEntity
  8
M0
  6
CONTINUOUS
370
25
100
AcDbLine
 10
344.754013
 20
238.889751
 11
344.754013
 21
226.689754
  0
LINE
  5
166
100
AcDbEntity
  8
M0
  6
CONTINUOUS
370
25
100
AcDbLine
 10
340.790023
 20
227.015743
 11
344.754013
 21
227.015743
  0
LINE
  5
167
100
AcDbEntity
  8
M0
  6
CONTINUOUS
370
25
100
AcDbLine
 10
344.754013
 20
227.015743
 11
344.754013
 21
238.562756
  0
LINE
  5
168
100
AcDbEntity
  8
M0
  6
CONTINUOUS
370
25
100
AcDbLine
 10
344.754013
 20
238.562756
 11
340.790023
 21
238.562756
  0
LINE
  5
169
100
AcDbEntity
  8
M0
  6
CONTINUOUS
370
25
100
AcDbLine
 10
340.254013
 20
237.176739
 11
340.254013
 21
228.402752
  0
LINE
  5
16A
100
AcDbEntity
  8
M0
  6
CONTINUOUS
370
25
100
AcDbLine
 10
340.790023
 20
229.789745
 11
344.754013
 21
229.789745
  0
LINE
  5
16B
100
AcDbEntity
  8
M0
  6
CONTINUOUS
370
25
100
AcDbLine
 10
344.754013
 20
235.789745
 11
340.790023
 21
235.789745
  0
LINE
  5
16C
100
AcDbEntity
  8
M0
  6
CONTINUOUS
370
25
100
AcDbLine
 10
344.754074
 20
232.43977
 11
346.754074
 21
234.439739
  0
LINE
  5
16D
100
AcDbEntity
  8
M0
  6
CONTINUOUS
370
25
100
AcDbLine
 10
344.754074
 20
230.63969
 11
346.754043
 21
232.63969
  0
LINE
  5
16E
100
AcDbEntity
  8
M0
  6
CONTINUOUS
370
25
100
AcDbLine
 10
344.754013
 20
262.939739
 11
346.754013
 21
262.939739
  0
LINE
  5
16F
100
AcDbEntity
  8
M0
  6
CONTINUOUS
370
25
100
AcDbLine
 10
346.754013
 20
262.939739
 11
346.754013
 21
275.139751
  0
LINE
  5
170
100
AcDbEntity
  8
M0
  6
CONTINUOUS
370
25
100
AcDbLine
 10
346.754043
 20
275.139767
 11
344.754074
 21
275.13876
  0
LINE
  5
171
100
AcDbEntity
  8
M0
  6
CONTINUOUS
370
25
100
AcDbLine
 10
344.754013
 20
275.139751
 11
344.754013
 21
262.939739
  0
LINE
  5
172
100
AcDbEntity
  8
M0
  6
CONTINUOUS
370
25
100
AcDbLine
 10
340.790023
 20
263.265759
 11
344.754013
 21
263.265759
  0
LINE
  5
173
100
AcDbEntity
  8
M0
  6
CONTINUOUS
370
25
100
AcDbLine
 10
344.754013
 20
263.265759
 11
344.754013
 21
274.812756
  0
LINE
  5
174
100
AcDbEntity
  8
M0
  6
CONTINUOUS
370
25
100
AcDbLine
 10
344.754013
 20
274.812756
 11
340.790023
 21
274.812756
  0
LINE
  5
175
100
AcDbEntity
  8
M0
  6
CONTINUOUS
370
25
100
AcDbLine
 10
340.254013
 20
273.426739
 11
340.254013
 21
264.652752
  0
LINE
  5
176
100
AcDbEntity
  8
M0
  6
CONTINUOUS
370
25
100
AcDbLine
 10
340.790023
 20
266.039745
 11
344.754013
 21
266.039745
  0
LINE
  5
177
100
AcDbEntity
  8
M0
  6
CONTINUOUS
370
25
100
AcDbLine
 10
344.754013
 20
272.039745
 11
340.790023
 21
272.039745
  0
LINE
  5
178
100
AcDbEntity
  8
M0
  6
CONTINUOUS
370
25
100
AcDbLine
 10
344.754135
 20
268.689678
 11
346.754135
 21
270.689693
  0
LINE
  5
179
100
AcDbEntity
  8
M0
  6
CONTINUOUS
370
25
100
AcDbLine
 10
344.754074
 20
266.889736
 11
346.754043
 21
268.889721
  0
LINE
  5
17A
100
AcDbEntity
  8
M0
  6
CONTINUOUS
370
25
100
AcDbLine
 10
431.75209
 20
297.797802
 11
454.421005
 21
299.056805
  0
LINE
  5
17B
100
AcDbEntity
  8
M0
  6
CONTINUOUS
370
25
100
AcDbLine
 10
431.726974
 20
294.632885
 11
454.420944
 21
293.371868
  0
LINE
  5
17C
100
AcDbEntity
  8
M0
  6
CONTINUOUS
370
25
100
AcDbLine
 10
457.25505
 20
215.289745
 11
457.25505
 21
305.289745
  0
LINE
  5
17D
100
AcDbEntity
  8
M0
  6
CONTINUOUS
370
25
100
AcDbLine
 10
431.729019
 20
233.72784
 11
454.421096
 21
232.467831
  0
LINE
  5
17E
100
AcDbEntity
  8
M0
  6
CONTINUOUS
370
25
100
AcDbLine
 10
431.751998
 20
236.892773
 11
454.421005
 21
238.152782
  0
LINE
  5
17F
100
AcDbEntity
  8
M0
  6
CONTINUOUS
370
25
100
AcDbLine
 10
433.694015
 20
256.610653
 11
452.482009
 21
259.270657
  0
LINE
  5
180
100
AcDbEntity
  8
M0
  6
CONTINUOUS
370
25
100
AcDbLine
 10
433.831985
 20
275.785839
 11
455.912918
 21
278.129833
  0
LINE
  5
181
100
AcDbEntity
  8
M0
  6
CONTINUOUS
370
25
100
AcDbLine
 10
433.572006
 20
300.029858
 11
455.359054
 21
301.169872
  0
LINE
  5
182
100
AcDbEntity
  8
M0
  6
CONTINUOUS
370
25
100
AcDbLine
 10
436.25505
 20
392.788738
 11
455.25505
 21
392.788738
  0
LINE
  5
183
100
AcDbEntity
  8
M0
  6
CONTINUOUS
370
25
100
AcDbLine
 10
439.251998
 20
364.122814
 11
451.254043
 21
361.900768
  0
LINE
  5
184
100
AcDbEntity
  8
M0
  6
CONTINUOUS
370
25
100
AcDbLine
 10
461.25505
 20
376.289745
 11
462.25505
 21
376.289745
  0
LINE
  5
185
100
AcDbEntity
  8
M0
  6
CONTINUOUS
370
25
100
AcDbLine
 10
457.25505
 20
352.789745
 11
461.25505
 21
352.789745
  0
LINE
  5
186
100
AcDbEntity
  8
M0
  6
CONTINUOUS
370
25
100
AcDbLine
 10
461.25505
 20
352.789745
 11
461.25505
 21
376.289745
  0
LINE
  5
187
100
AcDbEntity
  8
M0
  6
CONTINUOUS
370
25
100
AcDbLine
 10
457.25505
 20
352.789745
 11
457.25505
 21
395.289745
  0
LINE
  5
188
100
AcDbEntity
  8
M0
  6
CONTINUOUS
370
25
100
AcDbLine
 10
457.221411
 20
215.289745
 11
462.25505
 21
215.289745
  0
LINE
  5
189
100
AcDbEntity
  8
M0
  6
CONTINUOUS
370
25
100
AcDbLine
 10
462.25505
 20
215.289745
 11
462.25505
 21
305.289745
  0
LINE
  5
18A
100
AcDbEntity
  8
M0
  6
CONTINUOUS
370
25
100
AcDbLine
 10
462.254928
 20
395.289898
 11
457.254928
 21
395.288891
  0
LINE
  5
18B
100
AcDbEntity
  8
M0
  6
CONTINUOUS
370
25
100
AcDbLine
 10
430.25505
 20
386.788738
 11
430.25505
 21
374.938763
  0
LINE
  5
18C
100
AcDbEntity
  8
M0
  6
CONTINUOUS
370
25
100
AcDbLine
 10
430.25505
 20
271.807751
 11
430.25505
 21
262.039745
  0
LINE
  5
18D
100
AcDbEntity
  8
M0
  6
CONTINUOUS
370
25
100
AcDbLine
 10
430.25505
 20
252.649761
 11
430.25505
 21
220.646755
  0
LINE
  5
18E
100
AcDbEntity
  8
M0
  6
CONTINUOUS
370
25
100
AcDbLine
 10
430.25505
 20
296.533764
 11
430.25505
 21
296.180737
  0
LINE
  5
18F
100
AcDbEntity
  8
M0
  6
CONTINUOUS
370
25
100
AcDbLine
 10
462.25505
 20
376.289745
 11
462.25505
 21
395.289745
  0
LINE
  5
190
100
AcDbEntity
  8
M0
  6
CONTINUOUS
370
25
100
AcDbLine
 10
431.751998
 20
263.588818
 11
454.420944
 21
264.848782
  0
LINE
  5
191
100
AcDbEntity
  8
M0
  6
CONTINUOUS
370
25
100
AcDbLine
 10
431.727066
 20
260.423672
 11
454.421066
 21
259.163662
  0
LINE
  5
192
100
AcDbEntity
  8
M0
  6
CONTINUOUS
370
25
100
AcDbLine
 10
431.752059
 20
222.263805
 11
454.421035
 21
223.522808
  0
LINE
  5
193
100
AcDbEntity
  8
M0
  6
CONTINUOUS
370
25
100
AcDbLine
 10
431.727035
 20
219.098736
 11
454.421005
 21
217.837734
  0
LINE
  5
194
100
AcDbEntity
  8
M0
  6
CONTINUOUS
370
25
100
AcDbLine
 10
455.254013
 20
359.188763
 11
457.254013
 21
359.188763
  0
LINE
  5
195
100
AcDbEntity
  8
M0
  6
CONTINUOUS
370
25
100
AcDbLine
 10
457.254013
 20
359.188763
 11
457.254013
 21
371.388744
  0
LINE
  5
196
100
AcDbEntity
  8
M0
  6
CONTINUOUS
370
25
100
AcDbLine
 10
457.254013
 20
371.388744
 11
455.254013
 21
371.388744
  0
LINE
  5
197
100
AcDbEntity
  8
M0
  6
CONTINUOUS
370
25
100
AcDbLine
 10
455.254013
 20
371.388744
 11
455.254013
 21
359.188763
  0
LINE
  5
198
100
AcDbEntity
  8
M0
  6
CONTINUOUS
370
25
100
AcDbLine
 10
451.790023
 20
359.515759
 11
455.254013
 21
359.515759
  0
LINE
  5
199
100
AcDbEntity
  8
M0
  6
CONTINUOUS
370
25
100
AcDbLine
 10
455.254013
 20
359.515759
 11
455.254013
 21
371.062756
  0
LINE
  5
19A
100
AcDbEntity
  8
M0
  6
CONTINUOUS
370
25
100
AcDbLine
 10
455.254013
 20
371.062756
 11
451.790023
 21
371.062756
  0
LINE
  5
19B
100
AcDbEntity
  8
M0
  6
CONTINUOUS
370
25
100
AcDbLine
 10
451.254013
 20
369.675762
 11
451.254013
 21
360.901745
  0
LINE
  5
19C
100
AcDbEntity
  8
M0
  6
CONTINUOUS
370
25
100
AcDbLine
 10
451.790023
 20
362.288738
 11
455.254013
 21
362.288738
  0
LINE
  5
19D
100
AcDbEntity
  8
M0
  6
CONTINUOUS
370
25
100
AcDbLine
 10
455.254013
 20
368.288738
 11
451.790023
 21
368.288738
  0
LINE
  5
19E
100
AcDbEntity
  8
M0
  6
CONTINUOUS
370
25
100
AcDbLine
 10
455.254104
 20
364.938702
 11
457.254104
 21
366.938702
  0
LINE
  5
19F
100
AcDbEntity
  8
M0
  6
CONTINUOUS
370
25
100
AcDbLine
 10
455.253952
 20
363.138653
 11
457.253952
 21
365.138653
  0
LINE
  5
1A0
100
AcDbEntity
  8
M0
  6
CONTINUOUS
370
25
100
AcDbLine
 10
340.202987
 20
288.289715
 11
340.203964
 21
305.289715
  0
LINE
  5
1A1
100
AcDbEntity
  8
M0
  6
CONTINUOUS
370
25
100
AcDbLine
 10
340.704086
 20
287.789745
 11
340.203109
 21
288.289745
  0
LINE
  5
1A2
100
AcDbEntity
  8
M0
  6
CONTINUOUS
370
25
100
AcDbLine
 10
340.704025
 20
287.789745
 11
341.254013
 21
287.789745
  0
LINE
  5
1A3
100
AcDbEntity
  8
M0
  6
CONTINUOUS
370
25
100
AcDbLine
 10
413.854049
 20
393.088757
 11
413.854049
 21
403.45274
  0
LINE
  5
1A4
100
AcDbEntity
  8
M0
  6
CONTINUOUS
370
25
100
AcDbLine
 10
416.653976
 20
393.088757
 11
416.653976
 21
401.580761
  0
LINE
  5
1A5
100
AcDbEntity
  8
M0
  6
CONTINUOUS
370
25
100
AcDbLine
 10
413.854049
 20
407.125744
 11
413.854049
 21
412.644756
  0
LINE
  5
1A6
100
AcDbEntity
  8
M0
  6
CONTINUOUS
370
25
100
AcDbLine
 10
416.653976
 20
405.082745
 11
416.653976
 21
412.644756
  0
LINE
  5
1A7
100
AcDbEntity
  8
M0
  6
CONTINUOUS
370
25
100
AcDbLine
 10
413.853927
 20
407.125683
 11
416.653945
 21
405.082684
  0
LINE
  5
1A8
100
AcDbEntity
  8
M0
  6
CONTINUOUS
370
25
100
AcDbLine
 10
413.853958
 20
403.45274
 11
416.653976
 21
401.580761
  0
LINE
  5
1A9
100
AcDbEntity
  8
M0
  6
CONTINUOUS
370
25
100
AcDbLine
 10
408.953964
 20
423.556866
 11
402.891921
 21
427.056866
  0
LINE
  5
1AA
100
AcDbEntity
  8
M0
  6
CONTINUOUS
370
25
100
AcDbLine
 10
409.653945
 20
424.769787
 11
408.253952
 21
422.344769
  0
LINE
  5
1AB
100
AcDbEntity
  8
M0
  6
CONTINUOUS
370
25
100
AcDbLine
 10
420.85408
 20
424.769756
 11
422.254074
 21
422.344738
  0
LINE
  5
1AC
100
AcDbEntity
  8
M0
  6
CONTINUOUS
370
25
100
AcDbLine
 10
421.553909
 20
423.556957
 11
427.61589
 21
427.056927
  0
LINE
  5
1AD
100
AcDbEntity
  8
M0
  6
CONTINUOUS
370
25
100
AcDbLine
 10
125.526962
 20
305.289745
 11
139.605575
 21
305.289745
  0
LINE
  5
1AE
100
AcDbEntity
  8
M0
  6
CONTINUOUS
370
25
100
AcDbLine
 10
132.550033
 20
261.094372
 11
132.550033
 21
269.465435
  0
LINE
  5
1AF
100
AcDbEntity
  8
M0
  6
CONTINUOUS
370
25
100
AcDbLine
 10
136.050033
 20
317.289745
 11
136.050033
 21
320.789745
  0
LINE
  5
1B0
100
AcDbEntity
  8
M0
  6
CONTINUOUS
370
25
100
AcDbLine
 10
136.050033
 20
320.789745
 11
129.050033
 21
320.789745
  0
LINE
  5
1B1
100
AcDbEntity
  8
M0
  6
CONTINUOUS
370
25
100
AcDbLine
 10
129.050033
 20
320.789745
 11
129.050033
 21
317.289745
  0
LINE
  5
1B2
100
AcDbEntity
  8
M0
  6
CONTINUOUS
370
25
100
AcDbLine
 10
127.691024
 20
327.154736
 11
130.535995
 21
327.154736
  0
LINE
  5
1B3
100
AcDbEntity
  8
M0
  6
CONTINUOUS
370
25
100
AcDbLine
 10
130.835983
 20
326.854748
 11
130.835983
 21
322.705761
  0
LINE
  5
1B4
100
AcDbEntity
  8
M0
  6
CONTINUOUS
370
25
100
AcDbLine
 10
127.391036
 20
327.154736
 11
127.391036
 21
323.612743
  0
LINE
  5
1B5
100
AcDbEntity
  8
M0
  6
CONTINUOUS
370
25
100
AcDbLine
 10
137.710006
 20
326.854748
 11
137.710006
 21
323.612743
  0
LINE
  5
1B6
100
AcDbEntity
  8
M0
  6
CONTINUOUS
370
25
100
AcDbLine
 10
137.410018
 20
327.154736
 11
134.564987
 21
327.154736
  0
LINE
  5
1B7
100
AcDbEntity
  8
M0
  6
CONTINUOUS
370
25
100
AcDbLine
 10
134.264999
 20
326.854748
 11
134.264999
 21
322.705761
  0
LINE
  5
1B8
100
AcDbEntity
  8
M0
  6
CONTINUOUS
370
25
100
AcDbLine
 10
130.835983
 20
332.22575
 11
130.835983
 21
336.374737
  0
LINE
  5
1B9
100
AcDbEntity
  8
M0
  6
CONTINUOUS
370
25
100
AcDbLine
 10
127.691024
 20
331.925762
 11
130.535995
 21
331.925762
  0
LINE
  5
1BA
100
AcDbEntity
  8
M0
  6
CONTINUOUS
370
25
100
AcDbLine
 10
127.391036
 20
331.925762
 11
127.391036
 21
333.810741
  0
LINE
  5
1BB
100
AcDbEntity
  8
M0
  6
CONTINUOUS
370
25
100
AcDbLine
 10
134.264999
 20
332.22575
 11
134.264999
 21
336.374737
  0
LINE
  5
1BC
100
AcDbEntity
  8
M0
  6
CONTINUOUS
370
25
100
AcDbLine
 10
137.410018
 20
331.925762
 11
134.564987
 21
331.925762
  0
LINE
  5
1BD
100
AcDbEntity
  8
M0
  6
CONTINUOUS
370
25
100
AcDbLine
 10
137.710006
 20
332.22575
 11
137.710006
 21
333.810741
  0
LINE
  5
1BE
100
AcDbEntity
  8
M0
  6
CONTINUOUS
370
25
100
AcDbLine
 10
127.550216
 20
380.675365
 11
132.550216
 21
383.562359
  0
LINE
  5
1BF
100
AcDbEntity
  8
M0
  6
CONTINUOUS
370
25
100
AcDbLine
 10
127.550033
 20
374.902752
 11
127.550033
 21
380.675762
  0
LINE
  5
1C0
100
AcDbEntity
  8
M0
  6
CONTINUOUS
370
25
100
AcDbLine
 10
132.550033
 20
372.015728
 11
127.550033
 21
374.902721
  0
LINE
  5
1C1
100
AcDbEntity
  8
M0
  6
CONTINUOUS
370
25
100
AcDbLine
 10
137.550216
 20
374.902447
 11
132.550216
 21
372.015453
  0
LINE
  5
1C2
100
AcDbEntity
  8
M0
  6
CONTINUOUS
370
25
100
AcDbLine
 10
137.550033
 20
380.675762
 11
137.550033
 21
374.902752
  0
LINE
  5
1C3
100
AcDbEntity
  8
M0
  6
CONTINUOUS
370
25
100
AcDbLine
 10
132.550155
 20
383.562664
 11
137.550094
 21
380.675701
  0
LINE
  5
1C4
100
AcDbEntity
  8
M0
  6
CONTINUOUS
370
25
100
AcDbLine
 10
64.764022
 20
338.652752
 11
64.764022
 21
344.426739
  0
LINE
  5
1C5
100
AcDbEntity
  8
M0
  6
CONTINUOUS
370
25
100
AcDbLine
 10
69.764022
 20
335.765789
 11
64.764022
 21
338.652782
  0
LINE
  5
1C6
100
AcDbEntity
  8
M0
  6
CONTINUOUS
370
25
100
AcDbLine
 10
74.764266
 20
338.652477
 11
69.764266
 21
335.765484
  0
LINE
  5
1C7
100
AcDbEntity
  8
M0
  6
CONTINUOUS
370
25
100
AcDbLine
 10
74.764022
 20
344.426739
 11
74.764022
 21
338.652752
  0
LINE
  5
1C8
100
AcDbEntity
  8
M0
  6
CONTINUOUS
370
25
100
AcDbLine
 10
69.763961
 20
347.313793
 11
74.764022
 21
344.426739
  0
LINE
  5
1C9
100
AcDbEntity
  8
M0
  6
CONTINUOUS
370
25
100
AcDbLine
 10
64.764083
 20
344.426586
 11
69.764083
 21
347.31361
  0
LINE
  5
1CA
100
AcDbEntity
  8
M0
  6
CONTINUOUS
370
25
100
AcDbLine
 10
69.763961
 20
263.266735
 11
64.7639
 21
266.153774
  0
LINE
  5
1CB
100
AcDbEntity
  8
M0
  6
CONTINUOUS
370
25
100
AcDbLine
 10
74.764022
 20
266.153622
 11
69.764022
 21
263.266582
  0
LINE
  5
1CC
100
AcDbEntity
  8
M0
  6
CONTINUOUS
370
25
100
AcDbLine
 10
74.764022
 20
271.926739
 11
74.764022
 21
266.153759
  0
LINE
  5
1CD
100
AcDbEntity
  8
M0
  6
CONTINUOUS
370
25
100
AcDbLine
 10
69.764022
 20
274.813717
 11
74.764022
 21
271.926678
  0
LINE
  5
1CE
100
AcDbEntity
  8
M0
  6
CONTINUOUS
370
25
100
AcDbLine
 10
64.764083
 20
271.926662
 11
69.764022
 21
274.813671
  0
LINE
  5
1CF
100
AcDbEntity
  8
M0
  6
CONTINUOUS
370
25
100
AcDbLine
 10
64.764022
 20
266.153759
 11
64.764022
 21
271.926739
  0
LINE
  5
1D0
100
AcDbEntity
  8
M0
  6
CONTINUOUS
370
25
100
AcDbLine
 10
137.550155
 20
229.903576
 11
132.550155
 21
227.016582
  0
LINE
  5
1D1
100
AcDbEntity
  8
M0
  6
CONTINUOUS
370
25
100
AcDbLine
 10
137.550033
 20
235.677746
 11
137.550033
 21
229.903744
  0
LINE
  5
1D2
100
AcDbEntity
  8
M0
  6
CONTINUOUS
370
25
100
AcDbLine
 10
132.550094
 20
238.563747
 11
137.550033
 21
235.677761
  0
LINE
  5
1D3
100
AcDbEntity
  8
M0
  6
CONTINUOUS
370
25
100
AcDbLine
 10
127.550155
 20
235.677685
 11
132.550216
 21
238.563732
  0
LINE
  5
1D4
100
AcDbEntity
  8
M0
  6
CONTINUOUS
370
25
100
AcDbLine
 10
127.550033
 20
229.903744
 11
127.550033
 21
235.677746
  0
LINE
  5
1D5
100
AcDbEntity
  8
M0
  6
CONTINUOUS
370
25
100
AcDbLine
 10
132.550094
 20
227.016781
 11
127.550155
 21
229.903744
  0
LINE
  5
1D6
100
AcDbEntity
  8
M0
  6
CONTINUOUS
370
25
100
AcDbLine
 10
200.33702
 20
271.926739
 11
200.33702
 21
266.153759
  0
LINE
  5
1D7
100
AcDbEntity
  8
M0
  6
CONTINUOUS
370
25
100
AcDbLine
 10
195.336959
 20
274.813778
 11
200.336959
 21
271.926739
  0
LINE
  5
1D8
100
AcDbEntity
  8
M0
  6
CONTINUOUS
370
25
100
AcDbLine
 10
190.337142
 20
271.926693
 11
195.337142
 21
274.813732
  0
LINE
  5
1D9
100
AcDbEntity
  8
M0
  6
CONTINUOUS
370
25
100
AcDbLine
 10
190.33702
 20
266.153759
 11
190.33702
 21
271.926739
  0
LINE
  5
1DA
100
AcDbEntity
  8
M0
  6
CONTINUOUS
370
25
100
AcDbLine
 10
195.336959
 20
263.266766
 11
190.336898
 21
266.153805
  0
LINE
  5
1DB
100
AcDbEntity
  8
M0
  6
CONTINUOUS
370
25
100
AcDbLine
 10
200.337081
 20
266.153728
 11
195.337142
 21
263.26672
  0
LINE
  5
1DC
100
AcDbEntity
  8
M0
  6
CONTINUOUS
370
25
100
AcDbLine
 10
195.336959
 20
347.313763
 11
200.336959
 21
344.426739
  0
LINE
  5
1DD
100
AcDbEntity
  8
M0
  6
CONTINUOUS
370
25
100
AcDbLine
 10
190.337081
 20
344.426647
 11
195.337142
 21
347.313671
  0
LINE
  5
1DE
100
AcDbEntity
  8
M0
  6
CONTINUOUS
370
25
100
AcDbLine
 10
190.33702
 20
338.652752
 11
190.33702
 21
344.426739
  0
LINE
  5
1DF
100
AcDbEntity
  8
M0
  6
CONTINUOUS
370
25
100
AcDbLine
 10
195.337081
 20
335.766674
 11
190.33702
 21
338.652721
  0
LINE
  5
1E0
100
AcDbEntity
  8
M0
  6
CONTINUOUS
370
25
100
AcDbLine
 10
200.337142
 20
338.652477
 11
195.337142
 21
335.76646
  0
LINE
  5
1E1
100
AcDbEntity
  8
M0
  6
CONTINUOUS
370
25
100
AcDbLine
 10
200.33702
 20
344.426739
 11
200.33702
 21
338.652752
  0
LINE
  5
1E2
100
AcDbEntity
  8
M0
  6
CONTINUOUS
370
25
100
AcDbLine
 10
86.407943
 20
338.858715
 11
99.790939
 21
331.131725
  0
LINE
  5
1E3
100
AcDbEntity
  8
M0
  6
CONTINUOUS
370
25
100
AcDbLine
 10
126.550033
 20
362.03474
 11
126.550033
 21
346.581738
  0
LINE
  5
1E4
100
AcDbEntity
  8
M0
  6
CONTINUOUS
370
25
100
AcDbLine
 10
80.407882
 20
282.113781
 11
93.790939
 21
289.840801
  0
LINE
  5
1E5
100
AcDbEntity
  8
M0
  6
CONTINUOUS
370
25
100
AcDbLine
 10
80.407943
 20
328.466778
 11
93.791
 21
320.739758
  0
LINE
  5
1E6
100
AcDbEntity
  8
M0
  6
CONTINUOUS
370
25
100
AcDbLine
 10
126.550033
 20
248.54475
 11
126.550033
 21
263.99876
  0
LINE
  5
1E7
100
AcDbEntity
  8
M0
  6
CONTINUOUS
370
25
100
AcDbLine
 10
86.408065
 20
271.721584
 11
99.791061
 21
279.447567
  0
LINE
  5
1E8
100
AcDbEntity
  8
M0
  6
CONTINUOUS
370
25
100
AcDbLine
 10
178.692977
 20
271.721752
 11
165.309982
 21
279.447735
  0
LINE
  5
1E9
100
AcDbEntity
  8
M0
  6
CONTINUOUS
370
25
100
AcDbLine
 10
138.550033
 20
248.54475
 11
138.550033
 21
263.99876
  0
LINE
  5
1EA
100
AcDbEntity
  8
M0
  6
CONTINUOUS
370
25
100
AcDbLine
 10
184.692916
 20
328.466747
 11
171.30986
 21
320.739727
  0
LINE
  5
1EB
100
AcDbEntity
  8
M0
  6
CONTINUOUS
370
25
100
AcDbLine
 10
184.693038
 20
282.11372
 11
171.310043
 21
289.84071
  0
LINE
  5
1EC
100
AcDbEntity
  8
M0
  6
CONTINUOUS
370
25
100
AcDbLine
 10
138.550033
 20
362.03474
 11
138.550033
 21
346.581738
  0
LINE
  5
1ED
100
AcDbEntity
  8
M0
  6
CONTINUOUS
370
25
100
AcDbLine
 10
178.692977
 20
338.858654
 11
165.309982
 21
331.131695
  0
LINE
  5
1EE
100
AcDbEntity
  8
M0
  6
CONTINUOUS
370
25
100
AcDbLine
 10
344.754013
 20
342.288738
 11
350.25505
 21
342.288738
  0
LINE
  5
1EF
100
AcDbEntity
  8
M0
  6
CONTINUOUS
370
25
100
AcDbLine
 10
350.25505
 20
348.288738
 11
344.754013
 21
348.288738
  0
LINE
  5
1F0
100
AcDbEntity
  8
M0
  6
CONTINUOUS
370
25
100
AcDbLine
 10
350.25505
 20
347.688763
 11
344.754013
 21
347.688763
  0
LINE
  5
1F1
100
AcDbEntity
  8
M0
  6
CONTINUOUS
370
25
100
AcDbLine
 10
344.754013
 20
342.888744
 11
350.25505
 21
342.888744
  0
LINE
  5
1F2
100
AcDbEntity
  8
M0
  6
CONTINUOUS
370
25
100
AcDbLine
 10
457.254013
 20
342.288738
 11
467.25505
 21
342.288738
  0
LINE
  5
1F3
100
AcDbEntity
  8
M0
  6
CONTINUOUS
370
25
100
AcDbLine
 10
467.25505
 20
348.288738
 11
457.254013
 21
348.288738
  0
LINE
  5
1F4
100
AcDbEntity
  8
M0
  6
CONTINUOUS
370
25
100
AcDbLine
 10
467.25505
 20
347.688763
 11
457.254013
 21
347.688763
  0
LINE
  5
1F5
100
AcDbEntity
  8
M0
  6
CONTINUOUS
370
25
100
AcDbLine
 10
457.254013
 20
342.888744
 11
467.25505
 21
342.888744
  0
LINE
  5
1F6
100
AcDbEntity
  8
M0
  6
CONTINUOUS
370
25
100
AcDbLine
 10
662.986541
 20
305.289745
 11
675.162612
 21
305.289745
  0
LINE
  5
1F7
100
AcDbEntity
  8
M0
  6
CONTINUOUS
370
25
100
AcDbLine
 10
668.56401
 20
259.191875
 11
668.56401
 21
269.465435
  0
LINE
  5
1F8
100
AcDbEntity
  8
M0
  6
CONTINUOUS
370
25
100
AcDbLine
 10
672.06401
 20
317.289745
 11
672.06401
 21
320.789745
  0
LINE
  5
1F9
100
AcDbEntity
  8
M0
  6
CONTINUOUS
370
25
100
AcDbLine
 10
672.06401
 20
320.789745
 11
665.06401
 21
320.789745
  0
LINE
  5
1FA
100
AcDbEntity
  8
M0
  6
CONTINUOUS
370
25
100
AcDbLine
 10
665.06401
 20
320.789745
 11
665.06401
 21
317.289745
  0
LINE
  5
1FB
100
AcDbEntity
  8
M0
  6
CONTINUOUS
370
25
100
AcDbLine
 10
668.563034
 20
350.288738
 11
668.563034
 21
340.288738
  0
LINE
  5
1FC
100
AcDbEntity
  8
M0
  6
CONTINUOUS
370
25
100
AcDbLine
 10
629.593032
 20
327.78886
 11
638.254028
 21
322.78886
  0
LINE
  5
1FD
100
AcDbEntity
  8
M0
  6
CONTINUOUS
370
25
100
AcDbLine
 10
629.594024
 20
282.789715
 11
638.254989
 21
287.789715
  0
LINE
  5
1FE
100
AcDbEntity
  8
M0
  6
CONTINUOUS
370
25
100
AcDbLine
 10
707.535003
 20
282.790844
 11
698.873992
 21
287.790844
  0
LINE
  5
1FF
100
AcDbEntity
  8
M0
  6
CONTINUOUS
370
25
100
AcDbLine
 10
707.533981
 20
327.789867
 11
698.872955
 21
322.789867
  0
LINE
  5
200
100
AcDbEntity
  8
M0
  6
CONTINUOUS
370
25
100
AcDbLine
 10
88.793136
 20
385.078777
 11
75.500106
 21
408.102856
  0
LINE
  5
201
100
AcDbEntity
  8
M0
  6
CONTINUOUS
370
25
100
AcDbLine
 10
85.329269
 20
383.078808
 11
71.676254
 21
406.725811
  0
LINE
  5
202
100
AcDbEntity
  8
M0
  6
CONTINUOUS
370
25
100
AcDbLine
 10
69.342086
 20
424.769726
 11
71.074142
 21
423.769695
  0
LINE
  5
203
100
AcDbEntity
  8
M0
  6
CONTINUOUS
370
25
100
AcDbLine
 10
60.682052
 20
419.769756
 11
60.682052
 21
417.769756
  0
LINE
  5
204
100
AcDbEntity
  8
M0
  6
CONTINUOUS
370
25
100
AcDbLine
 10
70.208175
 20
424.269665
 11
72.708175
 21
428.599651
  0
LINE
  5
205
100
AcDbEntity
  8
M0
  6
CONTINUOUS
370
25
100
AcDbLine
 10
60.682052
 20
418.769756
 11
55.682052
 21
418.769756
  0
LINE
  5
206
100
AcDbEntity
  8
M0
  6
CONTINUOUS
370
25
100
AcDbLine
 10
69.342147
 20
414.769787
 11
72.168075
 21
409.873821
  0
LINE
  5
207
100
AcDbEntity
  8
M0
  6
CONTINUOUS
370
25
100
AcDbLine
 10
70.207015
 20
409.270733
 11
67.60997
 21
413.769817
  0
LINE
  5
208
100
AcDbEntity
  8
M0
  6
CONTINUOUS
370
25
100
AcDbLine
 10
74.129684
 20
410.476757
 11
71.073654
 21
415.769817
  0
LINE
  5
209
100
AcDbEntity
  8
M0
  6
CONTINUOUS
370
25
100
AcDbLine
 10
70.207199
 20
409.270458
 11
74.130233
 21
410.476452
  0
LINE
  5
20A
100
AcDbEntity
  8
M0
  6
CONTINUOUS
370
25
100
AcDbLine
 10
71.67601
 20
406.725842
 11
75.499984
 21
408.102825
  0
LINE
  5
20B
100
AcDbEntity
  8
M0
  6
CONTINUOUS
370
25
100
AcDbLine
 10
73.58818
 20
407.413769
 11
87.050155
 21
384.09782
  0
LINE
  5
20C
100
AcDbEntity
  8
M0
  6
CONTINUOUS
370
25
100
AcDbLine
 10
715.284988
 20
382.212811
 11
729.07695
 21
406.102764
  0
LINE
  5
20D
100
AcDbEntity
  8
M0
  6
CONTINUOUS
370
25
100
AcDbLine
 10
711.820053
 20
384.212688
 11
725.973083
 21
408.725719
  0
LINE
  5
20E
100
AcDbEntity
  8
M0
  6
CONTINUOUS
370
25
100
AcDbLine
 10
740.431991
 20
419.769756
 11
740.431991
 21
417.769756
  0
LINE
  5
20F
100
AcDbEntity
  8
M0
  6
CONTINUOUS
370
25
100
AcDbLine
 10
731.772048
 20
424.769665
 11
730.040069
 21
423.769665
  0
LINE
  5
210
100
AcDbEntity
  8
M0
  6
CONTINUOUS
370
25
100
AcDbLine
 10
740.431991
 20
418.769756
 11
745.431991
 21
418.769756
  0
LINE
  5
211
100
AcDbEntity
  8
M0
  6
CONTINUOUS
370
25
100
AcDbLine
 10
730.905906
 20
424.269695
 11
728.405899
 21
428.599682
  0
LINE
  5
212
100
AcDbEntity
  8
M0
  6
CONTINUOUS
370
25
100
AcDbLine
 10
731.771942
 20
414.769726
 11
728.944992
 21
409.873882
  0
LINE
  5
213
100
AcDbEntity
  8
M0
  6
CONTINUOUS
370
25
100
AcDbLine
 10
727.442092
 20
411.270733
 11
730.040115
 21
415.769726
  0
LINE
  5
214
100
AcDbEntity
  8
M0
  6
CONTINUOUS
370
25
100
AcDbLine
 10
730.447959
 20
408.476788
 11
733.503944
 21
413.769787
  0
LINE
  5
215
100
AcDbEntity
  8
M0
  6
CONTINUOUS
370
25
100
AcDbLine
 10
727.441986
 20
411.270885
 11
730.448028
 21
408.476849
  0
LINE
  5
216
100
AcDbEntity
  8
M0
  6
CONTINUOUS
370
25
100
AcDbLine
 10
725.973022
 20
408.725689
 11
729.077011
 21
406.102703
  0
LINE
  5
217
100
AcDbEntity
  8
M0
  6
CONTINUOUS
370
25
100
AcDbLine
 10
727.5251
 20
407.414684
 11
713.56311
 21
383.23167
  0
LINE
  5
218
100
AcDbEntity
  8
M0
  6
CONTINUOUS
370
25
100
AcDbLine
 10
132.550033
 20
350.289745
 11
132.550033
 21
340.289745
  0
LINE
  5
219
100
AcDbEntity
  8
M0
  6
CONTINUOUS
370
25
100
AcDbLine
 10
93.580062
 20
327.789715
 11
102.240035
 21
322.789745
  0
LINE
  5
21A
100
AcDbEntity
  8
M0
  6
CONTINUOUS
370
25
100
AcDbLine
 10
93.580184
 20
282.790676
 11
102.240158
 21
287.790661
  0
LINE
  5
21B
100
AcDbEntity
  8
M0
  6
CONTINUOUS
370
25
100
AcDbLine
 10
132.550033
 20
260.290752
 11
132.550033
 21
270.290752
  0
LINE
  5
21C
100
AcDbEntity
  8
M0
  6
CONTINUOUS
370
25
100
AcDbLine
 10
171.520919
 20
282.790798
 11
162.860885
 21
287.790783
  0
LINE
  5
21D
100
AcDbEntity
  8
M0
  6
CONTINUOUS
370
25
100
AcDbLine
 10
171.521041
 20
327.789745
 11
162.861068
 21
322.789776
  0
LINE
  5
21E
100
AcDbEntity
  8
M0
  6
CONTINUOUS
370
25
100
AcDbLine
 10
132.550033
 20
340.999889
 11
132.550033
 21
350.131939
  0
LINE
  5
21F
100
AcDbEntity
  8
M0
  6
CONTINUOUS
370
25
100
AcDbLine
 10
132.550033
 20
298.003094
 11
132.550033
 21
312.842693
  0
LINE
  5
220
100
AcDbEntity
  8
M0
  6
CONTINUOUS
370
25
100
AcDbLine
 10
468.084024
 20
305.289745
 11
482.874512
 21
305.289745
  0
LINE
  5
221
100
AcDbEntity
  8
M0
  6
CONTINUOUS
370
25
100
AcDbLine
 10
668.56401
 20
298.764111
 11
668.56401
 21
311.701183
  0
ARC
  5
222
100
AcDbEntity
  8
M0
  6
CONTINUOUS
370
25
100
AcDbCircle
 10
395.595993
 20
351.519756
 40
3.000262
100
AcDbArc
 50
224.986404
 51
306.02121
  0
ARC
  5
223
100
AcDbEntity
  8
M0
  6
CONTINUOUS
370
25
100
AcDbCircle
 10
404.25505
 20
336.587749
 40
4.000129
100
AcDbArc
 50
133.906372
 51
180.0
  0
ARC
  5
224
100
AcDbEntity
  8
M0
  6
CONTINUOUS
370
25
100
AcDbCircle
 10
372.203048
 20
351.308758
 40
2.999529
100
AcDbArc
 50
233.978073
 51
315.0
  0
ARC
  5
225
100
AcDbEntity
  8
M0
  6
CONTINUOUS
370
25
100
AcDbCircle
 10
363.75505
 20
336.05476
 40
3.998993
100
AcDbArc
 50
0.0
 51
58.392097
  0
ARC
  5
226
100
AcDbEntity
  8
M0
  6
CONTINUOUS
370
25
100
AcDbCircle
 10
410.854049
 20
393.089764
 40
3.001007
100
AcDbArc
 50
270.0
 51
360.0
  0
ARC
  5
227
100
AcDbEntity
  8
M0
  6
CONTINUOUS
370
25
100
AcDbCircle
 10
410.854049
 20
393.089764
 40
5.801025
100
AcDbArc
 50
270.0
 51
360.0
  0
ARC
  5
228
100
AcDbEntity
  8
M0
  6
CONTINUOUS
370
25
100
AcDbCircle
 10
399.704025
 20
356.546734
 40
0.500307
100
AcDbArc
 50
305.564087
 51
360.0
  0
ARC
  5
229
100
AcDbEntity
  8
M0
  6
CONTINUOUS
370
25
100
AcDbCircle
 10
368.704025
 20
356.546734
 40
0.5
100
AcDbArc
 50
180.0
 51
234.431839
  0
ARC
  5
22A
100
AcDbEntity
  8
M0
  6
CONTINUOUS
370
25
100
AcDbCircle
 10
399.204025
 20
357.789745
 40
1.0
100
AcDbArc
 50
0.0
 51
90.0
  0
ARC
  5
22B
100
AcDbEntity
  8
M0
  6
CONTINUOUS
370
25
100
AcDbCircle
 10
369.204025
 20
357.789745
 40
1.0
100
AcDbArc
 50
90.0
 51
180.0
  0
ARC
  5
22C
100
AcDbEntity
  8
M0
  6
CONTINUOUS
370
25
100
AcDbCircle
 10
388.204025
 20
345.260754
 40
1.99934
100
AcDbArc
 50
125.535034
 51
180.0
  0
ARC
  5
22D
100
AcDbEntity
  8
M0
  6
CONTINUOUS
370
25
100
AcDbCircle
 10
380.204025
 20
345.260754
 40
2.0
100
AcDbArc
 50
0.0
 51
54.465576
  0
ARC
  5
22E
100
AcDbEntity
  8
M0
  6
CONTINUOUS
370
25
100
AcDbCircle
 10
458.704025
 20
323.789745
 40
1.0
100
AcDbArc
 50
180.0
 51
270.0
  0
ARC
  5
22F
100
AcDbEntity
  8
M0
  6
CONTINUOUS
370
25
100
AcDbCircle
 10
384.204025
 20
324.289745
 40
0.5
100
AcDbArc
 50
180.0
 51
270.0
  0
ARC
  5
230
100
AcDbEntity
  8
M0
  6
CONTINUOUS
370
25
100
AcDbCircle
 10
388.204025
 20
324.289745
 40
0.5
100
AcDbArc
 50
270.0
 51
360.0
  0
CIRCLE
  5
231
100
AcDbEntity
  8
M0
  6
CONTINUOUS
370
25
100
AcDbCircle
 10
465.25505
 20
329.539745
 40
4.5
  0
ARC
  5
232
100
AcDbEntity
  8
M0
  6
CONTINUOUS
370
25
100
AcDbCircle
 10
470.75505
 20
334.789745
 40
1.5
100
AcDbArc
 50
0.0
 51
90.0
  0
ARC
  5
233
100
AcDbEntity
  8
M0
  6
CONTINUOUS
370
25
100
AcDbCircle
 10
459.75505
 20
334.789745
 40
1.5
100
AcDbArc
 50
90.0
 51
180.0
  0
ARC
  5
234
100
AcDbEntity
  8
M0
  6
CONTINUOUS
370
25
100
AcDbCircle
 10
459.75505
 20
324.289745
 40
1.5
100
AcDbArc
 50
180.0
 51
270.0
  0
ARC
  5
235
100
AcDbEntity
  8
M0
  6
CONTINUOUS
370
25
100
AcDbCircle
 10
470.75505
 20
324.289745
 40
1.5
100
AcDbArc
 50
270.0
 51
360.0
  0
ARC
  5
236
100
AcDbEntity
  8
M0
  6
CONTINUOUS
370
25
100
AcDbCircle
 10
455.25505
 20
342.289745
 40
2.0
100
AcDbArc
 50
270.0
 51
360.0
  0
ARC
  5
237
100
AcDbEntity
  8
M0
  6
CONTINUOUS
370
25
100
AcDbCircle
 10
450.25505
 20
336.789745
 40
1.5
100
AcDbArc
 50
270.0
 51
360.0
  0
ARC
  5
238
100
AcDbEntity
  8
M0
  6
CONTINUOUS
370
25
100
AcDbCircle
 10
385.502975
 20
317.739758
 40
0.299988
100
AcDbArc
 50
90.0
 51
180.0
  0
ARC
  5
239
100
AcDbEntity
  8
M0
  6
CONTINUOUS
370
25
100
AcDbCircle
 10
426.902999
 20
317.739758
 40
0.300018
100
AcDbArc
 50
0.0
 51
90.0
  0
CIRCLE
  5
23A
100
AcDbEntity
  8
M0
  6
CONTINUOUS
370
25
100
AcDbCircle
 10
351.754013
 20
329.539745
 40
4.5
  0
ARC
  5
23B
100
AcDbEntity
  8
M0
  6
CONTINUOUS
370
25
100
AcDbCircle
 10
346.254013
 20
334.789745
 40
1.5
100
AcDbArc
 50
90.0
 51
180.0
  0
ARC
  5
23C
100
AcDbEntity
  8
M0
  6
CONTINUOUS
370
25
100
AcDbCircle
 10
357.254013
 20
334.789745
 40
1.5
100
AcDbArc
 50
0.0
 51
90.0
  0
ARC
  5
23D
100
AcDbEntity
  8
M0
  6
CONTINUOUS
370
25
100
AcDbCircle
 10
357.254013
 20
324.289745
 40
1.5
100
AcDbArc
 50
270.0
 51
360.0
  0
ARC
  5
23E
100
AcDbEntity
  8
M0
  6
CONTINUOUS
370
25
100
AcDbCircle
 10
346.254013
 20
324.289745
 40
1.5
100
AcDbArc
 50
180.0
 51
270.0
  0
ARC
  5
23F
100
AcDbEntity
  8
M0
  6
CONTINUOUS
370
25
100
AcDbCircle
 10
424.75505
 20
365.268749
 40
6.0
100
AcDbArc
 50
180.0
 51
264.797668
  0
ARC
  5
240
100
AcDbEntity
  8
M0
  6
CONTINUOUS
370
25
100
AcDbCircle
 10
428.611984
 20
364.917736
 40
6.000066
100
AcDbArc
 50
212.275482
 51
264.807404
  0
ARC
  5
241
100
AcDbEntity
  8
M0
  6
CONTINUOUS
370
25
100
AcDbCircle
 10
411.75505
 20
367.289745
 40
2.0
100
AcDbArc
 50
0.0
 51
90.0
  0
ARC
  5
242
100
AcDbEntity
  8
M0
  6
CONTINUOUS
370
25
100
AcDbCircle
 10
434.75505
 20
351.789745
 40
1.0
100
AcDbArc
 50
90.0
 51
180.0
  0
ARC
  5
243
100
AcDbEntity
  8
M0
  6
CONTINUOUS
370
25
100
AcDbCircle
 10
427.75505
 20
351.789745
 40
1.0
100
AcDbArc
 50
0.0
 51
90.0
  0
ARC
  5
244
100
AcDbEntity
  8
M0
  6
CONTINUOUS
370
25
100
AcDbCircle
 10
424.75505
 20
245.310741
 40
5.99972
100
AcDbArc
 50
95.202263
 51
180.0
  0
ARC
  5
245
100
AcDbEntity
  8
M0
  6
CONTINUOUS
370
25
100
AcDbCircle
 10
428.611984
 20
245.661755
 40
5.999629
100
AcDbArc
 50
95.192688
 51
147.724487
  0
CIRCLE
  5
246
100
AcDbEntity
  8
M0
  6
CONTINUOUS
370
25
100
AcDbCircle
 10
442.75505
 20
344.039745
 40
5.833008
  0
ARC
  5
247
100
AcDbEntity
  8
M0
  6
CONTINUOUS
370
25
100
AcDbCircle
 10
449.75505
 20
350.789745
 40
2.0
100
AcDbArc
 50
0.0
 51
90.0
  0
ARC
  5
248
100
AcDbEntity
  8
M0
  6
CONTINUOUS
370
25
100
AcDbCircle
 10
435.75505
 20
350.789745
 40
2.0
100
AcDbArc
 50
90.0
 51
180.0
  0
ARC
  5
249
100
AcDbEntity
  8
M0
  6
CONTINUOUS
370
25
100
AcDbCircle
 10
435.75505
 20
337.289745
 40
2.0
100
AcDbArc
 50
180.0
 51
270.0
  0
ARC
  5
24A
100
AcDbEntity
  8
M0
  6
CONTINUOUS
370
25
100
AcDbCircle
 10
449.75505
 20
337.289745
 40
2.0
100
AcDbArc
 50
270.0
 51
360.0
  0
CIRCLE
  5
24B
100
AcDbEntity
  8
M0
  6
CONTINUOUS
370
25
100
AcDbCircle
 10
419.75505
 20
344.039745
 40
5.833008
  0
ARC
  5
24C
100
AcDbEntity
  8
M0
  6
CONTINUOUS
370
25
100
AcDbCircle
 10
412.75505
 20
350.789745
 40
2.0
100
AcDbArc
 50
90.0
 51
180.0
  0
ARC
  5
24D
100
AcDbEntity
  8
M0
  6
CONTINUOUS
370
25
100
AcDbCircle
 10
426.75505
 20
350.789745
 40
2.0
100
AcDbArc
 50
0.0
 51
90.0
  0
ARC
  5
24E
100
AcDbEntity
  8
M0
  6
CONTINUOUS
370
25
100
AcDbCircle
 10
426.75505
 20
337.289745
 40
2.0
100
AcDbArc
 50
270.0
 51
360.0
  0
ARC
  5
24F
100
AcDbEntity
  8
M0
  6
CONTINUOUS
370
25
100
AcDbCircle
 10
412.75505
 20
337.289745
 40
2.0
100
AcDbArc
 50
180.0
 51
270.0
  0
ARC
  5
250
100
AcDbEntity
  8
M0
  6
CONTINUOUS
370
25
100
AcDbCircle
 10
416.094039
 20
269.039745
 40
8.660212
100
AcDbArc
 50
339.731995
 51
380.268005
  0
ARC
  5
251
100
AcDbEntity
  8
M0
  6
CONTINUOUS
370
25
100
AcDbCircle
 10
422.693038
 20
264.652752
 40
2.061397
100
AcDbArc
 50
317.713257
 51
402.286755
  0
ARC
  5
252
100
AcDbEntity
  8
M0
  6
CONTINUOUS
370
25
100
AcDbCircle
 10
422.693038
 20
273.425762
 40
2.06074
100
AcDbArc
 50
317.733337
 51
402.286789
  0
ARC
  5
253
100
AcDbEntity
  8
M0
  6
CONTINUOUS
370
25
100
AcDbCircle
 10
416.094039
 20
232.789745
 40
8.660212
100
AcDbArc
 50
339.731995
 51
380.268005
  0
ARC
  5
254
100
AcDbEntity
  8
M0
  6
CONTINUOUS
370
25
100
AcDbCircle
 10
422.693038
 20
228.402752
 40
2.061407
100
AcDbArc
 50
317.712921
 51
402.286755
  0
ARC
  5
255
100
AcDbEntity
  8
M0
  6
CONTINUOUS
370
25
100
AcDbCircle
 10
422.693038
 20
237.176739
 40
2.061397
100
AcDbArc
 50
317.713257
 51
402.266644
  0
ARC
  5
256
100
AcDbEntity
  8
M0
  6
CONTINUOUS
370
25
100
AcDbCircle
 10
416.094039
 20
377.788738
 40
8.660212
100
AcDbArc
 50
339.731995
 51
380.268005
  0
ARC
  5
257
100
AcDbEntity
  8
M0
  6
CONTINUOUS
370
25
100
AcDbCircle
 10
422.693038
 20
373.401745
 40
2.061397
100
AcDbArc
 50
317.713257
 51
402.286755
  0
ARC
  5
258
100
AcDbEntity
  8
M0
  6
CONTINUOUS
370
25
100
AcDbCircle
 10
422.693038
 20
382.175762
 40
2.061417
100
AcDbArc
 50
317.712616
 51
402.265759
  0
ARC
  5
259
100
AcDbEntity
  8
M0
  6
CONTINUOUS
370
25
100
AcDbCircle
 10
357.754013
 20
335.289745
 40
1.0
100
AcDbArc
 50
0.0
 51
90.0
  0
ARC
  5
25A
100
AcDbEntity
  8
M0
  6
CONTINUOUS
370
25
100
AcDbCircle
 10
358.754013
 20
338.289745
 40
2.0
100
AcDbArc
 50
0.0
 51
90.0
  0
ARC
  5
25B
100
AcDbEntity
  8
M0
  6
CONTINUOUS
370
25
100
AcDbCircle
 10
352.25505
 20
342.289745
 40
2.0
100
AcDbArc
 50
180.0
 51
270.0
  0
ARC
  5
25C
100
AcDbEntity
  8
M0
  6
CONTINUOUS
370
25
100
AcDbCircle
 10
357.754013
 20
345.289745
 40
4.998993
100
AcDbArc
 50
180.0
 51
270.0
  0
ARC
  5
25D
100
AcDbEntity
  8
M0
  6
CONTINUOUS
370
25
100
AcDbCircle
 10
344.75505
 20
353.289745
 40
2.0
100
AcDbArc
 50
270.0
 51
360.0
  0
ARC
  5
25E
100
AcDbEntity
  8
M0
  6
CONTINUOUS
370
25
100
AcDbCircle
 10
352.25505
 20
367.289745
 40
2.0
100
AcDbArc
 50
90.0
 51
180.0
  0
ARC
  5
25F
100
AcDbEntity
  8
M0
  6
CONTINUOUS
370
25
100
AcDbCircle
 10
344.754013
 20
257.289745
 40
2.0
100
AcDbArc
 50
0.0
 51
90.0
  0
ARC
  5
260
100
AcDbEntity
  8
M0
  6
CONTINUOUS
370
25
100
AcDbCircle
 10
348.913986
 20
377.788738
 40
8.66024
100
AcDbArc
 50
159.732071
 51
200.267929
  0
ARC
  5
261
100
AcDbEntity
  8
M0
  6
CONTINUOUS
370
25
100
AcDbCircle
 10
342.314987
 20
382.175762
 40
2.060742
100
AcDbArc
 50
137.734528
 51
222.287674
  0
ARC
  5
262
100
AcDbEntity
  8
M0
  6
CONTINUOUS
370
25
100
AcDbCircle
 10
342.314987
 20
373.401745
 40
2.061419
100
AcDbArc
 50
137.713821
 51
222.286179
  0
ARC
  5
263
100
AcDbEntity
  8
M0
  6
CONTINUOUS
370
25
100
AcDbCircle
 10
348.913986
 20
232.789745
 40
8.66024
100
AcDbArc
 50
159.732071
 51
200.267929
  0
ARC
  5
264
100
AcDbEntity
  8
M0
  6
CONTINUOUS
370
25
100
AcDbCircle
 10
342.314987
 20
237.176739
 40
2.060762
100
AcDbArc
 50
137.733902
 51
222.286224
  0
ARC
  5
265
100
AcDbEntity
  8
M0
  6
CONTINUOUS
370
25
100
AcDbCircle
 10
342.314987
 20
228.402752
 40
2.061419
100
AcDbArc
 50
137.713821
 51
222.287323
  0
ARC
  5
266
100
AcDbEntity
  8
M0
  6
CONTINUOUS
370
25
100
AcDbCircle
 10
348.913986
 20
269.039745
 40
8.66024
100
AcDbArc
 50
159.732071
 51
200.267929
  0
ARC
  5
267
100
AcDbEntity
  8
M0
  6
CONTINUOUS
370
25
100
AcDbCircle
 10
342.314987
 20
273.426739
 40
2.060762
100
AcDbArc
 50
137.733902
 51
222.286224
  0
ARC
  5
268
100
AcDbEntity
  8
M0
  6
CONTINUOUS
370
25
100
AcDbCircle
 10
342.314987
 20
264.652752
 40
2.061419
100
AcDbArc
 50
137.713821
 51
222.286179
  0
ARC
  5
269
100
AcDbEntity
  8
M0
  6
CONTINUOUS
370
25
100
AcDbCircle
 10
431.840011
 20
296.213757
 40
1.586426
100
AcDbArc
 50
93.179222
 51
267.72229
  0
ARC
  5
26A
100
AcDbEntity
  8
M0
  6
CONTINUOUS
370
25
100
AcDbCircle
 10
454.25505
 20
302.051739
 40
2.999591
100
AcDbArc
 50
273.17215
 51
360.0
  0
ARC
  5
26B
100
AcDbEntity
  8
M0
  6
CONTINUOUS
370
25
100
AcDbCircle
 10
454.25505
 20
290.376751
 40
3.0
100
AcDbArc
 50
0.0
 51
86.827705
  0
ARC
  5
26C
100
AcDbEntity
  8
M0
  6
CONTINUOUS
370
25
100
AcDbCircle
 10
431.840011
 20
235.309734
 40
1.585451
100
AcDbArc
 50
93.181175
 51
266.818817
  0
ARC
  5
26D
100
AcDbEntity
  8
M0
  6
CONTINUOUS
370
25
100
AcDbCircle
 10
454.25505
 20
229.471752
 40
3.0
100
AcDbArc
 50
0.0
 51
86.82888
  0
ARC
  5
26E
100
AcDbEntity
  8
M0
  6
CONTINUOUS
370
25
100
AcDbCircle
 10
454.25505
 20
241.147747
 40
2.999591
100
AcDbArc
 50
273.17215
 51
360.0
  0
ARC
  5
26F
100
AcDbEntity
  8
M0
  6
CONTINUOUS
370
25
100
AcDbCircle
 10
434.25505
 20
252.649761
 40
4.000529
100
AcDbArc
 50
98.061302
 51
180.0
  0
ARC
  5
270
100
AcDbEntity
  8
M0
  6
CONTINUOUS
370
25
100
AcDbCircle
 10
434.25505
 20
271.807751
 40
4.000424
100
AcDbArc
 50
96.069794
 51
180.0
  0
ARC
  5
271
100
AcDbEntity
  8
M0
  6
CONTINUOUS
370
25
100
AcDbCircle
 10
455.75505
 20
279.620739
 40
1.499344
100
AcDbArc
 50
276.048615
 51
360.0
  0
ARC
  5
272
100
AcDbEntity
  8
M0
  6
CONTINUOUS
370
25
100
AcDbCircle
 10
433.75505
 20
296.533764
 40
3.500759
100
AcDbArc
 50
92.996696
 51
180.0
  0
ARC
  5
273
100
AcDbEntity
  8
M0
  6
CONTINUOUS
370
25
100
AcDbCircle
 10
455.25505
 20
303.166759
 40
1.999716
100
AcDbArc
 50
272.981262
 51
360.0
  0
ARC
  5
274
100
AcDbEntity
  8
M0
  6
CONTINUOUS
370
25
100
AcDbCircle
 10
436.25505
 20
386.788738
 40
6.0
100
AcDbArc
 50
90.0
 51
180.0
  0
ARC
  5
275
100
AcDbEntity
  8
M0
  6
CONTINUOUS
370
25
100
AcDbCircle
 10
455.25505
 20
394.788738
 40
2.0
100
AcDbArc
 50
270.0
 51
360.0
  0
ARC
  5
276
100
AcDbEntity
  8
M0
  6
CONTINUOUS
370
25
100
AcDbCircle
 10
454.25505
 20
358.293743
 40
3.0
100
AcDbArc
 50
0.0
 51
17.359797
  0
ARC
  5
277
100
AcDbEntity
  8
M0
  6
CONTINUOUS
370
25
100
AcDbCircle
 10
441.25505
 20
374.938763
 40
11.0
100
AcDbArc
 50
180.0
 51
259.508331
  0
ARC
  5
278
100
AcDbEntity
  8
M0
  6
CONTINUOUS
370
25
100
AcDbCircle
 10
431.840011
 20
262.005749
 40
1.585451
100
AcDbArc
 50
93.181175
 51
267.723083
  0
ARC
  5
279
100
AcDbEntity
  8
M0
  6
CONTINUOUS
370
25
100
AcDbCircle
 10
454.25505
 20
267.843761
 40
2.999622
100
AcDbArc
 50
273.172089
 51
360.0
  0
ARC
  5
27A
100
AcDbEntity
  8
M0
  6
CONTINUOUS
370
25
100
AcDbCircle
 10
454.25505
 20
256.167736
 40
3.0
100
AcDbArc
 50
0.0
 51
86.82888
  0
ARC
  5
27B
100
AcDbEntity
  8
M0
  6
CONTINUOUS
370
25
100
AcDbCircle
 10
431.840011
 20
220.679745
 40
1.586441
100
AcDbArc
 50
93.179192
 51
267.722321
  0
ARC
  5
27C
100
AcDbEntity
  8
M0
  6
CONTINUOUS
370
25
100
AcDbCircle
 10
454.25505
 20
226.517742
 40
2.999591
100
AcDbArc
 50
273.17215
 51
360.0
  0
ARC
  5
27D
100
AcDbEntity
  8
M0
  6
CONTINUOUS
370
25
100
AcDbCircle
 10
454.25505
 20
214.841747
 40
3.0
100
AcDbArc
 50
8.588256
 51
86.82888
  0
ARC
  5
27E
100
AcDbEntity
  8
M0
  6
CONTINUOUS
370
25
100
AcDbCircle
 10
459.913986
 20
365.288738
 40
8.660212
100
AcDbArc
 50
159.731995
 51
200.268005
  0
ARC
  5
27F
100
AcDbEntity
  8
M0
  6
CONTINUOUS
370
25
100
AcDbCircle
 10
453.314987
 20
369.675762
 40
2.061397
100
AcDbArc
 50
137.713242
 51
222.287384
  0
ARC
  5
280
100
AcDbEntity
  8
M0
  6
CONTINUOUS
370
25
100
AcDbCircle
 10
453.314987
 20
360.901745
 40
2.061397
100
AcDbArc
 50
137.713242
 51
222.266327
  0
ARC
  5
281
100
AcDbEntity
  8
M0
  6
CONTINUOUS
370
25
100
AcDbCircle
 10
402.653976
 20
412.644756
 40
11.200012
100
AcDbArc
 50
0.0
 51
60.001255
  0
ARC
  5
282
100
AcDbEntity
  8
M0
  6
CONTINUOUS
370
25
100
AcDbCircle
 10
402.653976
 20
412.644756
 40
13.999802
100
AcDbArc
 50
25.840195
 51
60.001305
  0
ARC
  5
283
100
AcDbEntity
  8
M0
  6
CONTINUOUS
370
25
100
AcDbCircle
 10
427.854049
 20
412.644756
 40
14.000558
100
AcDbArc
 50
119.99868
 51
180.0
  0
ARC
  5
284
100
AcDbEntity
  8
M0
  6
CONTINUOUS
370
25
100
AcDbCircle
 10
427.854049
 20
412.644756
 40
11.200434
100
AcDbArc
 50
119.998756
 51
180.0
  0
CIRCLE
  5
285
100
AcDbEntity
  8
M0
  6
CONTINUOUS
370
25
100
AcDbCircle
 10
132.550033
 20
305.289745
 40
81.0
  0
ARC
  5
286
100
AcDbEntity
  8
M0
  6
CONTINUOUS
370
25
100
AcDbCircle
 10
132.550033
 20
305.289745
 40
36.999821
100
AcDbArc
 50
106.203857
 51
133.794388
  0
CIRCLE
  5
287
100
AcDbEntity
  8
M0
  6
CONTINUOUS
370
25
100
AcDbCircle
 10
132.550033
 20
305.289745
 40
35.0
  0
CIRCLE
  5
288
100
AcDbEntity
  8
M0
  6
CONTINUOUS
370
25
100
AcDbCircle
 10
132.550033
 20
305.289745
 40
31.0
  0
CIRCLE
  5
289
100
AcDbEntity
  8
M0
  6
CONTINUOUS
370
25
100
AcDbCircle
 10
132.550033
 20
305.289745
 40
17.5
  0
ARC
  5
28A
100
AcDbEntity
  8
M0
  6
CONTINUOUS
370
25
100
AcDbCircle
 10
132.550033
 20
305.289745
 40
12.5
100
AcDbArc
 50
106.260208
 51
433.739792
  0
ARC
  5
28B
100
AcDbEntity
  8
M0
  6
CONTINUOUS
370
25
100
AcDbCircle
 10
132.550033
 20
304.289745
 40
19.999838
100
AcDbArc
 50
104.94857
 51
435.048714
  0
CIRCLE
  5
28C
100
AcDbEntity
  8
M0
  6
CONTINUOUS
370
25
100
AcDbCircle
 10
129.250045
 20
325.141735
 40
1.25
  0
ARC
  5
28D
100
AcDbEntity
  8
M0
  6
CONTINUOUS
370
25
100
AcDbCircle
 10
130.535995
 20
326.854748
 40
0.299988
100
AcDbArc
 50
0.0
 51
90.0
  0
ARC
  5
28E
100
AcDbEntity
  8
M0
  6
CONTINUOUS
370
25
100
AcDbCircle
 10
127.691024
 20
326.854748
 40
0.299988
100
AcDbArc
 50
90.0
 51
180.0
  0
CIRCLE
  5
28F
100
AcDbEntity
  8
M0
  6
CONTINUOUS
370
25
100
AcDbCircle
 10
135.850997
 20
325.141735
 40
1.25
  0
ARC
  5
290
100
AcDbEntity
  8
M0
  6
CONTINUOUS
370
25
100
AcDbCircle
 10
137.410018
 20
326.854748
 40
0.299988
100
AcDbArc
 50
0.0
 51
90.0
  0
ARC
  5
291
100
AcDbEntity
  8
M0
  6
CONTINUOUS
370
25
100
AcDbCircle
 10
134.564987
 20
326.854748
 40
0.299988
100
AcDbArc
 50
90.0
 51
180.0
  0
ARC
  5
292
100
AcDbEntity
  8
M0
  6
CONTINUOUS
370
25
100
AcDbCircle
 10
132.550033
 20
306.289745
 40
28.000366
100
AcDbArc
 50
100.617264
 51
439.380707
  0
CIRCLE
  5
293
100
AcDbEntity
  8
M0
  6
CONTINUOUS
370
25
100
AcDbCircle
 10
129.250045
 20
333.937756
 40
1.25
  0
ARC
  5
294
100
AcDbEntity
  8
M0
  6
CONTINUOUS
370
25
100
AcDbCircle
 10
130.535995
 20
332.22575
 40
0.299988
100
AcDbArc
 50
270.0
 51
360.0
  0
ARC
  5
295
100
AcDbEntity
  8
M0
  6
CONTINUOUS
370
25
100
AcDbCircle
 10
127.691024
 20
332.22575
 40
0.299988
100
AcDbArc
 50
180.0
 51
270.0
  0
CIRCLE
  5
296
100
AcDbEntity
  8
M0
  6
CONTINUOUS
370
25
100
AcDbCircle
 10
135.850997
 20
333.937756
 40
1.25
  0
ARC
  5
297
100
AcDbEntity
  8
M0
  6
CONTINUOUS
370
25
100
AcDbCircle
 10
134.564987
 20
332.22575
 40
0.299988
100
AcDbArc
 50
180.0
 51
270.0
  0
ARC
  5
298
100
AcDbEntity
  8
M0
  6
CONTINUOUS
370
25
100
AcDbCircle
 10
137.410018
 20
332.22575
 40
0.299988
100
AcDbArc
 50
270.0
 51
360.0
  0
CIRCLE
  5
299
100
AcDbEntity
  8
M0
  6
CONTINUOUS
370
25
100
AcDbCircle
 10
132.550033
 20
377.789745
 40
5.0
  0
ARC
  5
29A
100
AcDbEntity
  8
M0
  6
CONTINUOUS
370
25
100
AcDbCircle
 10
132.550033
 20
345.289745
 40
6.0
100
AcDbArc
 50
0.0
 51
180.0
  0
ARC
  5
29B
100
AcDbEntity
  8
M0
  6
CONTINUOUS
370
25
100
AcDbCircle
 10
120.550033
 20
346.581738
 40
6.000513
100
AcDbArc
 50
286.208923
 51
360.0
  0
ARC
  5
29C
100
AcDbEntity
  8
M0
  6
CONTINUOUS
370
25
100
AcDbCircle
 10
144.550033
 20
346.581738
 40
6.0
100
AcDbArc
 50
180.0
 51
253.799927
  0
CIRCLE
  5
29D
100
AcDbEntity
  8
M0
  6
CONTINUOUS
370
25
100
AcDbCircle
 10
69.764022
 20
341.539745
 40
5.0
  0
ARC
  5
29E
100
AcDbEntity
  8
M0
  6
CONTINUOUS
370
25
100
AcDbCircle
 10
97.908981
 20
325.289745
 40
5.99988
100
AcDbArc
 50
59.99934
 51
239.999344
  0
ARC
  5
29F
100
AcDbEntity
  8
M0
  6
CONTINUOUS
370
25
100
AcDbCircle
 10
90.791
 20
315.543743
 40
6.000166
100
AcDbArc
 50
346.202362
 51
419.999352
  0
ARC
  5
2A0
100
AcDbEntity
  8
M0
  6
CONTINUOUS
370
25
100
AcDbCircle
 10
102.791
 20
336.32774
 40
5.999854
100
AcDbArc
 50
239.999191
 51
313.797882
  0
CIRCLE
  5
2A1
100
AcDbEntity
  8
M0
  6
CONTINUOUS
370
25
100
AcDbCircle
 10
69.764022
 20
269.040752
 40
5.0
  0
ARC
  5
2A2
100
AcDbEntity
  8
M0
  6
CONTINUOUS
370
25
100
AcDbCircle
 10
97.908981
 20
285.289745
 40
6.000726
100
AcDbArc
 50
119.995995
 51
300.000702
  0
ARC
  5
2A3
100
AcDbEntity
  8
M0
  6
CONTINUOUS
370
25
100
AcDbCircle
 10
102.791
 20
274.251751
 40
5.999702
100
AcDbArc
 50
46.208935
 51
120.000885
  0
ARC
  5
2A4
100
AcDbEntity
  8
M0
  6
CONTINUOUS
370
25
100
AcDbCircle
 10
90.791
 20
295.036755
 40
5.99988
100
AcDbArc
 50
300.000671
 51
373.797763
  0
CIRCLE
  5
2A5
100
AcDbEntity
  8
M0
  6
CONTINUOUS
370
25
100
AcDbCircle
 10
132.550033
 20
232.790752
 40
5.0
  0
ARC
  5
2A6
100
AcDbEntity
  8
M0
  6
CONTINUOUS
370
25
100
AcDbCircle
 10
132.550033
 20
265.289745
 40
6.0
100
AcDbArc
 50
180.0
 51
360.0
  0
ARC
  5
2A7
100
AcDbEntity
  8
M0
  6
CONTINUOUS
370
25
100
AcDbCircle
 10
144.550033
 20
263.99876
 40
5.999273
100
AcDbArc
 50
106.20266
 51
180.0
  0
ARC
  5
2A8
100
AcDbEntity
  8
M0
  6
CONTINUOUS
370
25
100
AcDbCircle
 10
120.550033
 20
263.99876
 40
6.0
100
AcDbArc
 50
0.0
 51
73.788406
  0
CIRCLE
  5
2A9
100
AcDbEntity
  8
M0
  6
CONTINUOUS
370
25
100
AcDbCircle
 10
195.33702
 20
269.040752
 40
5.0
  0
ARC
  5
2AA
100
AcDbEntity
  8
M0
  6
CONTINUOUS
370
25
100
AcDbCircle
 10
167.191024
 20
285.289745
 40
5.999854
100
AcDbArc
 50
239.999191
 51
420.003895
  0
ARC
  5
2AB
100
AcDbEntity
  8
M0
  6
CONTINUOUS
370
25
100
AcDbCircle
 10
174.309982
 20
295.036755
 40
6.000166
100
AcDbArc
 50
166.202362
 51
239.999344
  0
ARC
  5
2AC
100
AcDbEntity
  8
M0
  6
CONTINUOUS
370
25
100
AcDbCircle
 10
162.309982
 20
274.251751
 40
5.999854
100
AcDbArc
 50
59.999195
 51
133.797897
  0
CIRCLE
  5
2AD
100
AcDbEntity
  8
M0
  6
CONTINUOUS
370
25
100
AcDbCircle
 10
195.33702
 20
341.539745
 40
5.0
  0
ARC
  5
2AE
100
AcDbEntity
  8
M0
  6
CONTINUOUS
370
25
100
AcDbCircle
 10
167.191024
 20
325.289745
 40
5.999854
100
AcDbArc
 50
300.000793
 51
480.000801
  0
ARC
  5
2AF
100
AcDbEntity
  8
M0
  6
CONTINUOUS
370
25
100
AcDbCircle
 10
162.309982
 20
336.32774
 40
5.999693
100
AcDbArc
 50
226.195129
 51
300.001038
  0
ARC
  5
2B0
100
AcDbEntity
  8
M0
  6
CONTINUOUS
370
25
100
AcDbCircle
 10
174.309982
 20
315.543743
 40
5.99988
100
AcDbArc
 50
120.000656
 51
193.79776
  0
ARC
  5
2B1
100
AcDbEntity
  8
M0
  6
CONTINUOUS
370
25
100
AcDbCircle
 10
132.550033
 20
305.289745
 40
63.999702
100
AcDbArc
 50
101.940277
 51
138.059052
  0
ARC
  5
2B2
100
AcDbEntity
  8
M0
  6
CONTINUOUS
370
25
100
AcDbCircle
 10
89.408004
 20
344.05476
 40
5.999868
100
AcDbArc
 50
138.060577
 51
239.999191
  0
ARC
  5
2B3
100
AcDbEntity
  8
M0
  6
CONTINUOUS
370
25
100
AcDbCircle
 10
120.550033
 20
362.03474
 40
6.0
100
AcDbArc
 50
0.0
 51
101.937134
  0
ARC
  5
2B4
100
AcDbEntity
  8
M0
  6
CONTINUOUS
370
25
100
AcDbCircle
 10
132.550033
 20
305.289745
 40
63.999844
100
AcDbArc
 50
161.94075
 51
198.05925
  0
ARC
  5
2B5
100
AcDbEntity
  8
M0
  6
CONTINUOUS
370
25
100
AcDbCircle
 10
77.408004
 20
287.309734
 40
6.000564
100
AcDbArc
 50
198.057327
 51
300.000977
  0
ARC
  5
2B6
100
AcDbEntity
  8
M0
  6
CONTINUOUS
370
25
100
AcDbCircle
 10
77.408004
 20
323.269756
 40
6.000726
100
AcDbArc
 50
60.004002
 51
161.942657
  0
ARC
  5
2B7
100
AcDbEntity
  8
M0
  6
CONTINUOUS
370
25
100
AcDbCircle
 10
132.550033
 20
305.289745
 40
63.999523
100
AcDbArc
 50
221.940918
 51
258.059723
  0
ARC
  5
2B8
100
AcDbEntity
  8
M0
  6
CONTINUOUS
370
25
100
AcDbCircle
 10
120.550033
 20
248.54475
 40
5.999749
100
AcDbArc
 50
258.062378
 51
360.0
  0
ARC
  5
2B9
100
AcDbEntity
  8
M0
  6
CONTINUOUS
370
25
100
AcDbCircle
 10
89.408004
 20
266.525738
 40
5.99988
100
AcDbArc
 50
120.000656
 51
221.946548
  0
ARC
  5
2BA
100
AcDbEntity
  8
M0
  6
CONTINUOUS
370
25
100
AcDbCircle
 10
132.550033
 20
305.289745
 40
63.999905
100
AcDbArc
 50
281.941132
 51
318.059662
  0
ARC
  5
2BB
100
AcDbEntity
  8
M0
  6
CONTINUOUS
370
25
100
AcDbCircle
 10
175.693038
 20
266.525738
 40
6.000541
100
AcDbArc
 50
318.053406
 51
419.999584
  0
ARC
  5
2BC
100
AcDbEntity
  8
M0
  6
CONTINUOUS
370
25
100
AcDbCircle
 10
144.550033
 20
248.54475
 40
6.0
100
AcDbArc
 50
180.0
 51
281.946655
  0
ARC
  5
2BD
100
AcDbEntity
  8
M0
  6
CONTINUOUS
370
25
100
AcDbCircle
 10
132.550033
 20
305.289745
 40
63.999851
100
AcDbArc
 50
341.940735
 51
378.060135
  0
ARC
  5
2BE
100
AcDbEntity
  8
M0
  6
CONTINUOUS
370
25
100
AcDbCircle
 10
187.693038
 20
323.269756
 40
5.999948
100
AcDbArc
 50
18.069363
 51
119.995811
  0
ARC
  5
2BF
100
AcDbEntity
  8
M0
  6
CONTINUOUS
370
25
100
AcDbCircle
 10
187.693038
 20
287.309734
 40
5.999854
100
AcDbArc
 50
239.999191
 51
341.939484
  0
ARC
  5
2C0
100
AcDbEntity
  8
M0
  6
CONTINUOUS
370
25
100
AcDbCircle
 10
132.550033
 20
305.289745
 40
64.000259
100
AcDbArc
 50
41.94035
 51
78.058876
  0
ARC
  5
2C1
100
AcDbEntity
  8
M0
  6
CONTINUOUS
370
25
100
AcDbCircle
 10
144.550033
 20
362.03474
 40
5.999951
100
AcDbArc
 50
78.053253
 51
180.0
  0
ARC
  5
2C2
100
AcDbEntity
  8
M0
  6
CONTINUOUS
370
25
100
AcDbCircle
 10
175.693038
 20
344.05476
 40
5.99988
100
AcDbArc
 50
300.000671
 51
401.939426
  0
ARC
  5
2C3
100
AcDbEntity
  8
M0
  6
CONTINUOUS
370
25
100
AcDbCircle
 10
132.550033
 20
305.289745
 40
37.000092
100
AcDbArc
 50
286.205322
 51
313.795441
  0
ARC
  5
2C4
100
AcDbEntity
  8
M0
  6
CONTINUOUS
370
25
100
AcDbCircle
 10
132.550033
 20
305.289745
 40
37.000092
100
AcDbArc
 50
346.206024
 51
373.795503
  0
ARC
  5
2C5
100
AcDbEntity
  8
M0
  6
CONTINUOUS
370
25
100
AcDbCircle
 10
132.550033
 20
305.289745
 40
36.999756
100
AcDbArc
 50
226.204575
 51
253.796127
  0
ARC
  5
2C6
100
AcDbEntity
  8
M0
  6
CONTINUOUS
370
25
100
AcDbCircle
 10
132.550033
 20
305.289745
 40
36.999382
100
AcDbArc
 50
166.204132
 51
193.794312
  0
ARC
  5
2C7
100
AcDbEntity
  8
M0
  6
CONTINUOUS
370
25
100
AcDbCircle
 10
132.550033
 20
305.289745
 40
36.999756
100
AcDbArc
 50
46.204582
 51
73.794647
  0
CIRCLE
  5
2C8
100
AcDbEntity
  8
M0
  6
CONTINUOUS
370
25
100
AcDbCircle
 10
668.56401
 20
305.289745
 40
90.0
  0
CIRCLE
  5
2C9
100
AcDbEntity
  8
M0
  6
CONTINUOUS
370
25
100
AcDbCircle
 10
668.56401
 20
305.289745
 40
69.749023
  0
CIRCLE
  5
2CA
100
AcDbEntity
  8
M0
  6
CONTINUOUS
370
25
100
AcDbCircle
 10
668.56401
 20
305.289745
 40
35.0
  0
CIRCLE
  5
2CB
100
AcDbEntity
  8
M0
  6
CONTINUOUS
370
25
100
AcDbCircle
 10
668.56401
 20
305.289745
 40
31.0
  0
ARC
  5
2CC
100
AcDbEntity
  8
M0
  6
CONTINUOUS
370
25
100
AcDbCircle
 10
668.56401
 20
305.289745
 40
12.5
100
AcDbArc
 50
106.260208
 51
433.739792
  0
CIRCLE
  5
2CD
100
AcDbEntity
  8
M0
  6
CONTINUOUS
370
25
100
AcDbCircle
 10
668.56401
 20
305.289745
 40
17.5
  0
CIRCLE
  5
2CE
100
AcDbEntity
  8
M0
  6
CONTINUOUS
370
25
100
AcDbCircle
 10
132.55101
 20
305.289745
 40
90.999008
  0
ARC
  5
2CF
100
AcDbEntity
  8
M0
  6
CONTINUOUS
370
25
100
AcDbCircle
 10
668.56401
 20
305.289745
 40
90.998405
100
AcDbArc
 50
61.259502
 51
418.740753
  0
CIRCLE
  5
2D0
100
AcDbEntity
  8
M0
  6
CONTINUOUS
370
25
100
AcDbCircle
 10
668.563034
 20
345.288738
 40
3.0
  0
CIRCLE
  5
2D1
100
AcDbEntity
  8
M0
  6
CONTINUOUS
370
25
100
AcDbCircle
 10
668.563034
 20
345.288738
 40
2.399963
  0
ARC
  5
2D2
100
AcDbEntity
  8
M0
  6
CONTINUOUS
370
25
100
AcDbCircle
 10
668.56401
 20
305.289745
 40
39.998981
100
AcDbArc
 50
82.6241
 51
97.139084
  0
CIRCLE
  5
2D3
100
AcDbEntity
  8
M0
  6
CONTINUOUS
370
25
100
AcDbCircle
 10
633.923995
 20
325.288738
 40
3.0
  0
CIRCLE
  5
2D4
100
AcDbEntity
  8
M0
  6
CONTINUOUS
370
25
100
AcDbCircle
 10
633.923995
 20
325.288738
 40
2.400024
  0
ARC
  5
2D5
100
AcDbEntity
  8
M0
  6
CONTINUOUS
370
25
100
AcDbCircle
 10
668.56401
 20
305.289745
 40
39.998985
100
AcDbArc
 50
142.624176
 51
157.13826
  0
CIRCLE
  5
2D6
100
AcDbEntity
  8
M0
  6
CONTINUOUS
370
25
100
AcDbCircle
 10
633.923995
 20
285.289745
 40
3.0
  0
CIRCLE
  5
2D7
100
AcDbEntity
  8
M0
  6
CONTINUOUS
370
25
100
AcDbCircle
 10
633.925033
 20
285.289745
 40
2.399963
  0
ARC
  5
2D8
100
AcDbEntity
  8
M0
  6
CONTINUOUS
370
25
100
AcDbCircle
 10
668.56401
 20
305.289745
 40
39.999016
100
AcDbArc
 50
202.624146
 51
217.138611
  0
CIRCLE
  5
2D9
100
AcDbEntity
  8
M0
  6
CONTINUOUS
370
25
100
AcDbCircle
 10
668.564987
 20
265.290752
 40
3.0
  0
CIRCLE
  5
2DA
100
AcDbEntity
  8
M0
  6
CONTINUOUS
370
25
100
AcDbCircle
 10
668.564987
 20
265.290752
 40
2.400024
  0
ARC
  5
2DB
100
AcDbEntity
  8
M0
  6
CONTINUOUS
370
25
100
AcDbCircle
 10
668.56401
 20
305.289745
 40
39.998981
100
AcDbArc
 50
262.624084
 51
277.139069
  0
CIRCLE
  5
2DC
100
AcDbEntity
  8
M0
  6
CONTINUOUS
370
25
100
AcDbCircle
 10
703.204025
 20
285.290752
 40
3.0
  0
CIRCLE
  5
2DD
100
AcDbEntity
  8
M0
  6
CONTINUOUS
370
25
100
AcDbCircle
 10
703.204025
 20
285.291759
 40
2.399963
  0
ARC
  5
2DE
100
AcDbEntity
  8
M0
  6
CONTINUOUS
370
25
100
AcDbCircle
 10
668.56401
 20
305.289745
 40
39.99897
100
AcDbArc
 50
322.624176
 51
337.138275
  0
CIRCLE
  5
2DF
100
AcDbEntity
  8
M0
  6
CONTINUOUS
370
25
100
AcDbCircle
 10
703.202987
 20
325.289745
 40
3.0
  0
CIRCLE
  5
2E0
100
AcDbEntity
  8
M0
  6
CONTINUOUS
370
25
100
AcDbCircle
 10
703.202987
 20
325.289745
 40
2.400024
  0
ARC
  5
2E1
100
AcDbEntity
  8
M0
  6
CONTINUOUS
370
25
100
AcDbCircle
 10
668.56401
 20
305.289745
 40
39.999016
100
AcDbArc
 50
22.624142
 51
37.138638
  0
ARC
  5
2E2
100
AcDbEntity
  8
M0
  6
CONTINUOUS
370
25
100
AcDbCircle
 10
60.682052
 20
409.769756
 40
9.999809
100
AcDbArc
 50
30.000629
 51
90.0
  0
ARC
  5
2E3
100
AcDbEntity
  8
M0
  6
CONTINUOUS
370
25
100
AcDbCircle
 10
78.001998
 20
419.769756
 40
9.999757
100
AcDbArc
 50
149.999191
 51
210.000809
  0
ARC
  5
2E4
100
AcDbEntity
  8
M0
  6
CONTINUOUS
370
25
100
AcDbCircle
 10
60.682052
 20
409.769756
 40
7.999805
100
AcDbArc
 50
30.000805
 51
90.0
  0
ARC
  5
2E5
100
AcDbEntity
  8
M0
  6
CONTINUOUS
370
25
100
AcDbCircle
 10
78.001998
 20
419.769756
 40
7.999805
100
AcDbArc
 50
149.999191
 51
210.000809
  0
ARC
  5
2E6
100
AcDbEntity
  8
M0
  6
CONTINUOUS
370
25
100
AcDbCircle
 10
723.111007
 20
419.769756
 40
10.000655
100
AcDbArc
 50
330.002167
 51
389.997833
  0
ARC
  5
2E7
100
AcDbEntity
  8
M0
  6
CONTINUOUS
370
25
100
AcDbCircle
 10
740.431991
 20
409.769756
 40
10.0
100
AcDbArc
 50
90.0
 51
149.999207
  0
ARC
  5
2E8
100
AcDbEntity
  8
M0
  6
CONTINUOUS
370
25
100
AcDbCircle
 10
723.111007
 20
419.769756
 40
8.000704
100
AcDbArc
 50
330.002899
 51
389.997089
  0
ARC
  5
2E9
100
AcDbEntity
  8
M0
  6
CONTINUOUS
370
25
100
AcDbCircle
 10
740.431991
 20
409.769756
 40
8.0
100
AcDbArc
 50
90.0
 51
149.999222
  0
CIRCLE
  5
2EA
100
AcDbEntity
  8
M0
  6
CONTINUOUS
370
25
100
AcDbCircle
 10
132.550033
 20
345.289745
 40
3.0
  0
CIRCLE
  5
2EB
100
AcDbEntity
  8
M0
  6
CONTINUOUS
370
25
100
AcDbCircle
 10
132.550033
 20
345.289745
 40
2.399994
  0
ARC
  5
2EC
100
AcDbEntity
  8
M0
  6
CONTINUOUS
370
25
100
AcDbCircle
 10
132.550033
 20
305.289745
 40
40.000687
100
AcDbArc
 50
83.184464
 51
97.137459
  0
CIRCLE
  5
2ED
100
AcDbEntity
  8
M0
  6
CONTINUOUS
370
25
100
AcDbCircle
 10
97.910018
 20
325.289745
 40
3.0
  0
CIRCLE
  5
2EE
100
AcDbEntity
  8
M0
  6
CONTINUOUS
370
25
100
AcDbCircle
 10
97.910018
 20
325.289745
 40
2.400002
  0
ARC
  5
2EF
100
AcDbEntity
  8
M0
  6
CONTINUOUS
370
25
100
AcDbCircle
 10
132.550033
 20
305.289745
 40
40.000427
100
AcDbArc
 50
143.18425
 51
157.13829
  0
CIRCLE
  5
2F0
100
AcDbEntity
  8
M0
  6
CONTINUOUS
370
25
100
AcDbCircle
 10
97.910018
 20
285.290752
 40
3.0
  0
CIRCLE
  5
2F1
100
AcDbEntity
  8
M0
  6
CONTINUOUS
370
25
100
AcDbCircle
 10
97.910018
 20
285.290752
 40
2.400002
  0
ARC
  5
2F2
100
AcDbEntity
  8
M0
  6
CONTINUOUS
370
25
100
AcDbCircle
 10
132.550033
 20
305.289745
 40
39.999462
100
AcDbArc
 50
203.185226
 51
217.137756
  0
CIRCLE
  5
2F3
100
AcDbEntity
  8
M0
  6
CONTINUOUS
370
25
100
AcDbCircle
 10
132.550033
 20
265.290752
 40
3.0
  0
CIRCLE
  5
2F4
100
AcDbEntity
  8
M0
  6
CONTINUOUS
370
25
100
AcDbCircle
 10
132.550033
 20
265.290752
 40
2.399994
  0
ARC
  5
2F5
100
AcDbEntity
  8
M0
  6
CONTINUOUS
370
25
100
AcDbCircle
 10
132.550033
 20
305.289745
 40
39.999573
100
AcDbArc
 50
263.185669
 51
277.139069
  0
CIRCLE
  5
2F6
100
AcDbEntity
  8
M0
  6
CONTINUOUS
370
25
100
AcDbCircle
 10
167.191024
 20
285.290752
 40
3.0
  0
CIRCLE
  5
2F7
100
AcDbEntity
  8
M0
  6
CONTINUOUS
370
25
100
AcDbCircle
 10
167.191024
 20
285.290752
 40
2.400009
  0
ARC
  5
2F8
100
AcDbEntity
  8
M0
  6
CONTINUOUS
370
25
100
AcDbCircle
 10
132.550033
 20
305.289745
 40
39.999825
100
AcDbArc
 50
323.185394
 51
337.138824
  0
CIRCLE
  5
2F9
100
AcDbEntity
  8
M0
  6
CONTINUOUS
370
25
100
AcDbCircle
 10
167.191024
 20
325.289745
 40
3.0
  0
CIRCLE
  5
2FA
100
AcDbEntity
  8
M0
  6
CONTINUOUS
370
25
100
AcDbCircle
 10
167.191024
 20
325.289745
 40
2.400009
  0
ARC
  5
2FB
100
AcDbEntity
  8
M0
  6
CONTINUOUS
370
25
100
AcDbCircle
 10
132.550033
 20
305.289745
 40
40.000374
100
AcDbArc
 50
23.184717
 51
37.138908
  0
TEXT
  5
2FC
100
AcDbEntity
  8
M0
100
AcDbText
 10
658.79924
 20
142.042754
 40
8.1
  1
ＰＨＣ－２．５Ｒ
 41
1.052632
  7
STANDARD
100
AcDbText
  0
TEXT
  5
2FD
100
AcDbEntity
  8
M0
100
AcDbText
 10
661.576218
 20
122.983443
 40
7.5
  1
（ＳＤＫ６２３２）
  7
STANDARD
100
AcDbText
  0
ENDSEC
  0
SECTION
  2
OBJECTS
  0
DICTIONARY
  5
C
100
AcDbDictionary
  3
ACAD_GROUP
350
D
  3
ACAD_MLINESTYLE
350
E
  0
DICTIONARY
  5
D
102
{ACAD_REACTORS
330
C
102
}
100
AcDbDictionary
  0
DICTIONARY
  5
E
102
{ACAD_REACTORS
330
C
102
}
100
AcDbDictionary
  3
STANDARD
350
13
  0
MLINESTYLE
  5
13
102
{ACAD_REACTORS
330
E
102
}
100
AcDbMlineStyle
  2
STANDARD
 70
     0
  3

 62
     0
 51
90.0
 52
90.0
 71
     2
 49
0.5
 62
   256
  6
BYLAYER
 49
-0.5
 62
   256
  6
BYLAYER
  0
ENDSEC
  0
EOF
