  0
SECTION
  2
HEADER
  9
$ACADVER
  1
AC1015
  9
$INSBASE
 10
0.0
 20
0.0
  9
$VIEWCTR
 10
7.531722
 20
4.5
  9
$VIEWSIZE
 40
9.0
  9
$SNAPMODE
 70
     0
  9
$SNAPUNIT
 10
1.0
 20
1.0
  9
$SNAPBASE
 10
0.0
 20
0.0
  9
$SNAPANG
 50
0.0
  9
$SNAPSTYLE
 70
     0
  9
$SNAPISOPAIR
 70
     0
  9
$GRIDMODE
 70
     0
  9
$GRIDUNIT
 10
0.0
 20
0.0
  9
$ORTHOMODE
 70
     0
  9
$REGENMODE
 70
     1
  9
$FILLMODE
 70
     1
  9
$QTEXTMODE
 70
     0
  9
$DRAGMODE
 70
     2
  9
$LTSCALE
 40
1.0
  9
$OSMODE
 70
     0
  9
$ATTMODE
 70
     1
  9
$TEXTSIZE
 40
0.2
  9
$TRACEWID
 40
0.05
  9
$TEXTSTYLE
  7
STANDARD
  9
$CELTYPE
  6
BYLAYER
  9
$CECOLOR
 62
   256
  9
$DIMSCALE
 40
1.0
  9
$DIMASZ
 40
0.18
  9
$DIMEXO
 40
0.0625
  9
$DIMDLI
 40
0.38
  9
$DIMRND
 40
0.0
  9
$DIMDLE
 40
0.0
  9
$DIMEXE
 40
0.18
  9
$DIMTP
 40
0.0
  9
$DIMTM
 40
0.0
  9
$DIMTXT
 40
0.18
  9
$DIMCEN
 40
0.09
  9
$DIMTSZ
 40
0.0
  9
$DIMADEC
 70
     0
  9
$DIMALTRND
 40
0.000000
  9
$DIMAZIN
 70
     0
  9
$DIMDSEP
 70
    46
  9
$DIMATFIT
 70
     3
  9
$DIMFRAC
 70
     0
  9
$DIMLDRBLK
  1

  9
$DIMLUNIT
 70
     2
  9
$DIMLWD
 70
   13
  9
$DIMLWE
 70
   13
  9
$DIMTMOVE
 70
     0
  9
$CELWEIGHT
370
    25
  9
$LWDISPLAY
290
    1
  9
$EXTNAMES
290
    1
  9
$DIMTOL
 70
     0
  9
$DIMLIM
 70
     0
  9
$DIMTIH
 70
     1
  9
$DIMTOH
 70
     1
  9
$DIMSE1
 70
     0
  9
$DIMSE2
 70
     0
  9
$DIMTAD
 70
     0
  9
$DIMZIN
 70
     0
  9
$DIMBLK
  1

  9
$LUNITS
 70
     2
  9
$LUPREC
 70
     4
  9
$AXISMODE
 70
     0
  9
$AXISUNIT
 10
0.0
 20
0.0
  9
$SKETCHINC
 40
0.1
  9
$FILLETRAD
 40
0.0
  9
$AUNITS
 70
     0
  9
$AUPREC
 70
     0
  9
$MENU
  1
ACAD
  9
$ELEVATION
 40
0.0
  9
$THICKNESS
 40
0.0
  9
$VIEWDIR
 10
0.0
 20
0.0
 30
1.0
  9
$LIMCHECK
 70
     0
  9
$BLIPMODE
 70
     1
  9
$CHAMFERA
 40
0.0
  9
$CHAMFERB
 40
0.0
  9
$FASTZOOM
 70
     1
  9
$SKPOLY
 70
     0
  9
$TDCREATE
 40
0000000.0000000000
  9
$TDUPDATE
 40
0000000.0000000000
  9
$TDINDWG
 40
0.0000000000
  9
$TDUSRTIMER
 40
0.0000000000
  9
$USRTIMER
 70
     1
  9
$ANGBASE
 50
0.0
  9
$ANGDIR
 70
     0
  9
$PDMODE
 70
     0
  9
$PDSIZE
 40
0.0
  9
$PLINEWID
 40
0.0
  9
$COORDS
 70
     0
  9
$USERI1
 70
     0
  9
$USERI2
 70
     0
  9
$USERI3
 70
     0
  9
$USERI4
 70
     0
  9
$USERI5
 70
     0
  9
$USERR1
 40
0.0
  9
$USERR2
 40
0.0
  9
$USERR3
 40
0.0
  9
$USERR4
 40
0.0
  9
$USERR5
 40
0.0
  9
$CLAYER
  8
M1
  9
$EXTMIN
 10
0.0
 20
0.0
  9
$EXTMAX
 10
841.0
 20
594.0
  9
$LIMMIN
 10
0.0
 20
0.0
  9
$LIMMAX
 10
841.0
 20
594.0
  9
$HANDSEED
  5
32E
  0
ENDSEC
  0
SECTION
  2
CLASSES
  0
ENDSEC
  0
SECTION
  2
TABLES
  0
TABLE
  2
VPORT
  5
8
100
AcDbSymbolTable
 70
     2
  0
VPORT
  5
14
100
AcDbSymbolTableRecord
100
AcDbViewportTableRecord
  2
*ACTIVE
 70
     0
 10
0.0
 20
0.0
 11
1.0
 21
1.0
 12
484.0
 22
297.0
 13
0.0
 23
0.0
 14
1.0
 24
1.0
 15
0.0
 25
0.0
 16
0.0
 26
0.0
 36
1.0
 17
0.0
 27
0.0
 37
0.0
 40
594.0
 41
2.0
 42
50.0
 43
0.0
 44
0.0
 50
0.0
 51
0.0
 71
     0
 72
   100
 73
     1
 74
     1
 75
     0
 76
     0
 77
     0
 78
     0
  0
ENDTAB
  0
TABLE
  2
LTYPE
  5
5
100
AcDbSymbolTable
 70
     5
  0
LTYPE
  5
15
100
AcDbSymbolTableRecord
100
AcDbLinetypeTableRecord
  2
BYBLOCK
 70
     0
  3

 72
    65
 73
     0
 40
0.0
  0
LTYPE
  5
16
100
AcDbSymbolTableRecord
100
AcDbLinetypeTableRecord
  2
BYLAYER
 70
     0
  3

 72
    65
 73
     0
 40
0.0
  0
LTYPE
  5
17
100
AcDbSymbolTableRecord
100
AcDbLinetypeTableRecord
  2
CONTINUOUS
 70
    64
  3
Solid line
 72
    65
 73
     0
 40
0.0
  0
LTYPE
  5
18
100
AcDbSymbolTableRecord
100
AcDbLinetypeTableRecord
  2
DASHED
 70
    64
  3
__ __ __ __ __ __ __ __ __ __ __ __ __ __ __ __
 72
    65
 73
     2
 40
0.75
 49
0.5
 74
     0
 49
-0.25
 74
     0
  0
LTYPE
  5
19
100
AcDbSymbolTableRecord
100
AcDbLinetypeTableRecord
  2
DASHDOT
 70
    64
  3
__ . __ . __ . __ . __ . __ . __ . __ . __ . __
 72
    65
 73
     4
 40
1.0
 49
0.5
 74
     0
 49
-0.25
 74
     0
 49
0.0
 74
     0
 49
-0.25
 74
     0
  0
LTYPE
  5
1A
100
AcDbSymbolTableRecord
100
AcDbLinetypeTableRecord
  2
DIVIDE
 70
    64
  3
____ . . ____ . . ____ . . ____ . . ____ . . __
 72
    65
 73
     6
 40
1.25
 49
0.5
 74
     0
 49
-0.25
 74
     0
 49
0.0
 74
     0
 49
-0.25
 74
     0
 49
0.0
 74
     0
 49
-0.25
 74
     0
  0
LTYPE
  5
1B
100
AcDbSymbolTableRecord
100
AcDbLinetypeTableRecord
  2
DOT
 70
    64
  3
. . . . . . . . . . . . . . . . . . . . . . . .
 72
    65
 73
     2
 40
0.25
 49
0.0
 74
     0
 49
-0.25
 74
     0
  0
ENDTAB
  0
TABLE
  2
LAYER
  5
2
100
AcDbSymbolTable
 70
   102
  0
LAYER
  5
F
100
AcDbSymbolTableRecord
100
AcDbLayerTableRecord
  2
0
 70
     0
 62
     7
  6
CONTINUOUS
370
     -3
390
F
  0
LAYER
  5
1C
100
AcDbSymbolTableRecord
100
AcDbLayerTableRecord
  2
M1
 70
     0
 62
     3
  6
CONTINUOUS
370
     -3
390
F
  0
ENDTAB
  0
TABLE
  2
STYLE
  5
3
100
AcDbSymbolTable
 70
     2
  0
STYLE
  5
10
100
AcDbSymbolTableRecord
100
AcDbTextStyleTableRecord
  2
STANDARD
 70
     0
 40
0.0
 41
1.0
 50
0.0
 71
     0
 42
0.2
  3
txt
  4
BIGFONT
  0
ENDTAB
  0
TABLE
  2
VIEW
  5
6
100
AcDbSymbolTable
 70
     0
  0
ENDTAB
  0
TABLE
  2
UCS
  5
7
100
AcDbSymbolTable
 70
     0
  0
ENDTAB
  0
TABLE
  2
APPID
  5
9
100
AcDbSymbolTable
 70
     1
  0
APPID
  5
11
100
AcDbSymbolTableRecord
100
AcDbRegAppTableRecord
  2
ACAD
 70
     0
  0
ENDTAB
  0
TABLE
  2
DIMSTYLE
  5
A
100
AcDbSymbolTable
 70
     2
100
AcDbDimStyleTable
 71
     1
  0
DIMSTYLE
105
23
100
AcDbSymbolTableRecord
100
AcDbDimStyleTableRecord
  2
STANDARD
 70
     0
  3

  4

  5

  6
_OPEN
  7
_OPEN
 40
1.0
 41
3.0
 42
0.5
 43
8.0
 44
1.5
 45
0.0
 46
0.0
 47
0.0
 48
0.0
140
3.15
141
0.09
142
0.0
143
0.03937
144
1.0
145
0.0
146
1.0
147
1.0
148
0.000000
 71
     0
 72
     0
 73
     0
 74
     0
 75
     0
 76
     0
 77
     3
 78
     8
170
     0
171
     2
172
     0
173
     1
174
     0
175
     0
176
     0
177
     0
178
     0
270
     2
271
     2
272
     4
273
     2
274
     2
340
10
275
     0
278
    46
280
     0
281
     0
282
     0
283
     1
284
     0
285
     0
286
     0
287
     3
288
     0
371
   13
372
   13
  0
DIMSTYLE
105
24
100
AcDbSymbolTableRecord
100
AcDbDimStyleTableRecord
  2
LEADSTYL
 70
     0
  3

  4

  5

  6
_OPEN
  7
_OPEN
 40
1.0
 41
3.0
 42
0.0625
 43
0.38
 44
0.18
 45
0.0
 46
0.0
 47
0.0
 48
0.0
140
3.15
141
0.09
142
0.0
143
25.4
144
1.0
145
0.0
146
1.0
147
1.0
 71
     0
 72
     0
 73
     1
 74
     1
 75
     0
 76
     0
 77
     0
 78
     0
170
     0
171
     2
172
     0
173
     1
174
     0
175
     0
176
     0
177
     0
178
     0
270
     2
271
     4
272
     4
273
     2
274
     2
340
10
275
     0
280
     0
281
     0
282
     0
283
     1
284
     0
285
     0
286
     0
287
     3
288
     0
  0
ENDTAB
  0
TABLE
  2
BLOCK_RECORD
  5
1
100
AcDbSymbolTable
 70
     6
  0
BLOCK_RECORD
  5
1D
100
AcDbSymbolTableRecord
100
AcDbBlockTableRecord
  2
*MODEL_SPACE
  0
BLOCK_RECORD
  5
20
100
AcDbSymbolTableRecord
100
AcDbBlockTableRecord
  2
*PAPER_SPACE
  0
BLOCK_RECORD
  5
25
100
AcDbSymbolTableRecord
100
AcDbBlockTableRecord
  2
_NONE
  0
BLOCK_RECORD
  5
29
100
AcDbSymbolTableRecord
100
AcDbBlockTableRecord
  2
_OPEN
  0
BLOCK_RECORD
  5
2F
100
AcDbSymbolTableRecord
100
AcDbBlockTableRecord
  2
_CLOSED
  0
BLOCK_RECORD
  5
36
100
AcDbSymbolTableRecord
100
AcDbBlockTableRecord
  2
_ORIGIN
  0
BLOCK_RECORD
  5
3B
100
AcDbSymbolTableRecord
100
AcDbBlockTableRecord
  2
_DOT
  0
BLOCK_RECORD
  5
43
100
AcDbSymbolTableRecord
100
AcDbBlockTableRecord
  2
_OBLIQUE
  0
ENDTAB
  0
ENDSEC
  0
SECTION
  2
BLOCKS
  0
BLOCK
  5
1E
100
AcDbEntity
  8
0
100
AcDbBlockBegin
  2
*MODEL_SPACE
 70
     0
 10
0.0
 20
0.0
 30
0.0
  3
*MODEL_SPACE
  1

  0
ENDBLK
  5
1F
100
AcDbEntity
  8
0
100
AcDbBlockEnd
  0
BLOCK
  5
21
100
AcDbEntity
 67
     1
  8
0
100
AcDbBlockBegin
  2
*PAPER_SPACE
 70
     0
 10
0.0
 20
0.0
 30
0.0
  3
*PAPER_SPACE
  1

  0
ENDBLK
  5
22
100
AcDbEntity
 67
     1
  8
0
100
AcDbBlockEnd
  0
BLOCK
  5
26
100
AcDbEntity
  8
0
100
AcDbBlockBegin
  2
_NONE
 70
     0
 10
0.0
 20
0.0
  0
CIRCLE
  5
27
100
AcDbEntity
  8
0
 62
     0
370
13
100
AcDbCircle
 10
0.0
 20
0.0
 40
0.25
  0
ENDBLK
  5
28
100
AcDbEntity
  8
0
100
AcDbBlockEnd
  0
BLOCK
  5
2A
100
AcDbEntity
  8
0
100
AcDbBlockBegin
  2
_OPEN
 70
     0
 10
0.0
 20
0.0
  0
LINE
  5
2B
100
AcDbEntity
  8
0
 62
     0
370
13
100
AcDbLine
 10
-0.965926
 20
0.258819
 11
0.0
 21
0.0
  0
LINE
  5
2C
100
AcDbEntity
  8
0
 62
     0
370
13
100
AcDbLine
 10
0.0
 20
0.0
 11
-0.965926
 21
-0.258819
  0
LINE
  5
2D
100
AcDbEntity
  8
0
 62
     0
370
13
100
AcDbLine
 10
0.0
 20
0.0
 11
-1.0
 21
0.0
  0
ENDBLK
  5
2E
100
AcDbEntity
  8
0
100
AcDbBlockEnd
  0
BLOCK
  5
30
100
AcDbEntity
  8
0
100
AcDbBlockBegin
  2
_CLOSED
 70
     0
 10
0.0
 20
0.0
  0
LINE
  5
31
100
AcDbEntity
  8
0
 62
     0
370
13
100
AcDbLine
 10
-0.965926
 20
0.258819
 11
0.0
 21
0.0
  0
LINE
  5
32
100
AcDbEntity
  8
0
 62
     0
370
13
100
AcDbLine
 10
0.0
 20
0.0
 11
-0.965926
 21
-0.258819
  0
LINE
  5
33
100
AcDbEntity
  8
0
 62
     0
370
13
100
AcDbLine
 10
-0.965926
 20
0.258819
 11
-0.965926
 21
-0.258819
  0
LINE
  5
34
100
AcDbEntity
  8
0
 62
     0
370
13
100
AcDbLine
 10
0.0
 20
0.0
 11
-1.0
 21
0.0
  0
ENDBLK
  5
35
100
AcDbEntity
  8
0
100
AcDbBlockEnd
  0
BLOCK
  5
37
100
AcDbEntity
  8
0
100
AcDbBlockBegin
  2
_ORIGIN
 70
     0
 10
0.0
 20
0.0
  0
CIRCLE
  5
38
100
AcDbEntity
  8
0
 62
     0
370
13
100
AcDbCircle
 10
0.0
 20
0.0
 40
0.5
  0
LINE
  5
39
100
AcDbEntity
  8
0
 62
     0
370
13
100
AcDbLine
 10
0.0
 20
0.0
 11
-1.0
 21
0.0
  0
ENDBLK
  5
3A
100
AcDbEntity
  8
0
100
AcDbBlockEnd
  0
BLOCK
  5
3C
100
AcDbEntity
  8
0
100
AcDbBlockBegin
  2
_DOT
 70
     0
 10
0.0
 20
0.0
  0
POLYLINE
  5
3D
100
AcDbEntity
  8
0
 62
     0
100
AcDb2dPolyline
 66
     1
 70
     1
 40
0.5
 41
0.5
  0
VERTEX
  5
3E
100
AcDbEntity
  8
0
 62
     0
100
AcDbVertex
100
AcDb2dVertex
 10
-0.25
 20
0.0
 42
1.0
  0
VERTEX
  5
3F
100
AcDbEntity
  8
0
 62
     0
100
AcDbVertex
100
AcDb2dVertex
 10
0.25
 20
0.0
 42
1.0
  0
SEQEND
  5
40
100
AcDbEntity
  8
0
 62
     0
  0
LINE
  5
41
100
AcDbEntity
  8
0
 62
     0
370
13
100
AcDbLine
 10
-0.5
 20
0.0
 11
-1.0
 21
0.0
  0
ENDBLK
  5
42
100
AcDbEntity
  8
0
100
AcDbBlockEnd
  0
BLOCK
  5
44
100
AcDbEntity
  8
0
100
AcDbBlockBegin
  2
_OBLIQUE
 70
     0
 10
0.0
 20
0.0
  0
LINE
  5
45
100
AcDbEntity
  8
0
 62
     0
370
13
100
AcDbLine
 10
-0.353553
 20
-0.353553
 11
0.353553
 21
0.353553
  0
ENDBLK
  5
46
100
AcDbEntity
  8
0
100
AcDbBlockEnd
  0
ENDSEC
  0
SECTION
  2
ENTITIES
  0
LINE
  5
47
100
AcDbEntity
  8
M1
  6
CONTINUOUS
370
13
 62
     7
100
AcDbLine
 10
138.799676
 20
291.882377
 11
165.080682
 21
291.882377
  0
LINE
  5
48
100
AcDbEntity
  8
M1
  6
CONTINUOUS
370
25
 62
     7
100
AcDbLine
 10
323.756072
 20
346.882377
 11
323.756072
 21
339.382377
  0
LINE
  5
49
100
AcDbEntity
  8
M1
  6
CONTINUOUS
370
25
 62
     7
100
AcDbLine
 10
507.256072
 20
343.382377
 11
507.256072
 21
339.382377
  0
LINE
  5
4A
100
AcDbEntity
  8
M1
  6
CONTINUOUS
370
25
 62
     7
100
AcDbLine
 10
373.756072
 20
355.882377
 11
380.756072
 21
355.882377
  0
LINE
  5
4B
100
AcDbEntity
  8
M1
  6
CONTINUOUS
370
25
 62
     7
100
AcDbLine
 10
323.756072
 20
314.382377
 11
383.756072
 21
314.382377
  0
LINE
  5
4C
100
AcDbEntity
  8
M1
  6
CONTINUOUS
370
25
 62
     7
100
AcDbLine
 10
323.756072
 20
317.882377
 11
507.256072
 21
317.882377
  0
LINE
  5
4D
100
AcDbEntity
  8
M1
  6
CONTINUOUS
370
25
 62
     7
100
AcDbLine
 10
383.756072
 20
314.382377
 11
383.756072
 21
291.882377
  0
LINE
  5
4E
100
AcDbEntity
  8
M1
  6
CONTINUOUS
370
25
 62
     7
100
AcDbLine
 10
447.256072
 20
314.382377
 11
447.256072
 21
291.882377
  0
LINE
  5
4F
100
AcDbEntity
  8
M1
  6
CONTINUOUS
370
25
 62
     7
100
AcDbLine
 10
384.256072
 20
314.882377
 11
446.756072
 21
314.882377
  0
LINE
  5
50
100
AcDbEntity
  8
M1
  6
CONTINUOUS
370
25
 62
     7
100
AcDbLine
 10
447.256072
 20
314.382377
 11
507.256072
 21
314.382377
  0
LINE
  5
51
100
AcDbEntity
  8
M1
  6
CONTINUOUS
370
25
 62
     7
100
AcDbLine
 10
326.756072
 20
326.982383
 11
326.756072
 21
320.382377
  0
LINE
  5
52
100
AcDbEntity
  8
M1
  6
CONTINUOUS
370
25
 62
     7
100
AcDbLine
 10
351.756072
 20
352.882377
 11
351.756072
 21
323.382377
  0
LINE
  5
53
100
AcDbEntity
  8
M1
  6
CONTINUOUS
370
25
 62
     7
100
AcDbLine
 10
380.756072
 20
365.882957
 11
380.756072
 21
339.382377
  0
LINE
  5
54
100
AcDbEntity
  8
M1
  6
CONTINUOUS
370
25
 62
     7
100
AcDbLine
 10
324.756072
 20
321.882377
 11
326.756072
 21
321.882377
  0
LINE
  5
55
100
AcDbEntity
  8
M1
  6
CONTINUOUS
370
25
 62
     7
100
AcDbLine
 10
326.756072
 20
320.382377
 11
328.956084
 21
320.382377
  0
LINE
  5
56
100
AcDbEntity
  8
M1
  6
CONTINUOUS
370
25
 62
     7
100
AcDbLine
 10
328.956084
 20
341.132377
 11
328.956084
 21
320.382377
  0
LINE
  5
57
100
AcDbEntity
  8
M1
  6
CONTINUOUS
370
25
 62
     7
100
AcDbLine
 10
392.756072
 20
321.882377
 11
506.256072
 21
321.882377
  0
LINE
  5
58
100
AcDbEntity
  8
M1
  6
CONTINUOUS
370
25
 62
     7
100
AcDbLine
 10
328.956084
 20
321.882377
 11
349.856048
 21
321.882377
  0
LINE
  5
59
100
AcDbEntity
  8
M1
  6
CONTINUOUS
370
25
 62
     7
100
AcDbLine
 10
351.756072
 20
334.382377
 11
372.756072
 21
334.382377
  0
LINE
  5
5A
100
AcDbEntity
  8
M1
  6
CONTINUOUS
370
25
 62
     7
100
AcDbLine
 10
350.856048
 20
323.382377
 11
350.856048
 21
322.882377
  0
LINE
  5
5B
100
AcDbEntity
  8
M1
  6
CONTINUOUS
370
25
 62
     7
100
AcDbLine
 10
350.856048
 20
323.382377
 11
351.756072
 21
323.382377
  0
LINE
  5
5C
100
AcDbEntity
  8
M1
  6
CONTINUOUS
370
25
 62
     7
100
AcDbLine
 10
372.756072
 20
362.297966
 11
372.756072
 21
334.382377
  0
LINE
  5
5D
100
AcDbEntity
  8
M1
  6
CONTINUOUS
370
25
 62
     7
100
AcDbLine
 10
373.756072
 20
362.297966
 11
373.756072
 21
355.882377
  0
LINE
  5
5E
100
AcDbEntity
  8
M1
  6
CONTINUOUS
370
25
 62
     7
100
AcDbLine
 10
383.756072
 20
338.882286
 11
383.756072
 21
321.882377
  0
LINE
  5
5F
100
AcDbEntity
  8
M1
  6
CONTINUOUS
370
25
 62
     7
100
AcDbLine
 10
380.756072
 20
339.382377
 11
386.756072
 21
339.382377
  0
LINE
  5
60
100
AcDbEntity
  8
M1
  6
CONTINUOUS
370
25
 62
     7
100
AcDbLine
 10
384.756072
 20
320.882377
 11
391.756072
 21
320.882377
  0
LINE
  5
61
100
AcDbEntity
  8
M1
  6
CONTINUOUS
370
25
 62
     7
100
AcDbLine
 10
372.756072
 20
362.297966
 11
373.756072
 21
362.297966
  0
LINE
  5
62
100
AcDbEntity
  8
M1
  6
CONTINUOUS
370
25
 62
     7
100
AcDbLine
 10
323.756194
 20
320.882286
 11
324.756194
 21
321.882286
  0
LINE
  5
63
100
AcDbEntity
  8
M1
  6
CONTINUOUS
370
25
 62
     7
100
AcDbLine
 10
506.256194
 20
321.882286
 11
507.256194
 21
320.882286
  0
LINE
  5
64
100
AcDbEntity
  8
M1
  6
CONTINUOUS
370
25
 62
     7
100
AcDbLine
 10
383.256072
 20
339.382469
 11
383.756194
 21
338.882377
  0
LINE
  5
65
100
AcDbEntity
  8
M1
  6
CONTINUOUS
370
25
 62
     7
100
AcDbLine
 10
398.756072
 20
326.882377
 11
398.756072
 21
321.882377
  0
LINE
  5
66
100
AcDbEntity
  8
M1
  6
CONTINUOUS
370
25
 62
     7
100
AcDbLine
 10
398.756072
 20
322.632377
 11
484.856048
 21
322.632377
  0
LINE
  5
67
100
AcDbEntity
  8
M1
  6
CONTINUOUS
370
25
 62
     7
100
AcDbLine
 10
491.256072
 20
386.882408
 11
501.256072
 21
386.882408
  0
LINE
  5
68
100
AcDbEntity
  8
M1
  6
CONTINUOUS
370
25
 62
     7
100
AcDbLine
 10
394.756072
 20
326.882377
 11
402.756072
 21
326.882377
  0
LINE
  5
69
100
AcDbEntity
  8
M1
  6
CONTINUOUS
370
25
 62
     7
100
AcDbLine
 10
402.756072
 20
336.882377
 11
402.756072
 21
326.882377
  0
LINE
  5
6A
100
AcDbEntity
  8
M1
  6
CONTINUOUS
370
25
 62
     7
100
AcDbLine
 10
478.756072
 20
366.882408
 11
478.756072
 21
362.882377
  0
LINE
  5
6B
100
AcDbEntity
  8
M1
  6
CONTINUOUS
370
25
 62
     7
100
AcDbLine
 10
402.756072
 20
336.882377
 11
422.756072
 21
336.882377
  0
LINE
  5
6C
100
AcDbEntity
  8
M1
  6
CONTINUOUS
370
25
 62
     7
100
AcDbLine
 10
422.756072
 20
341.043663
 11
422.756072
 21
334.20327
  0
LINE
  5
6D
100
AcDbEntity
  8
M1
  6
CONTINUOUS
370
25
 62
     7
100
AcDbLine
 10
425.956084
 20
359.382377
 11
425.956084
 21
334.20327
  0
LINE
  5
6E
100
AcDbEntity
  8
M1
  6
CONTINUOUS
370
25
 62
     7
100
AcDbLine
 10
425.956084
 20
336.882377
 11
476.756072
 21
336.882377
  0
LINE
  5
6F
100
AcDbEntity
  8
M1
  6
CONTINUOUS
370
25
 62
     7
100
AcDbLine
 10
501.256072
 20
386.882408
 11
501.256072
 21
344.382377
  0
LINE
  5
70
100
AcDbEntity
  8
M1
  6
CONTINUOUS
370
25
 62
     7
100
AcDbLine
 10
491.256072
 20
422.882408
 11
491.256072
 21
362.182365
  0
LINE
  5
71
100
AcDbEntity
  8
M1
  6
CONTINUOUS
370
25
 62
     7
100
AcDbLine
 10
488.256072
 20
361.882377
 11
488.256072
 21
348.210289
  0
LINE
  5
72
100
AcDbEntity
  8
M1
  6
CONTINUOUS
370
25
 62
     7
100
AcDbLine
 10
501.256072
 20
344.382377
 11
506.256072
 21
344.382377
  0
LINE
  5
73
100
AcDbEntity
  8
M1
  6
CONTINUOUS
370
25
 62
     7
100
AcDbLine
 10
490.256072
 20
339.382377
 11
507.256072
 21
339.382377
  0
LINE
  5
74
100
AcDbEntity
  8
M1
  6
CONTINUOUS
370
25
 62
     7
100
AcDbLine
 10
489.256072
 20
338.382377
 11
489.256072
 21
323.882377
  0
LINE
  5
75
100
AcDbEntity
  8
M1
  6
CONTINUOUS
370
25
 62
     7
100
AcDbLine
 10
486.256072
 20
361.882377
 11
490.956084
 21
361.882377
  0
LINE
  5
76
100
AcDbEntity
  8
M1
  6
CONTINUOUS
370
25
 62
     7
100
AcDbLine
 10
488.256072
 20
331.882377
 11
488.256072
 21
321.882377
  0
LINE
  5
77
100
AcDbEntity
  8
M1
  6
CONTINUOUS
370
25
 62
     7
100
AcDbLine
 10
488.256072
 20
331.882377
 11
489.256072
 21
331.882377
  0
LINE
  5
78
100
AcDbEntity
  8
M1
  6
CONTINUOUS
370
25
 62
     7
100
AcDbLine
 10
484.856048
 20
328.382377
 11
484.856048
 21
321.882377
  0
LINE
  5
79
100
AcDbEntity
  8
M1
  6
CONTINUOUS
370
25
 62
     7
100
AcDbLine
 10
484.856048
 20
328.382377
 11
488.256072
 21
328.382377
  0
LINE
  5
7A
100
AcDbEntity
  8
M1
  6
CONTINUOUS
370
25
 62
     7
100
AcDbLine
 10
487.032195
 20
346.367088
 11
479.979949
 21
343.397666
  0
LINE
  5
7B
100
AcDbEntity
  8
M1
  6
CONTINUOUS
370
25
 62
     7
100
AcDbLine
 10
506.25595
 20
344.382469
 11
507.256072
 21
343.382469
  0
LINE
  5
7C
100
AcDbEntity
  8
M1
  6
CONTINUOUS
370
25
 62
     7
100
AcDbLine
 10
488.256194
 20
328.382286
 11
484.856048
 21
321.882286
  0
LINE
  5
7D
100
AcDbEntity
  8
M1
  6
CONTINUOUS
370
25
 62
     7
100
AcDbLine
 10
484.856048
 20
328.382377
 11
488.256072
 21
321.882377
  0
LINE
  5
7E
100
AcDbEntity
  8
M1
  6
CONTINUOUS
370
25
 62
     7
100
AcDbLine
 10
489.256072
 20
326.932365
 11
495.694854
 21
326.932365
  0
LINE
  5
7F
100
AcDbEntity
  8
M1
  6
CONTINUOUS
370
25
 62
     7
100
AcDbLine
 10
489.256072
 20
334.332389
 11
495.694854
 21
334.332389
  0
LINE
  5
80
100
AcDbEntity
  8
M1
  6
CONTINUOUS
370
25
 62
     7
100
AcDbLine
 10
491.956084
 20
337.132377
 11
491.956084
 21
324.132377
  0
LINE
  5
81
100
AcDbEntity
  8
M1
  6
CONTINUOUS
370
25
 62
     7
100
AcDbLine
 10
504.55606
 20
337.132377
 11
504.55606
 21
324.132377
  0
LINE
  5
82
100
AcDbEntity
  8
M1
  6
CONTINUOUS
370
25
 62
     7
100
AcDbLine
 10
500.81729
 20
334.332389
 11
507.256072
 21
334.332389
  0
LINE
  5
83
100
AcDbEntity
  8
M1
  6
CONTINUOUS
370
25
 62
     7
100
AcDbLine
 10
500.81729
 20
326.932365
 11
507.256072
 21
326.932365
  0
LINE
  5
84
100
AcDbEntity
  8
M1
  6
CONTINUOUS
370
25
 62
     7
100
AcDbLine
 10
507.256072
 20
337.382377
 11
507.256072
 21
323.882377
  0
LINE
  5
85
100
AcDbEntity
  8
M1
  6
CONTINUOUS
370
25
 62
     7
100
AcDbLine
 10
486.256072
 20
422.882408
 11
486.256072
 21
361.882377
  0
LINE
  5
86
100
AcDbEntity
  8
M1
  6
CONTINUOUS
370
25
 62
     7
100
AcDbLine
 10
486.256072
 20
422.882408
 11
491.256072
 21
422.882408
  0
LINE
  5
87
100
AcDbEntity
  8
M1
  6
CONTINUOUS
370
25
 62
     7
100
AcDbLine
 10
451.256072
 20
421.882408
 11
485.256072
 21
421.882408
  0
LINE
  5
88
100
AcDbEntity
  8
M1
  6
CONTINUOUS
370
25
 62
     7
100
AcDbLine
 10
446.256072
 20
416.882408
 11
446.256072
 21
385.710166
  0
LINE
  5
89
100
AcDbEntity
  8
M1
  6
CONTINUOUS
370
25
 62
     7
100
AcDbLine
 10
455.015655
 20
375.787559
 11
478.75595
 21
372.820091
  0
LINE
  5
8A
100
AcDbEntity
  8
M1
  6
CONTINUOUS
370
25
 62
     7
100
AcDbLine
 10
330.256072
 20
419.882408
 11
348.256072
 21
419.882408
  0
LINE
  5
8B
100
AcDbEntity
  8
M1
  6
CONTINUOUS
370
25
 62
     7
100
AcDbLine
 10
348.756072
 20
347.382377
 11
348.756072
 21
334.382377
  0
LINE
  5
8C
100
AcDbEntity
  8
M1
  6
CONTINUOUS
370
25
 62
     7
100
AcDbLine
 10
346.756072
 20
334.382377
 11
348.756072
 21
334.382377
  0
LINE
  5
8D
100
AcDbEntity
  8
M1
  6
CONTINUOUS
370
25
 62
     7
100
AcDbLine
 10
346.756072
 20
338.382377
 11
346.756072
 21
321.882377
  0
LINE
  5
8E
100
AcDbEntity
  8
M1
  6
CONTINUOUS
370
25
 62
     7
100
AcDbLine
 10
323.756072
 20
339.382377
 11
325.756072
 21
339.382377
  0
LINE
  5
8F
100
AcDbEntity
  8
M1
  6
CONTINUOUS
370
25
 62
     7
100
AcDbLine
 10
325.756072
 20
341.132377
 11
325.756072
 21
333.26168
  0
LINE
  5
90
100
AcDbEntity
  8
M1
  6
CONTINUOUS
370
25
 62
     7
100
AcDbLine
 10
325.756072
 20
341.132377
 11
328.956084
 21
341.132377
  0
LINE
  5
91
100
AcDbEntity
  8
M1
  6
CONTINUOUS
370
25
 62
     7
100
AcDbLine
 10
329.109954
 20
339.382377
 11
345.756072
 21
339.382377
  0
LINE
  5
92
100
AcDbEntity
  8
M1
  6
CONTINUOUS
370
25
 62
     7
100
AcDbLine
 10
323.756072
 20
346.882377
 11
327.756072
 21
346.882377
  0
LINE
  5
93
100
AcDbEntity
  8
M1
  6
CONTINUOUS
370
25
 62
     7
100
AcDbLine
 10
327.756072
 20
371.882408
 11
327.756072
 21
346.882377
  0
LINE
  5
94
100
AcDbEntity
  8
M1
  6
CONTINUOUS
370
25
 62
     7
100
AcDbLine
 10
340.256072
 20
349.382377
 11
346.756072
 21
349.382377
  0
LINE
  5
95
100
AcDbEntity
  8
M1
  6
CONTINUOUS
370
25
 62
     7
100
AcDbLine
 10
338.256072
 20
392.382408
 11
338.256072
 21
351.382377
  0
LINE
  5
96
100
AcDbEntity
  8
M1
  6
CONTINUOUS
370
25
 62
     7
100
AcDbLine
 10
330.256072
 20
419.882408
 11
330.256072
 21
373.382408
  0
LINE
  5
97
100
AcDbEntity
  8
M1
  6
CONTINUOUS
370
25
 62
     7
100
AcDbLine
 10
327.756072
 20
371.882408
 11
328.756072
 21
371.882408
  0
LINE
  5
98
100
AcDbEntity
  8
M1
  6
CONTINUOUS
370
25
 62
     7
100
AcDbLine
 10
348.256072
 20
419.882408
 11
348.256072
 21
414.382408
  0
LINE
  5
99
100
AcDbEntity
  8
M1
  6
CONTINUOUS
370
25
 62
     7
100
AcDbLine
 10
345.756072
 20
414.382408
 11
345.756072
 21
394.382408
  0
LINE
  5
9A
100
AcDbEntity
  8
M1
  6
CONTINUOUS
370
25
 62
     7
100
AcDbLine
 10
345.756072
 20
414.382408
 11
348.756072
 21
414.382408
  0
LINE
  5
9B
100
AcDbEntity
  8
M1
  6
CONTINUOUS
370
25
 62
     7
100
AcDbLine
 10
340.256072
 20
394.382408
 11
345.756072
 21
394.382408
  0
LINE
  5
9C
100
AcDbEntity
  8
M1
  6
CONTINUOUS
370
25
 62
     7
100
AcDbLine
 10
350.756072
 20
352.882377
 11
350.756072
 21
323.382377
  0
LINE
  5
9D
100
AcDbEntity
  8
M1
  6
CONTINUOUS
370
25
 62
     7
100
AcDbLine
 10
350.756072
 20
352.882377
 11
351.756072
 21
352.882377
  0
LINE
  5
9E
100
AcDbEntity
  8
M1
  6
CONTINUOUS
370
25
 62
     7
100
AcDbLine
 10
323.756072
 20
320.882286
 11
323.756072
 21
291.882377
  0
LINE
  5
9F
100
AcDbEntity
  8
M1
  6
CONTINUOUS
370
25
 62
     7
100
AcDbLine
 10
328.956084
 20
326.932365
 11
335.294891
 21
326.932365
  0
LINE
  5
A0
100
AcDbEntity
  8
M1
  6
CONTINUOUS
370
25
 62
     7
100
AcDbLine
 10
328.956084
 20
334.332389
 11
335.294891
 21
334.332389
  0
LINE
  5
A1
100
AcDbEntity
  8
M1
  6
CONTINUOUS
370
25
 62
     7
100
AcDbLine
 10
344.356048
 20
336.632377
 11
344.356048
 21
324.632377
  0
LINE
  5
A2
100
AcDbEntity
  8
M1
  6
CONTINUOUS
370
25
 62
     7
100
AcDbLine
 10
331.356048
 20
336.632377
 11
331.356048
 21
324.632377
  0
LINE
  5
A3
100
AcDbEntity
  8
M1
  6
CONTINUOUS
370
25
 62
     7
100
AcDbLine
 10
340.417388
 20
334.332389
 11
346.756072
 21
334.332389
  0
LINE
  5
A4
100
AcDbEntity
  8
M1
  6
CONTINUOUS
370
25
 62
     7
100
AcDbLine
 10
340.417388
 20
326.932365
 11
346.756072
 21
326.932365
  0
LINE
  5
A5
100
AcDbEntity
  8
M1
  6
CONTINUOUS
370
25
 62
     7
100
AcDbLine
 10
420.756072
 20
414.382408
 11
420.756072
 21
394.382408
  0
LINE
  5
A6
100
AcDbEntity
  8
M1
  6
CONTINUOUS
370
25
 62
     7
100
AcDbLine
 10
417.756072
 20
414.382408
 11
420.756072
 21
414.382408
  0
LINE
  5
A7
100
AcDbEntity
  8
M1
  6
CONTINUOUS
370
25
 62
     7
100
AcDbLine
 10
382.506072
 20
392.407371
 11
413.256072
 21
392.407371
  0
LINE
  5
A8
100
AcDbEntity
  8
M1
  6
CONTINUOUS
370
25
 62
     7
100
AcDbLine
 10
382.506072
 20
436.882408
 11
415.756072
 21
436.882408
  0
LINE
  5
A9
100
AcDbEntity
  8
M1
  6
CONTINUOUS
370
25
 62
     7
100
AcDbLine
 10
420.756072
 20
396.382469
 11
413.256072
 21
392.407493
  0
LINE
  5
AA
100
AcDbEntity
  8
M1
  6
CONTINUOUS
370
25
 62
     7
100
AcDbLine
 10
417.756072
 20
434.882408
 11
417.756072
 21
414.382408
  0
LINE
  5
AB
100
AcDbEntity
  8
M1
  6
CONTINUOUS
370
25
 62
     7
100
AcDbLine
 10
384.006072
 20
392.407371
 11
353.256072
 21
392.407371
  0
LINE
  5
AC
100
AcDbEntity
  8
M1
  6
CONTINUOUS
370
25
 62
     7
100
AcDbLine
 10
384.006072
 20
436.882408
 11
350.756072
 21
436.882408
  0
LINE
  5
AD
100
AcDbEntity
  8
M1
  6
CONTINUOUS
370
25
 62
     7
100
AcDbLine
 10
348.756072
 20
434.882408
 11
348.756072
 21
414.382408
  0
LINE
  5
AE
100
AcDbEntity
  8
M1
  6
CONTINUOUS
370
25
 62
     7
100
AcDbLine
 10
345.756072
 20
396.382652
 11
353.256194
 21
392.407676
  0
LINE
  5
AF
100
AcDbEntity
  8
M1
  6
CONTINUOUS
370
25
 62
     7
100
AcDbLine
 10
415.756194
 20
436.882164
 11
417.756072
 21
434.882164
  0
LINE
  5
B0
100
AcDbEntity
  8
M1
  6
CONTINUOUS
370
25
 62
     7
100
AcDbLine
 10
350.756194
 20
436.882164
 11
348.756194
 21
434.882103
  0
LINE
  5
B1
100
AcDbEntity
  8
M1
  6
CONTINUOUS
370
25
 62
     7
100
AcDbLine
 10
346.255584
 20
414.383079
 11
345.755462
 21
413.882957
  0
LINE
  5
B2
100
AcDbEntity
  8
M1
  6
CONTINUOUS
370
25
 62
     7
100
AcDbLine
 10
420.25595
 20
414.382164
 11
420.75595
 21
413.882164
  0
LINE
  5
B3
100
AcDbEntity
  8
M1
  6
CONTINUOUS
370
25
 62
     7
100
AcDbLine
 10
417.756072
 20
422.744407
 11
422.574065
 21
422.744407
  0
LINE
  5
B4
100
AcDbEntity
  8
M1
  6
CONTINUOUS
370
25
 62
     7
100
AcDbLine
 10
417.756072
 20
425.51638
 11
422.11209
 21
425.51638
  0
LINE
  5
B5
100
AcDbEntity
  8
M1
  6
CONTINUOUS
370
25
 62
     7
100
AcDbLine
 10
423.601043
 20
427.157371
 11
423.601043
 21
437.636375
  0
LINE
  5
B6
100
AcDbEntity
  8
M1
  6
CONTINUOUS
370
25
 62
     7
100
AcDbLine
 10
426.400054
 20
426.462303
 11
426.400054
 21
439.508262
  0
LINE
  5
B7
100
AcDbEntity
  8
M1
  6
CONTINUOUS
370
25
 62
     7
100
AcDbLine
 10
426.400054
 20
439.508506
 11
423.601165
 21
437.636497
  0
LINE
  5
B8
100
AcDbEntity
  8
M1
  6
CONTINUOUS
370
25
 62
     7
100
AcDbLine
 10
426.399688
 20
443.181785
 11
423.600555
 21
441.138755
  0
LINE
  5
B9
100
AcDbEntity
  8
M1
  6
CONTINUOUS
370
25
 62
     7
100
AcDbLine
 10
426.400054
 20
443.181297
 11
426.400054
 21
453.645347
  0
LINE
  5
BA
100
AcDbEntity
  8
M1
  6
CONTINUOUS
370
25
 62
     7
100
AcDbLine
 10
423.601043
 20
441.138389
 11
423.601043
 21
453.645347
  0
LINE
  5
BB
100
AcDbEntity
  8
M1
  6
CONTINUOUS
370
25
 62
     7
100
AcDbLine
 10
419.399993
 20
464.631492
 11
417.999847
 21
462.206504
  0
LINE
  5
BC
100
AcDbEntity
  8
M1
  6
CONTINUOUS
370
25
 62
     7
100
AcDbLine
 10
418.700286
 20
463.420188
 11
412.638152
 21
466.91909
  0
LINE
  5
BD
100
AcDbEntity
  8
M1
  6
CONTINUOUS
370
25
 62
     7
100
AcDbLine
 10
430.600799
 20
464.631004
 11
431.999786
 21
462.205955
  0
LINE
  5
BE
100
AcDbEntity
  8
M1
  6
CONTINUOUS
370
25
 62
     7
100
AcDbLine
 10
431.299651
 20
463.420188
 11
437.361785
 21
466.919151
  0
LINE
  5
BF
100
AcDbEntity
  8
M1
  6
CONTINUOUS
370
25
 62
     7
100
AcDbLine
 10
403.256072
 20
336.882377
 11
410.256072
 21
336.882377
  0
LINE
  5
C0
100
AcDbEntity
  8
M1
  6
CONTINUOUS
370
25
 62
     7
100
AcDbLine
 10
394.756072
 20
360.382377
 11
394.756072
 21
321.882377
  0
LINE
  5
C1
100
AcDbEntity
  8
M1
  6
CONTINUOUS
370
25
 62
     7
100
AcDbLine
 10
419.756072
 20
391.882408
 11
419.756072
 21
360.882377
  0
LINE
  5
C2
100
AcDbEntity
  8
M1
  6
CONTINUOUS
370
25
 62
     7
100
AcDbLine
 10
353.756072
 20
391.882408
 11
419.756072
 21
391.882408
  0
LINE
  5
C3
100
AcDbEntity
  8
M1
  6
CONTINUOUS
370
25
 62
     7
100
AcDbLine
 10
410.256072
 20
346.906089
 11
410.256072
 21
336.882377
  0
LINE
  5
C4
100
AcDbEntity
  8
M1
  6
CONTINUOUS
370
25
 62
     7
100
AcDbLine
 10
419.756377
 20
360.882377
 11
412.20169
 21
352.13488
  0
LINE
  5
C5
100
AcDbEntity
  8
M1
  6
CONTINUOUS
370
25
 62
     7
100
AcDbLine
 10
400.75656
 20
342.881767
 11
394.75656
 21
336.881767
  0
LINE
  5
C6
100
AcDbEntity
  8
M1
  6
CONTINUOUS
370
25
 62
     7
100
AcDbLine
 10
400.756072
 20
358.639671
 11
400.756072
 21
342.882377
  0
LINE
  5
C7
100
AcDbEntity
  8
M1
  6
CONTINUOUS
370
25
 62
     7
100
AcDbLine
 10
413.756072
 20
391.882408
 11
413.756072
 21
381.882408
  0
LINE
  5
C8
100
AcDbEntity
  8
M1
  6
CONTINUOUS
370
25
 62
     7
100
AcDbLine
 10
353.756072
 20
381.882408
 11
413.756072
 21
381.882408
  0
LINE
  5
C9
100
AcDbEntity
  8
M1
  6
CONTINUOUS
370
25
 62
     7
100
AcDbLine
 10
409.756072
 20
381.882408
 11
409.756072
 21
368.882408
  0
LINE
  5
CA
100
AcDbEntity
  8
M1
  6
CONTINUOUS
370
25
 62
     7
100
AcDbLine
 10
396.462981
 20
364.175163
 11
399.877288
 21
360.760887
  0
LINE
  5
CB
100
AcDbEntity
  8
M1
  6
CONTINUOUS
370
25
 62
     7
100
AcDbLine
 10
398.584746
 20
366.296897
 11
400.267852
 21
364.613792
  0
LINE
  5
CC
100
AcDbEntity
  8
M1
  6
CONTINUOUS
370
25
 62
     7
100
AcDbLine
 10
396.463287
 20
365.589286
 11
397.170379
 21
366.296348
  0
LINE
  5
CD
100
AcDbEntity
  8
M1
  6
CONTINUOUS
370
25
 62
     7
100
AcDbLine
 10
409.755645
 20
368.882652
 11
406.075347
 21
364.77349
  0
LINE
  5
CE
100
AcDbEntity
  8
M1
  6
CONTINUOUS
370
25
 62
     7
100
AcDbLine
 10
353.756072
 20
391.882408
 11
353.756072
 21
381.882408
  0
LINE
  5
CF
100
AcDbEntity
  8
M1
  6
CONTINUOUS
370
25
 62
     7
100
AcDbLine
 10
386.756072
 20
365.882408
 11
386.756072
 21
339.382377
  0
LINE
  5
D0
100
AcDbEntity
  8
M1
  6
CONTINUOUS
370
25
 62
     7
100
AcDbLine
 10
406.756072
 20
380.982383
 11
406.756072
 21
377.882408
  0
LINE
  5
D1
100
AcDbEntity
  8
M1
  6
CONTINUOUS
370
25
 62
     7
100
AcDbLine
 10
360.756072
 20
380.982383
 11
360.756072
 21
377.882408
  0
LINE
  5
D2
100
AcDbEntity
  8
M1
  6
CONTINUOUS
370
25
 62
     7
100
AcDbLine
 10
360.756255
 20
377.882896
 11
380.756377
 21
365.882896
  0
LINE
  5
D3
100
AcDbEntity
  8
M1
  6
CONTINUOUS
370
25
 62
     7
100
AcDbLine
 10
386.756194
 20
365.882408
 11
406.756194
 21
377.882408
  0
LINE
  5
D4
100
AcDbEntity
  8
M1
  6
CONTINUOUS
370
25
 62
     7
100
AcDbLine
 10
360.756072
 20
380.982383
 11
406.756072
 21
380.982383
  0
LINE
  5
D5
100
AcDbEntity
  8
M1
  6
CONTINUOUS
370
25
 62
     7
100
AcDbLine
 10
341.756194
 20
388.882408
 11
341.756194
 21
367.882408
  0
LINE
  5
D6
100
AcDbEntity
  8
M1
  6
CONTINUOUS
370
25
 62
     7
100
AcDbLine
 10
353.756072
 20
391.882408
 11
344.756194
 21
391.882408
  0
LINE
  5
D7
100
AcDbEntity
  8
M1
  6
CONTINUOUS
370
25
 62
     7
100
AcDbLine
 10
365.256072
 20
335.382377
 11
364.256072
 21
335.382377
  0
LINE
  5
D8
100
AcDbEntity
  8
M1
  6
CONTINUOUS
370
25
 62
     7
100
AcDbLine
 10
360.256072
 20
341.882377
 11
360.256072
 21
334.382377
  0
LINE
  5
D9
100
AcDbEntity
  8
M1
  6
CONTINUOUS
370
25
 62
     7
100
AcDbLine
 10
364.256072
 20
341.882377
 11
364.256072
 21
334.382377
  0
LINE
  5
DA
100
AcDbEntity
  8
M1
  6
CONTINUOUS
370
25
 62
     7
100
AcDbLine
 10
365.256072
 20
357.139671
 11
365.256072
 21
335.382377
  0
LINE
  5
DB
100
AcDbEntity
  8
M1
  6
CONTINUOUS
370
25
 62
     7
100
AcDbLine
 10
357.256072
 20
348.642784
 11
357.256072
 21
335.382377
  0
LINE
  5
DC
100
AcDbEntity
  8
M1
  6
CONTINUOUS
370
25
 62
     7
100
AcDbLine
 10
364.256072
 20
341.882377
 11
360.256072
 21
341.882377
  0
LINE
  5
DD
100
AcDbEntity
  8
M1
  6
CONTINUOUS
370
25
 62
     7
100
AcDbLine
 10
360.256072
 20
335.382377
 11
357.256072
 21
335.382377
  0
LINE
  5
DE
100
AcDbEntity
  8
M1
  6
CONTINUOUS
370
25
 62
     7
100
AcDbLine
 10
355.002288
 20
354.20919
 11
341.756255
 21
367.882408
  0
LINE
  5
DF
100
AcDbEntity
  8
M1
  6
CONTINUOUS
370
25
 62
     7
100
AcDbLine
 10
357.756072
 20
381.882408
 11
357.756072
 21
368.882408
  0
LINE
  5
E0
100
AcDbEntity
  8
M1
  6
CONTINUOUS
370
25
 62
     7
100
AcDbLine
 10
371.049102
 20
364.175071
 11
366.134856
 21
359.260887
  0
LINE
  5
E1
100
AcDbEntity
  8
M1
  6
CONTINUOUS
370
25
 62
     7
100
AcDbLine
 10
368.927642
 20
366.296592
 11
367.475799
 21
364.844688
  0
LINE
  5
E2
100
AcDbEntity
  8
M1
  6
CONTINUOUS
370
25
 62
     7
100
AcDbLine
 10
371.04898
 20
365.589469
 11
370.341888
 21
366.296592
  0
LINE
  5
E3
100
AcDbEntity
  8
M1
  6
CONTINUOUS
370
25
 62
     7
100
AcDbLine
 10
357.756499
 20
368.882469
 11
361.828094
 21
364.836082
  0
LINE
  5
E4
100
AcDbEntity
  8
M1
  6
CONTINUOUS
370
25
 62
     7
100
AcDbLine
 10
364.25595
 20
341.882377
 11
360.25595
 21
334.382377
  0
LINE
  5
E5
100
AcDbEntity
  8
M1
  6
CONTINUOUS
370
25
 62
     7
100
AcDbLine
 10
360.256072
 20
341.882377
 11
364.256072
 21
334.382377
  0
LINE
  5
E6
100
AcDbEntity
  8
M1
  6
CONTINUOUS
370
25
 62
     7
100
AcDbLine
 10
398.756255
 20
326.882164
 11
394.756255
 21
321.882164
  0
LINE
  5
E7
100
AcDbEntity
  8
M1
  6
CONTINUOUS
370
25
 62
     7
100
AcDbLine
 10
398.756194
 20
321.882469
 11
394.756194
 21
326.882377
  0
LINE
  5
E8
100
AcDbEntity
  8
M1
  6
CONTINUOUS
370
25
 62
     7
100
AcDbLine
 10
394.256072
 20
323.382377
 11
394.756072
 21
323.382377
  0
LINE
  5
E9
100
AcDbEntity
  8
M1
  6
CONTINUOUS
370
25
 62
     7
100
AcDbLine
 10
394.256072
 20
360.137779
 11
394.256072
 21
323.382377
  0
LINE
  5
EA
100
AcDbEntity
  8
M1
  6
CONTINUOUS
370
25
 62
     7
100
AcDbLine
 10
389.44168
 20
363.882377
 11
390.256072
 21
363.882377
  0
LINE
  5
EB
100
AcDbEntity
  8
M1
  6
CONTINUOUS
370
25
 62
     7
100
AcDbLine
 10
390.256072
 20
363.882377
 11
394.756072
 21
360.382377
  0
LINE
  5
EC
100
AcDbEntity
  8
M1
  6
CONTINUOUS
370
25
 62
     7
100
AcDbLine
 10
389.441558
 20
363.882377
 11
394.25595
 21
360.13787
  0
LINE
  5
ED
100
AcDbEntity
  8
M1
  6
CONTINUOUS
370
25
 62
     7
100
AcDbLine
 10
387.256072
 20
354.175163
 11
387.256072
 21
339.882377
  0
LINE
  5
EE
100
AcDbEntity
  8
M1
  6
CONTINUOUS
370
25
 62
     7
100
AcDbLine
 10
386.756072
 20
339.882377
 11
387.256072
 21
339.882377
  0
LINE
  5
EF
100
AcDbEntity
  8
M1
  6
CONTINUOUS
370
25
 62
     7
100
AcDbLine
 10
386.755889
 20
354.382469
 11
391.255889
 21
358.882591
  0
LINE
  5
F0
100
AcDbEntity
  8
M1
  6
CONTINUOUS
370
25
 62
     7
100
AcDbLine
 10
387.255889
 20
354.175468
 11
391.609344
 21
358.528984
  0
LINE
  5
F1
100
AcDbEntity
  8
M1
  6
CONTINUOUS
370
25
 62
     7
100
AcDbLine
 10
391.609649
 20
358.52877
 11
391.256194
 21
358.882286
  0
LINE
  5
F2
100
AcDbEntity
  8
M1
  6
CONTINUOUS
370
25
 62
     7
100
AcDbLine
 10
418.256072
 20
419.882408
 11
418.256072
 21
414.382408
  0
LINE
  5
F3
100
AcDbEntity
  8
M1
  6
CONTINUOUS
370
25
 62
     7
100
AcDbLine
 10
436.256072
 20
419.882408
 11
436.256072
 21
379.985374
  0
LINE
  5
F4
100
AcDbEntity
  8
M1
  6
CONTINUOUS
370
25
 62
     7
100
AcDbLine
 10
418.256072
 20
419.882408
 11
436.256072
 21
419.882408
  0
LINE
  5
F5
100
AcDbEntity
  8
M1
  6
CONTINUOUS
370
25
 62
     7
100
AcDbLine
 10
420.756072
 20
394.382408
 11
425.256072
 21
394.382408
  0
LINE
  5
F6
100
AcDbEntity
  8
M1
  6
CONTINUOUS
370
25
 62
     7
100
AcDbLine
 10
426.756072
 20
361.882377
 11
448.756072
 21
361.882377
  0
LINE
  5
F7
100
AcDbEntity
  8
M1
  6
CONTINUOUS
370
25
 62
     7
100
AcDbLine
 10
454.756072
 20
360.882377
 11
454.756072
 21
336.882377
  0
LINE
  5
F8
100
AcDbEntity
  8
M1
  6
CONTINUOUS
370
25
 62
     7
100
AcDbLine
 10
449.756072
 20
360.882377
 11
449.756072
 21
336.882377
  0
LINE
  5
F9
100
AcDbEntity
  8
M1
  6
CONTINUOUS
370
25
 62
     7
100
AcDbLine
 10
425.756072
 20
363.882377
 11
425.756072
 21
362.882377
  0
LINE
  5
FA
100
AcDbEntity
  8
M1
  6
CONTINUOUS
370
25
 62
     7
100
AcDbLine
 10
449.756072
 20
356.882377
 11
454.756072
 21
356.882377
  0
LINE
  5
FB
100
AcDbEntity
  8
M1
  6
CONTINUOUS
370
25
 62
     7
100
AcDbLine
 10
455.756072
 20
361.882377
 11
477.756072
 21
361.882377
  0
LINE
  5
FC
100
AcDbEntity
  8
M1
  6
CONTINUOUS
370
25
 62
     7
100
AcDbLine
 10
428.256072
 20
391.382408
 11
428.256072
 21
365.549064
  0
LINE
  5
FD
100
AcDbEntity
  8
M1
  6
CONTINUOUS
370
25
 62
     7
100
AcDbLine
 10
428.256194
 20
365.548881
 11
425.756194
 21
363.882164
  0
LINE
  5
FE
100
AcDbEntity
  8
M1
  6
CONTINUOUS
370
25
 62
     7
100
AcDbLine
 10
445.318999
 20
370.029502
 11
478.75595
 21
366.882408
  0
LINE
  5
FF
100
AcDbEntity
  8
M1
  6
CONTINUOUS
370
25
 62
     7
100
AcDbLine
 10
426.756194
 20
361.882286
 11
425.756194
 21
362.882286
  0
LINE
  5
100
100
AcDbEntity
  8
M1
  6
CONTINUOUS
370
25
 62
     7
100
AcDbLine
 10
477.756255
 20
361.882164
 11
478.756255
 21
362.882164
  0
LINE
  5
101
100
AcDbEntity
  8
M1
  6
CONTINUOUS
370
25
 62
     7
100
AcDbLine
 10
422.756072
 20
334.20327
 11
425.956084
 21
334.20327
  0
LINE
  5
102
100
AcDbEntity
  8
M1
  6
CONTINUOUS
370
25
 62
     7
100
AcDbLine
 10
422.756072
 20
341.043663
 11
425.956084
 21
341.043663
  0
LINE
  5
103
100
AcDbEntity
  8
M1
  6
CONTINUOUS
370
25
 62
     7
100
AcDbLine
 10
478.756072
 20
359.382377
 11
478.756072
 21
338.882377
  0
LINE
  5
104
100
AcDbEntity
  8
M1
  6
CONTINUOUS
370
25
 62
     7
100
AcDbLine
 10
425.956084
 20
354.382377
 11
434.539458
 21
354.382377
  0
LINE
  5
105
100
AcDbEntity
  8
M1
  6
CONTINUOUS
370
25
 62
     7
100
AcDbLine
 10
425.956084
 20
344.382377
 11
434.539458
 21
344.382377
  0
LINE
  5
106
100
AcDbEntity
  8
M1
  6
CONTINUOUS
370
25
 62
     7
100
AcDbLine
 10
454.756072
 20
344.382377
 11
463.439361
 21
344.382377
  0
LINE
  5
107
100
AcDbEntity
  8
M1
  6
CONTINUOUS
370
25
 62
     7
100
AcDbLine
 10
454.756072
 20
354.382377
 11
463.439361
 21
354.382377
  0
LINE
  5
108
100
AcDbEntity
  8
M1
  6
CONTINUOUS
370
25
 62
     7
100
AcDbLine
 10
475.256072
 20
357.882377
 11
475.256072
 21
340.882377
  0
LINE
  5
109
100
AcDbEntity
  8
M1
  6
CONTINUOUS
370
25
 62
     7
100
AcDbLine
 10
458.256072
 20
357.882377
 11
458.256072
 21
340.882377
  0
LINE
  5
10A
100
AcDbEntity
  8
M1
  6
CONTINUOUS
370
25
 62
     7
100
AcDbLine
 10
446.356048
 20
357.882377
 11
446.356048
 21
340.882377
  0
LINE
  5
10B
100
AcDbEntity
  8
M1
  6
CONTINUOUS
370
25
 62
     7
100
AcDbLine
 10
429.356048
 20
357.882377
 11
429.356048
 21
340.882377
  0
LINE
  5
10C
100
AcDbEntity
  8
M1
  6
CONTINUOUS
370
25
 62
     7
100
AcDbLine
 10
441.172759
 20
344.382377
 11
449.756072
 21
344.382377
  0
LINE
  5
10D
100
AcDbEntity
  8
M1
  6
CONTINUOUS
370
25
 62
     7
100
AcDbLine
 10
441.172759
 20
354.382377
 11
449.756072
 21
354.382377
  0
LINE
  5
10E
100
AcDbEntity
  8
M1
  6
CONTINUOUS
370
25
 62
     7
100
AcDbLine
 10
470.072784
 20
354.382377
 11
478.756072
 21
354.382377
  0
LINE
  5
10F
100
AcDbEntity
  8
M1
  6
CONTINUOUS
370
25
 62
     7
100
AcDbLine
 10
470.072784
 20
344.382377
 11
478.756072
 21
344.382377
  0
LINE
  5
110
100
AcDbEntity
  8
M1
  6
CONTINUOUS
370
25
 62
     7
100
AcDbLine
 10
449.756072
 20
342.753868
 11
454.756072
 21
342.753868
  0
LINE
  5
111
100
AcDbEntity
  8
M1
  6
CONTINUOUS
370
25
 62
     7
100
AcDbLine
 10
322.756072
 20
413.182273
 11
322.756072
 21
400.582359
  0
LINE
  5
112
100
AcDbEntity
  8
M1
  6
CONTINUOUS
370
25
 62
     7
100
AcDbLine
 10
328.256072
 20
414.582359
 11
328.256072
 21
399.182396
  0
LINE
  5
113
100
AcDbEntity
  8
M1
  6
CONTINUOUS
370
25
 62
     7
100
AcDbLine
 10
328.256072
 20
399.182396
 11
330.256072
 21
399.182396
  0
LINE
  5
114
100
AcDbEntity
  8
M1
  6
CONTINUOUS
370
25
 62
     7
100
AcDbLine
 10
328.256072
 20
414.582359
 11
330.256072
 21
414.582359
  0
LINE
  5
115
100
AcDbEntity
  8
M1
  6
CONTINUOUS
370
25
 62
     7
100
AcDbLine
 10
328.256194
 20
407.463707
 11
330.256194
 21
409.463707
  0
LINE
  5
116
100
AcDbEntity
  8
M1
  6
CONTINUOUS
370
25
 62
     7
100
AcDbLine
 10
328.256194
 20
404.635093
 11
330.256255
 21
406.635093
  0
LINE
  5
117
100
AcDbEntity
  8
M1
  6
CONTINUOUS
370
25
 62
     7
100
AcDbLine
 10
323.448943
 20
410.882408
 11
328.256072
 21
410.882408
  0
LINE
  5
118
100
AcDbEntity
  8
M1
  6
CONTINUOUS
370
25
 62
     7
100
AcDbLine
 10
323.448943
 20
402.882408
 11
328.256072
 21
402.882408
  0
LINE
  5
119
100
AcDbEntity
  8
M1
  6
CONTINUOUS
370
25
 62
     7
100
AcDbLine
 10
323.448882
 20
399.382408
 11
328.256072
 21
399.382408
  0
LINE
  5
11A
100
AcDbEntity
  8
M1
  6
CONTINUOUS
370
25
 62
     7
100
AcDbLine
 10
323.448943
 20
414.382408
 11
328.256072
 21
414.382408
  0
LINE
  5
11B
100
AcDbEntity
  8
M1
  6
CONTINUOUS
370
25
 62
     7
100
AcDbLine
 10
322.755889
 20
413.182457
 11
323.448699
 21
414.382591
  0
LINE
  5
11C
100
AcDbEntity
  8
M1
  6
CONTINUOUS
370
25
 62
     7
100
AcDbLine
 10
322.75595
 20
400.582603
 11
323.44876
 21
399.382408
  0
LINE
  5
11D
100
AcDbEntity
  8
M1
  6
CONTINUOUS
370
25
 62
     7
100
AcDbLine
 10
443.756072
 20
413.182273
 11
443.756072
 21
400.582359
  0
LINE
  5
11E
100
AcDbEntity
  8
M1
  6
CONTINUOUS
370
25
 62
     7
100
AcDbLine
 10
438.256072
 20
414.582359
 11
438.256072
 21
399.182396
  0
LINE
  5
11F
100
AcDbEntity
  8
M1
  6
CONTINUOUS
370
25
 62
     7
100
AcDbLine
 10
438.256072
 20
399.182396
 11
436.256072
 21
399.182396
  0
LINE
  5
120
100
AcDbEntity
  8
M1
  6
CONTINUOUS
370
25
 62
     7
100
AcDbLine
 10
438.256072
 20
414.582359
 11
436.256072
 21
414.582359
  0
LINE
  5
121
100
AcDbEntity
  8
M1
  6
CONTINUOUS
370
25
 62
     7
100
AcDbLine
 10
443.063201
 20
410.882408
 11
438.256072
 21
410.882408
  0
LINE
  5
122
100
AcDbEntity
  8
M1
  6
CONTINUOUS
370
25
 62
     7
100
AcDbLine
 10
443.063201
 20
402.882408
 11
438.256072
 21
402.882408
  0
LINE
  5
123
100
AcDbEntity
  8
M1
  6
CONTINUOUS
370
25
 62
     7
100
AcDbLine
 10
443.063262
 20
399.382408
 11
438.256072
 21
399.382408
  0
LINE
  5
124
100
AcDbEntity
  8
M1
  6
CONTINUOUS
370
25
 62
     7
100
AcDbLine
 10
443.063201
 20
414.382408
 11
438.256072
 21
414.382408
  0
LINE
  5
125
100
AcDbEntity
  8
M1
  6
CONTINUOUS
370
25
 62
     7
100
AcDbLine
 10
443.756194
 20
413.182457
 11
443.063384
 21
414.382469
  0
LINE
  5
126
100
AcDbEntity
  8
M1
  6
CONTINUOUS
370
25
 62
     7
100
AcDbLine
 10
443.756255
 20
400.582359
 11
443.063445
 21
399.382286
  0
LINE
  5
127
100
AcDbEntity
  8
M1
  6
CONTINUOUS
370
25
 62
     7
100
AcDbLine
 10
478.756072
 20
383.182273
 11
478.756072
 21
370.582359
  0
LINE
  5
128
100
AcDbEntity
  8
M1
  6
CONTINUOUS
370
25
 62
     7
100
AcDbLine
 10
484.256072
 20
384.582359
 11
484.256072
 21
369.182396
  0
LINE
  5
129
100
AcDbEntity
  8
M1
  6
CONTINUOUS
370
25
 62
     7
100
AcDbLine
 10
484.256072
 20
369.182396
 11
486.256072
 21
369.182396
  0
LINE
  5
12A
100
AcDbEntity
  8
M1
  6
CONTINUOUS
370
25
 62
     7
100
AcDbLine
 10
484.256072
 20
384.582359
 11
486.256072
 21
384.582359
  0
LINE
  5
12B
100
AcDbEntity
  8
M1
  6
CONTINUOUS
370
25
 62
     7
100
AcDbLine
 10
484.256255
 20
377.463462
 11
486.256255
 21
379.463462
  0
LINE
  5
12C
100
AcDbEntity
  8
M1
  6
CONTINUOUS
370
25
 62
     7
100
AcDbLine
 10
484.256194
 20
374.634971
 11
486.256255
 21
376.635093
  0
LINE
  5
12D
100
AcDbEntity
  8
M1
  6
CONTINUOUS
370
25
 62
     7
100
AcDbLine
 10
479.448943
 20
380.882408
 11
484.256072
 21
380.882408
  0
LINE
  5
12E
100
AcDbEntity
  8
M1
  6
CONTINUOUS
370
25
 62
     7
100
AcDbLine
 10
479.448943
 20
372.882408
 11
484.256072
 21
372.882408
  0
LINE
  5
12F
100
AcDbEntity
  8
M1
  6
CONTINUOUS
370
25
 62
     7
100
AcDbLine
 10
479.448882
 20
369.382408
 11
484.256072
 21
369.382408
  0
LINE
  5
130
100
AcDbEntity
  8
M1
  6
CONTINUOUS
370
25
 62
     7
100
AcDbLine
 10
479.448943
 20
384.382408
 11
484.256072
 21
384.382408
  0
LINE
  5
131
100
AcDbEntity
  8
M1
  6
CONTINUOUS
370
25
 62
     7
100
AcDbLine
 10
478.755767
 20
383.182457
 11
479.448577
 21
384.382591
  0
LINE
  5
132
100
AcDbEntity
  8
M1
  6
CONTINUOUS
370
25
 62
     7
100
AcDbLine
 10
478.75595
 20
370.582603
 11
479.44876
 21
369.382469
  0
LINE
  5
133
100
AcDbEntity
  8
M1
  6
CONTINUOUS
370
13
 62
     7
100
AcDbLine
 10
482.777801
 20
351.882377
 11
507.940765
 21
351.882377
  0
LINE
  5
134
100
AcDbEntity
  8
M1
  6
CONTINUOUS
370
13
 62
     7
100
AcDbLine
 10
488.256072
 20
356.882377
 11
501.256072
 21
356.882377
  0
LINE
  5
135
100
AcDbEntity
  8
M1
  6
CONTINUOUS
370
13
 62
     7
100
AcDbLine
 10
487.751556
 20
346.882377
 11
501.256072
 21
346.882377
  0
LINE
  5
136
100
AcDbEntity
  8
M1
  6
CONTINUOUS
370
25
 62
     7
100
AcDbLine
 10
488.256072
 20
347.69738
 11
501.256072
 21
347.69738
  0
LINE
  5
137
100
AcDbEntity
  8
M1
  6
CONTINUOUS
370
25
 62
     7
100
AcDbLine
 10
488.256072
 20
356.067375
 11
501.256072
 21
356.067375
  0
LINE
  5
138
100
AcDbEntity
  8
M1
  6
CONTINUOUS
370
13
 62
     7
100
AcDbLine
 10
323.982146
 20
361.882377
 11
342.060454
 21
361.882377
  0
LINE
  5
139
100
AcDbEntity
  8
M1
  6
CONTINUOUS
370
13
 62
     7
100
AcDbLine
 10
327.756072
 20
357.882377
 11
338.256072
 21
357.882377
  0
LINE
  5
13A
100
AcDbEntity
  8
M1
  6
CONTINUOUS
370
13
 62
     7
100
AcDbLine
 10
327.756072
 20
365.882408
 11
338.256072
 21
365.882408
  0
LINE
  5
13B
100
AcDbEntity
  8
M1
  6
CONTINUOUS
370
25
 62
     7
100
AcDbLine
 10
327.756072
 20
358.557365
 11
338.256072
 21
358.557365
  0
LINE
  5
13C
100
AcDbEntity
  8
M1
  6
CONTINUOUS
370
25
 62
     7
100
AcDbLine
 10
327.756072
 20
365.207389
 11
338.256072
 21
365.207389
  0
LINE
  5
13D
100
AcDbEntity
  8
M1
  6
CONTINUOUS
370
25
 62
     7
100
AcDbLine
 10
323.756072
 20
241.882377
 11
323.756072
 21
291.882377
  0
LINE
  5
13E
100
AcDbEntity
  8
M1
  6
CONTINUOUS
370
25
 62
     7
100
AcDbLine
 10
507.256072
 20
240.382286
 11
507.256072
 21
291.882377
  0
LINE
  5
13F
100
AcDbEntity
  8
M1
  6
CONTINUOUS
370
25
 62
     7
100
AcDbLine
 10
491.256072
 20
196.882377
 11
501.256072
 21
196.882377
  0
LINE
  5
140
100
AcDbEntity
  8
M1
  6
CONTINUOUS
370
25
 62
     7
100
AcDbLine
 10
501.256072
 20
196.882377
 11
501.256072
 21
291.882377
  0
LINE
  5
141
100
AcDbEntity
  8
M1
  6
CONTINUOUS
370
25
 62
     7
100
AcDbLine
 10
491.256072
 20
160.882377
 11
491.256072
 21
291.882377
  0
LINE
  5
142
100
AcDbEntity
  8
M1
  6
CONTINUOUS
370
25
 62
     7
100
AcDbLine
 10
501.256072
 20
239.382377
 11
506.256072
 21
239.382377
  0
LINE
  5
143
100
AcDbEntity
  8
M1
  6
CONTINUOUS
370
25
 62
     7
100
AcDbLine
 10
506.256255
 20
239.382286
 11
507.256255
 21
240.382286
  0
LINE
  5
144
100
AcDbEntity
  8
M1
  6
CONTINUOUS
370
25
 62
     7
100
AcDbLine
 10
486.256072
 20
160.882377
 11
486.256072
 21
291.882377
  0
LINE
  5
145
100
AcDbEntity
  8
M1
  6
CONTINUOUS
370
25
 62
     7
100
AcDbLine
 10
486.256072
 20
160.882377
 11
491.256072
 21
160.882377
  0
LINE
  5
146
100
AcDbEntity
  8
M1
  6
CONTINUOUS
370
25
 62
     7
100
AcDbLine
 10
446.256072
 20
167.400962
 11
446.256072
 21
221.756675
  0
LINE
  5
147
100
AcDbEntity
  8
M1
  6
CONTINUOUS
370
25
 62
     7
100
AcDbLine
 10
330.256072
 20
163.882377
 11
348.756072
 21
163.882377
  0
LINE
  5
148
100
AcDbEntity
  8
M1
  6
CONTINUOUS
370
25
 62
     7
100
AcDbLine
 10
327.756072
 20
211.882377
 11
327.756072
 21
226.882377
  0
LINE
  5
149
100
AcDbEntity
  8
M1
  6
CONTINUOUS
370
25
 62
     7
100
AcDbLine
 10
330.256072
 20
163.882377
 11
330.256072
 21
291.882377
  0
LINE
  5
14A
100
AcDbEntity
  8
M1
  6
CONTINUOUS
370
25
 62
     7
100
AcDbLine
 10
327.756072
 20
211.882377
 11
328.756072
 21
211.882377
  0
LINE
  5
14B
100
AcDbEntity
  8
M1
  6
CONTINUOUS
370
25
 62
     7
100
AcDbLine
 10
382.506072
 20
146.882377
 11
415.756072
 21
146.882377
  0
LINE
  5
14C
100
AcDbEntity
  8
M1
  6
CONTINUOUS
370
25
 62
     7
100
AcDbLine
 10
417.756072
 20
148.882377
 11
417.756072
 21
291.882377
  0
LINE
  5
14D
100
AcDbEntity
  8
M1
  6
CONTINUOUS
370
25
 62
     7
100
AcDbLine
 10
384.006072
 20
146.882377
 11
350.756072
 21
146.882377
  0
LINE
  5
14E
100
AcDbEntity
  8
M1
  6
CONTINUOUS
370
25
 62
     7
100
AcDbLine
 10
348.756072
 20
148.882377
 11
348.756072
 21
291.882377
  0
LINE
  5
14F
100
AcDbEntity
  8
M1
  6
CONTINUOUS
370
25
 62
     7
100
AcDbLine
 10
415.756499
 20
146.882072
 11
417.756499
 21
148.882072
  0
LINE
  5
150
100
AcDbEntity
  8
M1
  6
CONTINUOUS
370
25
 62
     7
100
AcDbLine
 10
350.756499
 20
146.882591
 11
348.756377
 21
148.882591
  0
LINE
  5
151
100
AcDbEntity
  8
M1
  6
CONTINUOUS
370
25
 62
     7
100
AcDbLine
 10
436.256072
 20
163.882377
 11
436.256072
 21
291.882377
  0
LINE
  5
152
100
AcDbEntity
  8
M1
  6
CONTINUOUS
370
25
 62
     7
100
AcDbLine
 10
417.756072
 20
163.882377
 11
436.256072
 21
163.882377
  0
LINE
  5
153
100
AcDbEntity
  8
M1
  6
CONTINUOUS
370
25
 62
     7
100
AcDbLine
 10
445.31906
 20
213.735374
 11
446.25595
 21
213.82357
  0
LINE
  5
154
100
AcDbEntity
  8
M1
  6
CONTINUOUS
370
25
 62
     7
100
AcDbLine
 10
322.756072
 20
228.082389
 11
322.756072
 21
240.682273
  0
LINE
  5
155
100
AcDbEntity
  8
M1
  6
CONTINUOUS
370
25
 62
     7
100
AcDbLine
 10
328.256072
 20
226.682365
 11
328.256072
 21
242.082389
  0
LINE
  5
156
100
AcDbEntity
  8
M1
  6
CONTINUOUS
370
25
 62
     7
100
AcDbLine
 10
328.256072
 20
242.082389
 11
330.256072
 21
242.082389
  0
LINE
  5
157
100
AcDbEntity
  8
M1
  6
CONTINUOUS
370
25
 62
     7
100
AcDbLine
 10
328.256072
 20
226.682365
 11
330.256072
 21
226.682365
  0
LINE
  5
158
100
AcDbEntity
  8
M1
  6
CONTINUOUS
370
25
 62
     7
100
AcDbLine
 10
323.448943
 20
230.382377
 11
328.256072
 21
230.382377
  0
LINE
  5
159
100
AcDbEntity
  8
M1
  6
CONTINUOUS
370
25
 62
     7
100
AcDbLine
 10
323.448943
 20
238.382377
 11
328.256072
 21
238.382377
  0
LINE
  5
15A
100
AcDbEntity
  8
M1
  6
CONTINUOUS
370
25
 62
     7
100
AcDbLine
 10
323.448882
 20
241.882377
 11
328.256072
 21
241.882377
  0
LINE
  5
15B
100
AcDbEntity
  8
M1
  6
CONTINUOUS
370
25
 62
     7
100
AcDbLine
 10
323.448943
 20
226.882377
 11
328.256072
 21
226.882377
  0
LINE
  5
15C
100
AcDbEntity
  8
M1
  6
CONTINUOUS
370
25
 62
     7
100
AcDbLine
 10
322.755645
 20
228.082267
 11
323.448455
 21
226.882164
  0
LINE
  5
15D
100
AcDbEntity
  8
M1
  6
CONTINUOUS
370
25
 62
     7
100
AcDbLine
 10
322.756255
 20
240.681877
 11
323.449187
 21
241.882072
  0
LINE
  5
15E
100
AcDbEntity
  8
M1
  6
CONTINUOUS
370
25
 62
     7
100
AcDbLine
 10
443.756072
 20
170.582389
 11
443.756072
 21
183.182273
  0
LINE
  5
15F
100
AcDbEntity
  8
M1
  6
CONTINUOUS
370
25
 62
     7
100
AcDbLine
 10
438.256072
 20
169.182365
 11
438.256072
 21
184.582389
  0
LINE
  5
160
100
AcDbEntity
  8
M1
  6
CONTINUOUS
370
25
 62
     7
100
AcDbLine
 10
438.256072
 20
184.582389
 11
436.256072
 21
184.582389
  0
LINE
  5
161
100
AcDbEntity
  8
M1
  6
CONTINUOUS
370
25
 62
     7
100
AcDbLine
 10
438.256072
 20
169.182365
 11
436.256072
 21
169.182365
  0
LINE
  5
162
100
AcDbEntity
  8
M1
  6
CONTINUOUS
370
25
 62
     7
100
AcDbLine
 10
438.256194
 20
176.300865
 11
436.256194
 21
174.300865
  0
LINE
  5
163
100
AcDbEntity
  8
M1
  6
CONTINUOUS
370
25
 62
     7
100
AcDbLine
 10
438.256255
 20
179.129386
 11
436.256194
 21
177.129386
  0
LINE
  5
164
100
AcDbEntity
  8
M1
  6
CONTINUOUS
370
25
 62
     7
100
AcDbLine
 10
443.063201
 20
172.882377
 11
438.256072
 21
172.882377
  0
LINE
  5
165
100
AcDbEntity
  8
M1
  6
CONTINUOUS
370
25
 62
     7
100
AcDbLine
 10
443.063201
 20
180.882377
 11
438.256072
 21
180.882377
  0
LINE
  5
166
100
AcDbEntity
  8
M1
  6
CONTINUOUS
370
25
 62
     7
100
AcDbLine
 10
443.063262
 20
184.382377
 11
438.256072
 21
184.382377
  0
LINE
  5
167
100
AcDbEntity
  8
M1
  6
CONTINUOUS
370
25
 62
     7
100
AcDbLine
 10
443.063201
 20
169.382377
 11
438.256072
 21
169.382377
  0
LINE
  5
168
100
AcDbEntity
  8
M1
  6
CONTINUOUS
370
25
 62
     7
100
AcDbLine
 10
443.756499
 20
170.582176
 11
443.06375
 21
169.382164
  0
LINE
  5
169
100
AcDbEntity
  8
M1
  6
CONTINUOUS
370
25
 62
     7
100
AcDbLine
 10
443.756377
 20
183.182182
 11
443.063445
 21
184.382286
  0
LINE
  5
16A
100
AcDbEntity
  8
M1
  6
CONTINUOUS
370
13
 62
     7
100
AcDbLine
 10
306.121184
 20
291.882377
 11
326.535857
 21
291.882377
  0
LINE
  5
16B
100
AcDbEntity
  8
M1
  6
CONTINUOUS
370
13
 62
     7
100
AcDbLine
 10
672.489396
 20
291.882377
 11
696.580079
 21
291.882377
  0
LINE
  5
16C
100
AcDbEntity
  8
M1
  6
CONTINUOUS
370
25
 62
     7
100
AcDbLine
 10
145.389764
 20
317.882377
 11
145.389764
 21
313.567588
  0
LINE
  5
16D
100
AcDbEntity
  8
M1
  6
CONTINUOUS
370
25
 62
     7
100
AcDbLine
 10
157.389764
 20
317.882377
 11
157.389764
 21
313.567588
  0
LINE
  5
16E
100
AcDbEntity
  8
M1
  6
CONTINUOUS
370
25
 62
     7
100
AcDbLine
 10
145.389764
 20
317.882377
 11
157.389764
 21
317.882377
  0
LINE
  5
16F
100
AcDbEntity
  8
M1
  6
CONTINUOUS
370
13
 62
     7
100
AcDbLine
 10
151.389764
 20
369.728599
 11
151.389764
 21
353.850578
  0
LINE
  5
170
100
AcDbEntity
  8
M1
  6
CONTINUOUS
370
25
 62
     7
100
AcDbLine
 10
244.487847
 20
353.137779
 11
244.487847
 21
345.632164
  0
LINE
  5
171
100
AcDbEntity
  8
M1
  6
CONTINUOUS
370
25
 62
     7
100
AcDbLine
 10
250.977044
 20
356.885765
 11
244.486749
 21
353.138664
  0
LINE
  5
172
100
AcDbEntity
  8
M1
  6
CONTINUOUS
370
25
 62
     7
100
AcDbLine
 10
250.97796
 20
356.885276
 11
257.478021
 21
353.132469
  0
LINE
  5
173
100
AcDbEntity
  8
M1
  6
CONTINUOUS
370
25
 62
     7
100
AcDbLine
 10
257.478021
 20
345.626792
 11
257.478021
 21
353.132377
  0
LINE
  5
174
100
AcDbEntity
  8
M1
  6
CONTINUOUS
370
25
 62
     7
100
AcDbLine
 10
257.47741
 20
345.627464
 11
250.987054
 21
341.880271
  0
LINE
  5
175
100
AcDbEntity
  8
M1
  6
CONTINUOUS
370
25
 62
     7
100
AcDbLine
 10
250.986749
 20
341.878685
 11
244.486627
 21
345.631492
  0
LINE
  5
176
100
AcDbEntity
  8
M1
  6
CONTINUOUS
370
25
 62
     7
100
AcDbLine
 10
144.889764
 20
403.135154
 11
151.389764
 21
399.382408
  0
LINE
  5
177
100
AcDbEntity
  8
M1
  6
CONTINUOUS
370
25
 62
     7
100
AcDbLine
 10
144.889764
 20
410.6296
 11
144.889764
 21
403.135093
  0
LINE
  5
178
100
AcDbEntity
  8
M1
  6
CONTINUOUS
370
25
 62
     7
100
AcDbLine
 10
144.889764
 20
410.630149
 11
151.389764
 21
414.382957
  0
LINE
  5
179
100
AcDbEntity
  8
M1
  6
CONTINUOUS
370
25
 62
     7
100
AcDbLine
 10
157.889764
 20
410.629661
 11
151.389764
 21
414.382469
  0
LINE
  5
17A
100
AcDbEntity
  8
M1
  6
CONTINUOUS
370
25
 62
     7
100
AcDbLine
 10
157.889764
 20
410.6296
 11
157.889764
 21
403.135093
  0
LINE
  5
17B
100
AcDbEntity
  8
M1
  6
CONTINUOUS
370
25
 62
     7
100
AcDbLine
 10
157.889764
 20
403.134361
 11
151.389764
 21
399.381553
  0
LINE
  5
17C
100
AcDbEntity
  8
M1
  6
CONTINUOUS
370
25
 62
     7
100
AcDbLine
 10
51.792718
 20
341.87899
 11
58.292718
 21
345.631889
  0
LINE
  5
17D
100
AcDbEntity
  8
M1
  6
CONTINUOUS
370
25
 62
     7
100
AcDbLine
 10
45.301751
 20
345.626579
 11
51.791741
 21
341.879386
  0
LINE
  5
17E
100
AcDbEntity
  8
M1
  6
CONTINUOUS
370
25
 62
     7
100
AcDbLine
 10
45.301751
 20
345.626884
 11
45.301751
 21
353.132469
  0
LINE
  5
17F
100
AcDbEntity
  8
M1
  6
CONTINUOUS
370
25
 62
     7
100
AcDbLine
 10
51.801751
 20
356.884574
 11
45.301751
 21
353.131767
  0
LINE
  5
180
100
AcDbEntity
  8
M1
  6
CONTINUOUS
370
25
 62
     7
100
AcDbLine
 10
51.801751
 20
356.885063
 11
58.291741
 21
353.137779
  0
LINE
  5
181
100
AcDbEntity
  8
M1
  6
CONTINUOUS
370
25
 62
     7
100
AcDbLine
 10
58.292718
 20
353.137992
 11
58.292718
 21
345.632377
  0
LINE
  5
182
100
AcDbEntity
  8
M1
  6
CONTINUOUS
370
25
 62
     7
100
AcDbLine
 10
51.792718
 20
341.87899
 11
58.292718
 21
345.631889
  0
LINE
  5
183
100
AcDbEntity
  8
M1
  6
CONTINUOUS
370
25
 62
     7
100
AcDbLine
 10
45.301751
 20
345.626579
 11
51.791741
 21
341.879386
  0
LINE
  5
184
100
AcDbEntity
  8
M1
  6
CONTINUOUS
370
25
 62
     7
100
AcDbLine
 10
45.301751
 20
345.626884
 11
45.301751
 21
353.132469
  0
LINE
  5
185
100
AcDbEntity
  8
M1
  6
CONTINUOUS
370
25
 62
     7
100
AcDbLine
 10
51.801751
 20
356.884574
 11
45.301751
 21
353.131675
  0
LINE
  5
186
100
AcDbEntity
  8
M1
  6
CONTINUOUS
370
25
 62
     7
100
AcDbLine
 10
51.801751
 20
356.885063
 11
58.291741
 21
353.137779
  0
LINE
  5
187
100
AcDbEntity
  8
M1
  6
CONTINUOUS
370
25
 62
     7
100
AcDbLine
 10
58.292718
 20
353.137992
 11
58.292718
 21
345.632377
  0
LINE
  5
188
100
AcDbEntity
  8
M1
  6
CONTINUOUS
370
25
 62
     7
100
AcDbLine
 10
51.791741
 20
341.878868
 11
58.291741
 21
345.631675
  0
LINE
  5
189
100
AcDbEntity
  8
M1
  6
CONTINUOUS
370
25
 62
     7
100
AcDbLine
 10
45.301751
 20
345.626579
 11
51.791741
 21
341.879386
  0
LINE
  5
18A
100
AcDbEntity
  8
M1
  6
CONTINUOUS
370
25
 62
     7
100
AcDbLine
 10
45.301751
 20
345.626884
 11
45.301751
 21
353.132469
  0
LINE
  5
18B
100
AcDbEntity
  8
M1
  6
CONTINUOUS
370
25
 62
     7
100
AcDbLine
 10
51.801751
 20
356.884391
 11
45.301751
 21
353.131584
  0
LINE
  5
18C
100
AcDbEntity
  8
M1
  6
CONTINUOUS
370
25
 62
     7
100
AcDbLine
 10
51.801751
 20
356.885063
 11
58.291741
 21
353.137779
  0
LINE
  5
18D
100
AcDbEntity
  8
M1
  6
CONTINUOUS
370
25
 62
     7
100
AcDbLine
 10
58.292718
 20
353.137992
 11
58.292718
 21
345.632377
  0
LINE
  5
18E
100
AcDbEntity
  8
M1
  6
CONTINUOUS
370
25
 62
     7
100
AcDbLine
 10
58.291741
 20
230.626792
 11
58.291741
 21
238.132377
  0
LINE
  5
18F
100
AcDbEntity
  8
M1
  6
CONTINUOUS
370
25
 62
     7
100
AcDbLine
 10
51.800775
 20
226.88018
 11
58.291741
 21
230.627372
  0
LINE
  5
190
100
AcDbEntity
  8
M1
  6
CONTINUOUS
370
25
 62
     7
100
AcDbLine
 10
51.800775
 20
226.879478
 11
45.300775
 21
230.632286
  0
LINE
  5
191
100
AcDbEntity
  8
M1
  6
CONTINUOUS
370
25
 62
     7
100
AcDbLine
 10
45.300775
 20
238.13787
 11
45.300775
 21
230.632286
  0
LINE
  5
192
100
AcDbEntity
  8
M1
  6
CONTINUOUS
370
25
 62
     7
100
AcDbLine
 10
45.300775
 20
238.138572
 11
51.791741
 21
241.885765
  0
LINE
  5
193
100
AcDbEntity
  8
M1
  6
CONTINUOUS
370
25
 62
     7
100
AcDbLine
 10
51.791741
 20
241.88607
 11
58.291741
 21
238.133171
  0
LINE
  5
194
100
AcDbEntity
  8
M1
  6
CONTINUOUS
370
25
 62
     7
100
AcDbLine
 10
157.888787
 20
180.629264
 11
151.388787
 21
184.382072
  0
LINE
  5
195
100
AcDbEntity
  8
M1
  6
CONTINUOUS
370
25
 62
     7
100
AcDbLine
 10
157.889764
 20
173.135368
 11
157.889764
 21
180.629692
  0
LINE
  5
196
100
AcDbEntity
  8
M1
  6
CONTINUOUS
370
25
 62
     7
100
AcDbLine
 10
157.888787
 20
173.135368
 11
151.388787
 21
169.382591
  0
LINE
  5
197
100
AcDbEntity
  8
M1
  6
CONTINUOUS
370
25
 62
     7
100
AcDbLine
 10
144.889764
 20
173.13488
 11
151.389764
 21
169.382072
  0
LINE
  5
198
100
AcDbEntity
  8
M1
  6
CONTINUOUS
370
25
 62
     7
100
AcDbLine
 10
144.889764
 20
173.135063
 11
144.889764
 21
180.62957
  0
LINE
  5
199
100
AcDbEntity
  8
M1
  6
CONTINUOUS
370
25
 62
     7
100
AcDbLine
 10
144.888787
 20
180.631065
 11
151.388787
 21
184.383964
  0
LINE
  5
19A
100
AcDbEntity
  8
M1
  6
CONTINUOUS
370
25
 62
     7
100
AcDbLine
 10
250.987054
 20
241.885276
 11
244.486932
 21
238.132469
  0
LINE
  5
19B
100
AcDbEntity
  8
M1
  6
CONTINUOUS
370
25
 62
     7
100
AcDbLine
 10
257.477349
 20
238.138084
 11
250.987054
 21
241.885276
  0
LINE
  5
19C
100
AcDbEntity
  8
M1
  6
CONTINUOUS
370
25
 62
     7
100
AcDbLine
 10
257.478021
 20
238.137687
 11
257.478021
 21
230.632072
  0
LINE
  5
19D
100
AcDbEntity
  8
M1
  6
CONTINUOUS
370
25
 62
     7
100
AcDbLine
 10
250.977532
 20
226.879966
 11
257.477654
 21
230.632774
  0
LINE
  5
19E
100
AcDbEntity
  8
M1
  6
CONTINUOUS
370
25
 62
     7
100
AcDbLine
 10
250.977654
 20
226.87957
 11
244.487115
 21
230.626884
  0
LINE
  5
19F
100
AcDbEntity
  8
M1
  6
CONTINUOUS
370
25
 62
     7
100
AcDbLine
 10
244.486321
 20
230.62667
 11
244.486321
 21
238.132286
  0
LINE
  5
1A0
100
AcDbEntity
  8
M1
  6
CONTINUOUS
370
25
 62
     7
100
AcDbLine
 10
677.79268
 20
317.882377
 11
689.79268
 21
317.882377
  0
LINE
  5
1A1
100
AcDbEntity
  8
M1
  6
CONTINUOUS
370
25
 62
     7
100
AcDbLine
 10
677.79268
 20
317.882377
 11
677.79268
 21
313.567588
  0
LINE
  5
1A2
100
AcDbEntity
  8
M1
  6
CONTINUOUS
370
25
 62
     7
100
AcDbLine
 10
689.79268
 20
317.882377
 11
689.79268
 21
313.567588
  0
LINE
  5
1A3
100
AcDbEntity
  8
M1
  6
CONTINUOUS
370
13
 62
     7
100
AcDbLine
 10
683.79268
 20
360.968284
 11
683.79268
 21
344.382377
  0
LINE
  5
1A4
100
AcDbEntity
  8
M1
  6
CONTINUOUS
370
25
 62
     7
100
AcDbLine
 10
749.529786
 20
411.340354
 11
761.556184
 21
432.170066
  0
LINE
  5
1A5
100
AcDbEntity
  8
M1
  6
CONTINUOUS
370
25
 62
     7
100
AcDbLine
 10
754.37938
 20
408.540489
 11
765.901887
 21
428.498191
  0
LINE
  5
1A6
100
AcDbEntity
  8
M1
  6
CONTINUOUS
370
25
 62
     7
100
AcDbLine
 10
761.555879
 20
432.170372
 11
765.901979
 21
428.498252
  0
LINE
  5
1A7
100
AcDbEntity
  8
M1
  6
CONTINUOUS
370
25
 62
     7
100
AcDbLine
 10
763.61258
 20
435.73336
 11
767.819581
 21
431.821495
  0
LINE
  5
1A8
100
AcDbEntity
  8
M1
  6
CONTINUOUS
370
25
 62
     7
100
AcDbLine
 10
763.613481
 20
435.732994
 11
772.676484
 21
451.43209
  0
LINE
  5
1A9
100
AcDbEntity
  8
M1
  6
CONTINUOUS
370
25
 62
     7
100
AcDbLine
 10
767.818589
 20
431.822105
 11
777.524583
 21
448.633201
  0
LINE
  5
1AA
100
AcDbEntity
  8
M1
  6
CONTINUOUS
370
25
 62
     7
100
AcDbLine
 10
773.888383
 20
463.332176
 11
770.38849
 21
469.394065
  0
LINE
  5
1AB
100
AcDbEntity
  8
M1
  6
CONTINUOUS
370
25
 62
     7
100
AcDbLine
 10
775.100587
 20
464.032554
 11
772.675691
 21
462.632652
  0
LINE
  5
1AC
100
AcDbEntity
  8
M1
  6
CONTINUOUS
370
25
 62
     7
100
AcDbLine
 10
775.10138
 20
450.0317
 11
765.716386
 21
433.776756
  0
LINE
  5
1AD
100
AcDbEntity
  8
M1
  6
CONTINUOUS
370
25
 62
     7
100
AcDbLine
 10
763.728089
 20
430.334007
 11
751.954087
 21
409.940757
  0
LINE
  5
1AE
100
AcDbEntity
  8
M1
  6
CONTINUOUS
370
25
 62
     7
100
AcDbLine
 10
787.225785
 20
455.632652
 11
794.225785
 21
455.631553
  0
LINE
  5
1AF
100
AcDbEntity
  8
M1
  6
CONTINUOUS
370
25
 62
     7
100
AcDbLine
 10
787.224885
 20
457.032249
 11
787.225984
 21
454.232261
  0
LINE
  5
1B0
100
AcDbEntity
  8
M1
  6
CONTINUOUS
370
25
 62
     7
100
AcDbLine
 10
81.326775
 20
418.832054
 11
73.625726
 21
432.170005
  0
LINE
  5
1B1
100
AcDbEntity
  8
M1
  6
CONTINUOUS
370
25
 62
     7
100
AcDbLine
 10
76.477776
 20
416.031883
 11
69.279778
 21
428.497947
  0
LINE
  5
1B2
100
AcDbEntity
  8
M1
  6
CONTINUOUS
370
25
 62
     7
100
AcDbLine
 10
73.625726
 20
432.171165
 11
69.279778
 21
428.499107
  0
LINE
  5
1B3
100
AcDbEntity
  8
M1
  6
CONTINUOUS
370
25
 62
     7
100
AcDbLine
 10
71.568719
 20
435.733848
 11
67.361688
 21
431.821861
  0
LINE
  5
1B4
100
AcDbEntity
  8
M1
  6
CONTINUOUS
370
25
 62
     7
100
AcDbLine
 10
71.568719
 20
435.733055
 11
62.506707
 21
451.431968
  0
LINE
  5
1B5
100
AcDbEntity
  8
M1
  6
CONTINUOUS
370
25
 62
     7
100
AcDbLine
 10
67.362786
 20
431.821678
 11
57.656732
 21
448.632896
  0
LINE
  5
1B6
100
AcDbEntity
  8
M1
  6
CONTINUOUS
370
25
 62
     7
100
AcDbLine
 10
61.294793
 20
463.331749
 11
64.794793
 21
469.39376
  0
LINE
  5
1B7
100
AcDbEntity
  8
M1
  6
CONTINUOUS
370
25
 62
     7
100
AcDbLine
 10
60.08178
 20
464.032493
 11
62.506707
 21
462.632591
  0
LINE
  5
1B8
100
AcDbEntity
  8
M1
  6
CONTINUOUS
370
25
 62
     7
100
AcDbLine
 10
60.08178
 20
450.031883
 11
69.46679
 21
433.777
  0
LINE
  5
1B9
100
AcDbEntity
  8
M1
  6
CONTINUOUS
370
25
 62
     7
100
AcDbLine
 10
71.453729
 20
430.334007
 11
78.888787
 21
417.455894
  0
LINE
  5
1BA
100
AcDbEntity
  8
M1
  6
CONTINUOUS
370
25
 62
     7
100
AcDbLine
 10
47.955682
 20
455.632652
 11
40.955682
 21
455.631553
  0
LINE
  5
1BB
100
AcDbEntity
  8
M1
  6
CONTINUOUS
370
25
 62
     7
100
AcDbLine
 10
47.957757
 20
457.032249
 11
47.95678
 21
454.232261
  0
LINE
  5
1BC
100
AcDbEntity
  8
M1
  6
CONTINUOUS
370
25
 62
     7
100
AcDbLine
 10
236.730218
 20
329.607688
 11
217.742852
 21
318.645286
  0
LINE
  5
1BD
100
AcDbEntity
  8
M1
  6
CONTINUOUS
370
25
 62
     7
100
AcDbLine
 10
217.74273
 20
265.120079
 11
236.730218
 21
254.157585
  0
LINE
  5
1BE
100
AcDbEntity
  8
M1
  6
CONTINUOUS
370
25
 62
     7
100
AcDbLine
 10
161.389764
 20
384.652183
 11
161.389764
 21
362.726188
  0
LINE
  5
1BF
100
AcDbEntity
  8
M1
  6
CONTINUOUS
370
25
 62
     7
100
AcDbLine
 10
207.742364
 20
335.964866
 11
226.730462
 21
346.927665
  0
LINE
  5
1C0
100
AcDbEntity
  8
M1
  6
CONTINUOUS
370
25
 62
     7
100
AcDbLine
 10
76.048699
 20
346.927574
 11
93.625726
 21
336.779167
  0
LINE
  5
1C1
100
AcDbEntity
  8
M1
  6
CONTINUOUS
370
25
 62
     7
100
AcDbLine
 10
141.389764
 20
364.355491
 11
141.389764
 21
384.652183
  0
LINE
  5
1C2
100
AcDbEntity
  8
M1
  6
CONTINUOUS
370
25
 62
     7
100
AcDbLine
 10
76.048699
 20
346.927574
 11
95.036736
 21
335.964683
  0
LINE
  5
1C3
100
AcDbEntity
  8
M1
  6
CONTINUOUS
370
25
 62
     7
100
AcDbLine
 10
141.389764
 20
362.726768
 11
141.389764
 21
384.652183
  0
LINE
  5
1C4
100
AcDbEntity
  8
M1
  6
CONTINUOUS
370
25
 62
     7
100
AcDbLine
 10
66.047723
 20
254.158378
 11
85.036736
 21
265.121177
  0
LINE
  5
1C5
100
AcDbEntity
  8
M1
  6
CONTINUOUS
370
25
 62
     7
100
AcDbLine
 10
85.03576
 20
318.644767
 11
66.048699
 21
329.60717
  0
LINE
  5
1C6
100
AcDbEntity
  8
M1
  6
CONTINUOUS
370
25
 62
     7
100
AcDbLine
 10
141.389764
 20
199.11248
 11
141.389764
 21
221.037376
  0
LINE
  5
1C7
100
AcDbEntity
  8
M1
  6
CONTINUOUS
370
25
 62
     7
100
AcDbLine
 10
95.03576
 20
247.800163
 11
76.047723
 21
236.837883
  0
LINE
  5
1C8
100
AcDbEntity
  8
M1
  6
CONTINUOUS
370
25
 62
     7
100
AcDbLine
 10
226.730523
 20
236.837272
 11
207.743035
 21
247.799766
  0
LINE
  5
1C9
100
AcDbEntity
  8
M1
  6
CONTINUOUS
370
25
 62
     7
100
AcDbLine
 10
161.389764
 20
221.037376
 11
161.389764
 21
199.112663
  0
LINE
  5
1CA
100
AcDbEntity
  8
M1
  6
CONTINUOUS
370
13
 62
     7
100
AcDbLine
 10
84.132684
 20
253.05178
 11
98.877679
 21
261.564964
  0
LINE
  5
1CB
100
AcDbEntity
  8
M1
  6
CONTINUOUS
370
13
 62
     7
100
AcDbLine
 10
83.750726
 20
330.933372
 11
98.554681
 21
322.386375
  0
LINE
  5
1CC
100
AcDbEntity
  8
M1
  6
CONTINUOUS
370
13
 62
     7
100
AcDbLine
 10
204.326226
 20
261.319175
 11
218.54345
 21
253.110862
  0
LINE
  5
1CD
100
AcDbEntity
  8
M1
  6
CONTINUOUS
370
13
 62
     7
100
AcDbLine
 10
204.283257
 20
322.42089
 11
218.362664
 21
330.549675
  0
LINE
  5
1CE
100
AcDbEntity
  8
M1
  6
CONTINUOUS
370
25
 62
     7
100
AcDbLine
 10
149.889764
 20
326.982383
 11
149.889764
 21
321.84478
  0
LINE
  5
1CF
100
AcDbEntity
  8
M1
  6
CONTINUOUS
370
25
 62
     7
100
AcDbLine
 10
152.889764
 20
326.982383
 11
152.889764
 21
321.84478
  0
LINE
  5
1D0
100
AcDbEntity
  8
M1
  6
CONTINUOUS
370
25
 62
     7
100
AcDbLine
 10
158.889764
 20
325.482383
 11
158.889764
 21
321.733879
  0
LINE
  5
1D1
100
AcDbEntity
  8
M1
  6
CONTINUOUS
370
25
 62
     7
100
AcDbLine
 10
143.889764
 20
325.482383
 11
143.889764
 21
321.733879
  0
LINE
  5
1D2
100
AcDbEntity
  8
M1
  6
CONTINUOUS
370
25
 62
     7
100
AcDbLine
 10
145.389764
 20
326.982383
 11
149.889764
 21
326.982383
  0
LINE
  5
1D3
100
AcDbEntity
  8
M1
  6
CONTINUOUS
370
25
 62
     7
100
AcDbLine
 10
152.889764
 20
326.982383
 11
157.389764
 21
326.982383
  0
LINE
  5
1D4
100
AcDbEntity
  8
M1
  6
CONTINUOUS
370
25
 62
     7
100
AcDbLine
 10
326.756072
 20
326.982383
 11
328.956084
 21
326.982383
  0
LINE
  5
1D5
100
AcDbEntity
  8
M1
  6
CONTINUOUS
370
25
 62
     7
100
AcDbLine
 10
155.384759
 20
333.682365
 11
158.654778
 21
333.682365
  0
LINE
  5
1D6
100
AcDbEntity
  8
M1
  6
CONTINUOUS
370
25
 62
     7
100
AcDbLine
 10
154.386712
 20
334.752189
 11
154.702752
 21
339.266685
  0
LINE
  5
1D7
100
AcDbEntity
  8
M1
  6
CONTINUOUS
370
25
 62
     7
100
AcDbLine
 10
160.611688
 20
335.266471
 11
160.886712
 21
336.561882
  0
LINE
  5
1D8
100
AcDbEntity
  8
M1
  6
CONTINUOUS
370
25
 62
     7
100
AcDbLine
 10
148.39074
 20
334.752189
 11
148.075677
 21
339.266685
  0
LINE
  5
1D9
100
AcDbEntity
  8
M1
  6
CONTINUOUS
370
25
 62
     7
100
AcDbLine
 10
147.394769
 20
333.682365
 11
144.124749
 21
333.682365
  0
LINE
  5
1DA
100
AcDbEntity
  8
M1
  6
CONTINUOUS
370
25
 62
     7
100
AcDbLine
 10
142.167718
 20
335.266563
 11
141.892693
 21
336.561882
  0
LINE
  5
1DB
100
AcDbEntity
  8
M1
  6
CONTINUOUS
370
25
 62
     7
100
AcDbLine
 10
325.756072
 20
333.26168
 11
328.956084
 21
333.26168
  0
LINE
  5
1DC
100
AcDbEntity
  8
M1
  6
CONTINUOUS
370
25
 62
     7
100
AcDbLine
 10
483.331084
 20
289.955589
 11
447.255645
 21
290.857383
  0
LINE
  5
1DD
100
AcDbEntity
  8
M1
  6
CONTINUOUS
370
25
 62
     7
100
AcDbLine
 10
483.47708
 20
260.975181
 11
455.519256
 21
258.909782
  0
LINE
  5
1DE
100
AcDbEntity
  8
M1
  6
CONTINUOUS
370
25
 62
     7
100
AcDbLine
 10
447.169402
 20
239.942375
 11
483.324981
 21
240.772392
  0
LINE
  5
1DF
100
AcDbEntity
  8
M1
  6
CONTINUOUS
370
25
 62
     7
100
AcDbLine
 10
483.324187
 20
237.252189
 11
447.169585
 21
238.073692
  0
LINE
  5
1E0
100
AcDbEntity
  8
M1
  6
CONTINUOUS
370
25
 62
     7
100
AcDbLine
 10
455.58847
 20
231.734367
 11
483.45639
 21
233.599083
  0
LINE
  5
1E1
100
AcDbEntity
  8
M1
  6
CONTINUOUS
370
25
 62
     7
100
AcDbLine
 10
446.256072
 20
239.008079
 11
446.256072
 21
248.936973
  0
LINE
  5
1E2
100
AcDbEntity
  8
M1
  6
CONTINUOUS
370
25
 62
     7
100
AcDbLine
 10
446.925201
 20
194.594688
 11
483.305572
 21
193.994072
  0
LINE
  5
1E3
100
AcDbEntity
  8
M1
  6
CONTINUOUS
370
25
 62
     7
100
AcDbLine
 10
483.306853
 20
196.571983
 11
446.924773
 21
195.955192
  0
LINE
  5
1E4
100
AcDbEntity
  8
M1
  6
CONTINUOUS
370
25
 62
     7
100
AcDbLine
 10
446.564849
 20
168.558891
 11
486.256194
 21
168.87667
  0
LINE
  5
1E5
100
AcDbEntity
  8
M1
  6
CONTINUOUS
370
25
 62
     7
100
AcDbLine
 10
486.256194
 20
167.640678
 11
446.565154
 21
167.93618
  0
LINE
  5
1E6
100
AcDbEntity
  8
M1
  6
CONTINUOUS
370
25
 62
     7
100
AcDbLine
 10
451.256072
 20
162.400962
 11
485.256072
 21
162.400962
  0
LINE
  5
1E7
100
AcDbEntity
  8
M1
  6
CONTINUOUS
370
13
 62
     7
100
AcDbLine
 10
623.440171
 20
257.037773
 11
637.541184
 21
265.179069
  0
LINE
  5
1E8
100
AcDbEntity
  8
M1
  6
CONTINUOUS
370
13
 62
     7
100
AcDbLine
 10
624.1205
 20
326.33419
 11
637.365495
 21
318.687065
  0
LINE
  5
1E9
100
AcDbEntity
  8
M1
  6
CONTINUOUS
370
13
 62
     7
100
AcDbLine
 10
730.348481
 20
318.761375
 11
743.593492
 21
326.408378
  0
LINE
  5
1EA
100
AcDbEntity
  8
M1
  6
CONTINUOUS
370
13
 62
     7
100
AcDbLine
 10
729.75409
 20
265.34658
 11
743.692582
 21
257.299186
  0
LINE
  5
1EB
100
AcDbEntity
  8
M1
  6
CONTINUOUS
370
25
 62
     7
100
AcDbLine
 10
346.756072
 20
331.413078
 11
350.756072
 21
331.413078
  0
LINE
  5
1EC
100
AcDbEntity
  8
M1
  6
CONTINUOUS
370
25
 62
     7
100
AcDbLine
 10
322.756072
 20
170.582389
 11
322.756072
 21
183.182273
  0
LINE
  5
1ED
100
AcDbEntity
  8
M1
  6
CONTINUOUS
370
25
 62
     7
100
AcDbLine
 10
328.256072
 20
169.182365
 11
328.256072
 21
184.582389
  0
LINE
  5
1EE
100
AcDbEntity
  8
M1
  6
CONTINUOUS
370
25
 62
     7
100
AcDbLine
 10
328.256072
 20
184.582389
 11
330.256072
 21
184.582389
  0
LINE
  5
1EF
100
AcDbEntity
  8
M1
  6
CONTINUOUS
370
25
 62
     7
100
AcDbLine
 10
328.256072
 20
169.182365
 11
330.256072
 21
169.182365
  0
LINE
  5
1F0
100
AcDbEntity
  8
M1
  6
CONTINUOUS
370
25
 62
     7
100
AcDbLine
 10
323.448943
 20
172.882377
 11
328.256072
 21
172.882377
  0
LINE
  5
1F1
100
AcDbEntity
  8
M1
  6
CONTINUOUS
370
25
 62
     7
100
AcDbLine
 10
323.448943
 20
180.882377
 11
328.256072
 21
180.882377
  0
LINE
  5
1F2
100
AcDbEntity
  8
M1
  6
CONTINUOUS
370
25
 62
     7
100
AcDbLine
 10
323.448882
 20
184.382377
 11
328.256072
 21
184.382377
  0
LINE
  5
1F3
100
AcDbEntity
  8
M1
  6
CONTINUOUS
370
25
 62
     7
100
AcDbLine
 10
323.448943
 20
169.382377
 11
328.256072
 21
169.382377
  0
LINE
  5
1F4
100
AcDbEntity
  8
M1
  6
CONTINUOUS
370
25
 62
     7
100
AcDbLine
 10
322.755767
 20
170.582267
 11
323.448577
 21
169.382164
  0
LINE
  5
1F5
100
AcDbEntity
  8
M1
  6
CONTINUOUS
370
25
 62
     7
100
AcDbLine
 10
322.756255
 20
183.181968
 11
323.449187
 21
184.382072
  0
LINE
  5
1F6
100
AcDbEntity
  8
M1
  6
CONTINUOUS
370
25
 62
     7
100
AcDbLine
 10
327.756072
 20
241.882377
 11
327.756072
 21
291.882377
  0
LINE
  5
1F7
100
AcDbEntity
  8
M1
  6
CONTINUOUS
370
25
 62
     7
100
AcDbLine
 10
443.756072
 20
228.082389
 11
443.756072
 21
240.682273
  0
LINE
  5
1F8
100
AcDbEntity
  8
M1
  6
CONTINUOUS
370
25
 62
     7
100
AcDbLine
 10
438.256072
 20
226.682365
 11
438.256072
 21
242.082389
  0
LINE
  5
1F9
100
AcDbEntity
  8
M1
  6
CONTINUOUS
370
25
 62
     7
100
AcDbLine
 10
438.256072
 20
242.082389
 11
436.256072
 21
242.082389
  0
LINE
  5
1FA
100
AcDbEntity
  8
M1
  6
CONTINUOUS
370
25
 62
     7
100
AcDbLine
 10
438.256072
 20
226.682365
 11
436.256072
 21
226.682365
  0
LINE
  5
1FB
100
AcDbEntity
  8
M1
  6
CONTINUOUS
370
25
 62
     7
100
AcDbLine
 10
438.25595
 20
233.800987
 11
436.25595
 21
231.800987
  0
LINE
  5
1FC
100
AcDbEntity
  8
M1
  6
CONTINUOUS
370
25
 62
     7
100
AcDbLine
 10
438.255889
 20
236.629692
 11
436.255645
 21
234.629692
  0
LINE
  5
1FD
100
AcDbEntity
  8
M1
  6
CONTINUOUS
370
25
 62
     7
100
AcDbLine
 10
443.063201
 20
230.382377
 11
438.256072
 21
230.382377
  0
LINE
  5
1FE
100
AcDbEntity
  8
M1
  6
CONTINUOUS
370
25
 62
     7
100
AcDbLine
 10
443.063201
 20
238.382377
 11
438.256072
 21
238.382377
  0
LINE
  5
1FF
100
AcDbEntity
  8
M1
  6
CONTINUOUS
370
25
 62
     7
100
AcDbLine
 10
443.063262
 20
241.882377
 11
438.256072
 21
241.882377
  0
LINE
  5
200
100
AcDbEntity
  8
M1
  6
CONTINUOUS
370
25
 62
     7
100
AcDbLine
 10
443.063201
 20
226.882377
 11
438.256072
 21
226.882377
  0
LINE
  5
201
100
AcDbEntity
  8
M1
  6
CONTINUOUS
370
25
 62
     7
100
AcDbLine
 10
443.756499
 20
228.082389
 11
443.063689
 21
226.882286
  0
LINE
  5
202
100
AcDbEntity
  8
M1
  6
CONTINUOUS
370
25
 62
     7
100
AcDbLine
 10
443.755889
 20
240.681877
 11
443.062957
 21
241.882072
  0
LINE
  5
203
100
AcDbEntity
  8
M1
  6
CONTINUOUS
370
25
 62
     7
100
AcDbLine
 10
328.256072
 20
234.288963
 11
330.25595
 21
236.288871
  0
LINE
  5
204
100
AcDbEntity
  8
M1
  6
CONTINUOUS
370
25
 62
     7
100
AcDbLine
 10
328.25595
 20
232.167564
 11
330.25595
 21
234.167564
  0
LINE
  5
205
100
AcDbEntity
  8
M1
  6
CONTINUOUS
370
25
 62
     7
100
AcDbLine
 10
328.25595
 20
177.766471
 11
330.25595
 21
179.766471
  0
LINE
  5
206
100
AcDbEntity
  8
M1
  6
CONTINUOUS
370
25
 62
     7
100
AcDbLine
 10
328.256072
 20
175.645164
 11
330.25595
 21
177.645164
  0
LINE
  5
207
100
AcDbEntity
  8
M1
  6
CONTINUOUS
370
25
 62
     7
100
AcDbLine
 10
436.256072
 20
407.611595
 11
438.256072
 21
409.611595
  0
LINE
  5
208
100
AcDbEntity
  8
M1
  6
CONTINUOUS
370
25
 62
     7
100
AcDbLine
 10
436.256072
 20
404.783165
 11
438.256072
 21
406.783165
  0
LINE
  5
209
100
AcDbEntity
  8
M1
  6
CONTINUOUS
370
13
 62
     7
100
AcDbLine
 10
151.389764
 20
304.026573
 11
151.389764
 21
278.840782
  0
LINE
  5
20A
100
AcDbEntity
  8
M1
  6
CONTINUOUS
370
13
 62
     7
100
AcDbLine
 10
151.389764
 20
230.111686
 11
151.389764
 21
214.781272
  0
LINE
  5
20B
100
AcDbEntity
  8
M1
  6
CONTINUOUS
370
13
 62
     7
100
AcDbLine
 10
503.963958
 20
291.882377
 11
525.579558
 21
291.882377
  0
LINE
  5
20C
100
AcDbEntity
  8
M1
  6
CONTINUOUS
370
13
 62
     7
100
AcDbLine
 10
683.79268
 20
305.66909
 11
683.79268
 21
278.840782
  0
LINE
  5
20D
100
AcDbEntity
  8
M1
  6
CONTINUOUS
370
13
 62
     7
100
AcDbLine
 10
683.79268
 20
241.062065
 11
683.79268
 21
224.636589
  0
LINE
  5
20E
100
AcDbEntity
  8
M1
  6
CONTINUOUS
370
25
 62
     7
100
AcDbLine
 10
507.256072
 20
320.882377
 11
507.256072
 21
291.882377
  0
ARC
  5
20F
100
AcDbEntity
  8
M1
  6
CONTINUOUS
370
25
 62
     7
100
AcDbCircle
 10
384.256072
 20
314.382377
 40
0.5
100
AcDbArc
 50
90.0
 51
180.0
  0
ARC
  5
210
100
AcDbEntity
  8
M1
  6
CONTINUOUS
370
25
 62
     7
100
AcDbCircle
 10
446.756072
 20
314.382377
 40
0.5
100
AcDbArc
 50
0.0
 51
90.0
  0
ARC
  5
211
100
AcDbEntity
  8
M1
  6
CONTINUOUS
370
25
 62
     7
100
AcDbCircle
 10
384.756072
 20
321.882377
 40
1.0
100
AcDbArc
 50
180.0
 51
270.0
  0
ARC
  5
212
100
AcDbEntity
  8
M1
  6
CONTINUOUS
370
25
 62
     7
100
AcDbCircle
 10
391.756072
 20
321.882377
 40
1.0
100
AcDbArc
 50
270.0
 51
360.0
  0
ARC
  5
213
100
AcDbEntity
  8
M1
  6
CONTINUOUS
370
25
 62
     7
100
AcDbCircle
 10
349.856048
 20
322.882377
 40
1.0
100
AcDbArc
 50
270.0
 51
360.0
  0
ARC
  5
214
100
AcDbEntity
  8
M1
  6
CONTINUOUS
370
25
 62
     7
100
AcDbCircle
 10
476.756072
 20
338.882377
 40
2.0
100
AcDbArc
 50
270.0
 51
360.0
  0
ARC
  5
215
100
AcDbEntity
  8
M1
  6
CONTINUOUS
370
25
 62
     7
100
AcDbCircle
 10
480.756072
 20
341.554374
 40
2.000023
100
AcDbArc
 50
112.833656
 51
180.0
  0
ARC
  5
216
100
AcDbEntity
  8
M1
  6
CONTINUOUS
370
25
 62
     7
100
AcDbCircle
 10
486.256072
 20
348.210289
 40
1.999939
100
AcDbArc
 50
292.834686
 51
360.000015
  0
ARC
  5
217
100
AcDbEntity
  8
M1
  6
CONTINUOUS
370
25
 62
     7
100
AcDbCircle
 10
490.956084
 20
362.182365
 40
0.299988
100
AcDbArc
 50
270.0
 51
360.0
  0
ARC
  5
218
100
AcDbEntity
  8
M1
  6
CONTINUOUS
370
25
 62
     7
100
AcDbCircle
 10
490.256072
 20
338.382377
 40
1.0
100
AcDbArc
 50
90.0
 51
180.0
  0
CIRCLE
  5
219
100
AcDbEntity
  8
M1
  6
CONTINUOUS
370
25
 62
     7
100
AcDbCircle
 10
498.256072
 20
330.632377
 40
4.5
  0
ARC
  5
21A
100
AcDbEntity
  8
M1
  6
CONTINUOUS
370
25
 62
     7
100
AcDbCircle
 10
505.256072
 20
337.382377
 40
2.0
100
AcDbArc
 50
0.0
 51
90.0
  0
ARC
  5
21B
100
AcDbEntity
  8
M1
  6
CONTINUOUS
370
25
 62
     7
100
AcDbCircle
 10
491.256072
 20
323.882377
 40
2.0
100
AcDbArc
 50
180.0
 51
270.0
  0
ARC
  5
21C
100
AcDbEntity
  8
M1
  6
CONTINUOUS
370
25
 62
     7
100
AcDbCircle
 10
505.256072
 20
323.882377
 40
2.0
100
AcDbArc
 50
270.0
 51
360.0
  0
ARC
  5
21D
100
AcDbEntity
  8
M1
  6
CONTINUOUS
370
25
 62
     7
100
AcDbCircle
 10
451.256072
 20
416.882408
 40
5.0
100
AcDbArc
 50
90.0
 51
180.0
  0
ARC
  5
21E
100
AcDbEntity
  8
M1
  6
CONTINUOUS
370
25
 62
     7
100
AcDbCircle
 10
456.256072
 20
385.710166
 40
10.0
100
AcDbArc
 50
180.0
 51
262.874596
  0
ARC
  5
21F
100
AcDbEntity
  8
M1
  6
CONTINUOUS
370
25
 62
     7
100
AcDbCircle
 10
485.256072
 20
422.882408
 40
1.0
100
AcDbArc
 50
270.0
 51
360.0
  0
ARC
  5
220
100
AcDbEntity
  8
M1
  6
CONTINUOUS
370
25
 62
     7
100
AcDbCircle
 10
340.256072
 20
392.382408
 40
2.0
100
AcDbArc
 50
90.0
 51
180.0
  0
ARC
  5
221
100
AcDbEntity
  8
M1
  6
CONTINUOUS
370
25
 62
     7
100
AcDbCircle
 10
328.756072
 20
373.382408
 40
1.5
100
AcDbArc
 50
270.0
 51
360.0
  0
ARC
  5
222
100
AcDbEntity
  8
M1
  6
CONTINUOUS
370
25
 62
     7
100
AcDbCircle
 10
345.756072
 20
338.382377
 40
1.0
100
AcDbArc
 50
0.0
 51
90.0
  0
ARC
  5
223
100
AcDbEntity
  8
M1
  6
CONTINUOUS
370
25
 62
     7
100
AcDbCircle
 10
346.756072
 20
347.382377
 40
2.0
100
AcDbArc
 50
0.0
 51
90.0
  0
ARC
  5
224
100
AcDbEntity
  8
M1
  6
CONTINUOUS
370
25
 62
     7
100
AcDbCircle
 10
340.256072
 20
351.382377
 40
2.0
100
AcDbArc
 50
180.0
 51
270.0
  0
ARC
  5
225
100
AcDbEntity
  8
M1
  6
CONTINUOUS
370
25
 62
     7
100
AcDbCircle
 10
330.956084
 20
337.382377
 40
2.0
100
AcDbArc
 50
90.0
 51
180.0
  0
ARC
  5
226
100
AcDbEntity
  8
M1
  6
CONTINUOUS
370
25
 62
     7
100
AcDbCircle
 10
330.956084
 20
323.882377
 40
2.0
100
AcDbArc
 50
180.0
 51
270.0
  0
ARC
  5
227
100
AcDbEntity
  8
M1
  6
CONTINUOUS
370
25
 62
     7
100
AcDbCircle
 10
344.756072
 20
323.882377
 40
2.0
100
AcDbArc
 50
270.0
 51
360.0
  0
ARC
  5
228
100
AcDbEntity
  8
M1
  6
CONTINUOUS
370
25
 62
     7
100
AcDbCircle
 10
344.756072
 20
337.382377
 40
2.0
100
AcDbArc
 50
0.0
 51
90.0
  0
CIRCLE
  5
229
100
AcDbEntity
  8
M1
  6
CONTINUOUS
370
25
 62
     7
100
AcDbCircle
 10
337.856048
 20
330.632377
 40
4.5
  0
ARC
  5
22A
100
AcDbEntity
  8
M1
  6
CONTINUOUS
370
25
 62
     7
100
AcDbCircle
 10
412.400054
 20
452.507408
 40
11.199646
100
AcDbArc
 50
0.0
 51
59.998222
  0
ARC
  5
22B
100
AcDbEntity
  8
M1
  6
CONTINUOUS
370
25
 62
     7
100
AcDbCircle
 10
437.601043
 20
452.507408
 40
14.00059
100
AcDbArc
 50
120.000908
 51
179.999996
  0
ARC
  5
22C
100
AcDbEntity
  8
M1
  6
CONTINUOUS
370
25
 62
     7
100
AcDbCircle
 10
412.400054
 20
452.507408
 40
13.999665
100
AcDbArc
 50
25.839909
 51
59.998943
  0
ARC
  5
22D
100
AcDbEntity
  8
M1
  6
CONTINUOUS
370
25
 62
     7
100
AcDbCircle
 10
421.650054
 20
427.49636
 40
1.97998
100
AcDbArc
 50
270.0
 51
360.0
  0
ARC
  5
22E
100
AcDbEntity
  8
M1
  6
CONTINUOUS
370
25
 62
     7
100
AcDbCircle
 10
422.574065
 20
426.572349
 40
3.827942
100
AcDbArc
 50
270.0
 51
360.0
  0
ARC
  5
22F
100
AcDbEntity
  8
M1
  6
CONTINUOUS
370
25
 62
     7
100
AcDbCircle
 10
437.601043
 20
452.507408
 40
11.200891
100
AcDbArc
 50
120.006241
 51
180.000004
  0
ARC
  5
230
100
AcDbEntity
  8
M1
  6
CONTINUOUS
370
25
 62
     7
100
AcDbCircle
 10
403.256072
 20
336.382377
 40
0.5
100
AcDbArc
 50
90.0
 51
180.0
  0
ARC
  5
231
100
AcDbEntity
  8
M1
  6
CONTINUOUS
370
25
 62
     7
100
AcDbCircle
 10
403.09616
 20
367.441856
 40
4.000004
100
AcDbArc
 50
225.001236
 51
318.151009
  0
ARC
  5
232
100
AcDbEntity
  8
M1
  6
CONTINUOUS
370
25
 62
     7
100
AcDbCircle
 10
397.877349
 20
365.589469
 40
1.000044
100
AcDbArc
 50
44.998764
 51
134.998764
  0
ARC
  5
233
100
AcDbEntity
  8
M1
  6
CONTINUOUS
370
25
 62
     7
100
AcDbCircle
 10
397.170257
 20
364.882377
 40
0.999979
100
AcDbArc
 50
135.0
 51
225.0
  0
ARC
  5
234
100
AcDbEntity
  8
M1
  6
CONTINUOUS
370
25
 62
     7
100
AcDbCircle
 10
397.756072
 20
358.639671
 40
3.0
100
AcDbArc
 50
0.0
 51
45.000412
  0
ARC
  5
235
100
AcDbEntity
  8
M1
  6
CONTINUOUS
370
25
 62
     7
100
AcDbCircle
 10
418.256072
 20
346.906089
 40
7.999982
100
AcDbArc
 50
139.185532
 51
180.0
  0
ARC
  5
236
100
AcDbEntity
  8
M1
  6
CONTINUOUS
370
25
 62
     7
100
AcDbCircle
 10
349.256072
 20
348.642784
 40
8.0
100
AcDbArc
 50
0.0
 51
44.090904
  0
ARC
  5
237
100
AcDbEntity
  8
M1
  6
CONTINUOUS
370
25
 62
     7
100
AcDbCircle
 10
364.647369
 20
367.673057
 40
3.999959
100
AcDbArc
 50
225.178345
 51
314.999374
  0
ARC
  5
238
100
AcDbEntity
  8
M1
  6
CONTINUOUS
370
25
 62
     7
100
AcDbCircle
 10
368.256072
 20
357.139671
 40
2.99996
100
AcDbArc
 50
134.999588
 51
180.0
  0
ARC
  5
239
100
AcDbEntity
  8
M1
  6
CONTINUOUS
370
25
 62
     7
100
AcDbCircle
 10
369.634795
 20
365.589469
 40
1.000001
100
AcDbArc
 50
45.001236
 51
135.001236
  0
ARC
  5
23A
100
AcDbEntity
  8
M1
  6
CONTINUOUS
370
25
 62
     7
100
AcDbCircle
 10
370.341888
 20
364.882377
 40
1.000066
100
AcDbArc
 50
314.995056
 51
405.0
  0
ARC
  5
23B
100
AcDbEntity
  8
M1
  6
CONTINUOUS
370
25
 62
     7
100
AcDbCircle
 10
446.256072
 20
379.985374
 40
10.0
100
AcDbArc
 50
180.0
 51
264.623428
  0
ARC
  5
23C
100
AcDbEntity
  8
M1
  6
CONTINUOUS
370
25
 62
     7
100
AcDbCircle
 10
448.756072
 20
360.882377
 40
1.0
100
AcDbArc
 50
0.0
 51
90.0
  0
ARC
  5
23D
100
AcDbEntity
  8
M1
  6
CONTINUOUS
370
25
 62
     7
100
AcDbCircle
 10
455.756072
 20
360.882377
 40
1.0
100
AcDbArc
 50
90.0
 51
180.0
  0
ARC
  5
23E
100
AcDbEntity
  8
M1
  6
CONTINUOUS
370
25
 62
     7
100
AcDbCircle
 10
425.256072
 20
391.382408
 40
3.0
100
AcDbArc
 50
0.0
 51
90.0
  0
ARC
  5
23F
100
AcDbEntity
  8
M1
  6
CONTINUOUS
370
25
 62
     7
100
AcDbCircle
 10
428.456084
 20
339.382377
 40
2.5
100
AcDbArc
 50
180.0
 51
270.0
  0
ARC
  5
240
100
AcDbEntity
  8
M1
  6
CONTINUOUS
370
25
 62
     7
100
AcDbCircle
 10
447.256072
 20
339.382377
 40
2.5
100
AcDbArc
 50
270.0
 51
360.0
  0
ARC
  5
241
100
AcDbEntity
  8
M1
  6
CONTINUOUS
370
25
 62
     7
100
AcDbCircle
 10
457.256072
 20
339.382377
 40
2.5
100
AcDbArc
 50
180.0
 51
270.0
  0
ARC
  5
242
100
AcDbEntity
  8
M1
  6
CONTINUOUS
370
25
 62
     7
100
AcDbCircle
 10
476.256072
 20
339.382377
 40
2.5
100
AcDbArc
 50
270.0
 51
360.0
  0
ARC
  5
243
100
AcDbEntity
  8
M1
  6
CONTINUOUS
370
25
 62
     7
100
AcDbCircle
 10
476.256072
 20
359.382377
 40
2.5
100
AcDbArc
 50
0.0
 51
90.0
  0
ARC
  5
244
100
AcDbEntity
  8
M1
  6
CONTINUOUS
370
25
 62
     7
100
AcDbCircle
 10
457.256072
 20
359.382377
 40
2.5
100
AcDbArc
 50
90.0
 51
180.0
  0
ARC
  5
245
100
AcDbEntity
  8
M1
  6
CONTINUOUS
370
25
 62
     7
100
AcDbCircle
 10
447.256072
 20
359.382377
 40
2.5
100
AcDbArc
 50
0.0
 51
90.0
  0
ARC
  5
246
100
AcDbEntity
  8
M1
  6
CONTINUOUS
370
25
 62
     7
100
AcDbCircle
 10
428.456084
 20
359.382377
 40
2.5
100
AcDbArc
 50
90.0
 51
180.0
  0
CIRCLE
  5
247
100
AcDbEntity
  8
M1
  6
CONTINUOUS
370
25
 62
     7
100
AcDbCircle
 10
437.856048
 20
349.382377
 40
6.0
  0
CIRCLE
  5
248
100
AcDbEntity
  8
M1
  6
CONTINUOUS
370
25
 62
     7
100
AcDbCircle
 10
466.756072
 20
349.382377
 40
6.0
  0
ARC
  5
249
100
AcDbEntity
  8
M1
  6
CONTINUOUS
370
25
 62
     7
100
AcDbCircle
 10
326.755767
 20
413.132896
 40
4.0
100
AcDbArc
 50
179.292709
 51
214.2616
  0
ARC
  5
24A
100
AcDbEntity
  8
M1
  6
CONTINUOUS
370
25
 62
     7
100
AcDbCircle
 10
326.755767
 20
400.631797
 40
4.00004
100
AcDbArc
 50
145.737686
 51
180.708176
  0
ARC
  5
24B
100
AcDbEntity
  8
M1
  6
CONTINUOUS
370
25
 62
     7
100
AcDbCircle
 10
439.756377
 20
413.132896
 40
4.000006
100
AcDbArc
 50
325.738403
 51
360.707294
  0
ARC
  5
24C
100
AcDbEntity
  8
M1
  6
CONTINUOUS
370
25
 62
     7
100
AcDbCircle
 10
439.756377
 20
400.631797
 40
4.0
100
AcDbArc
 50
359.29184
 51
394.262329
  0
ARC
  5
24D
100
AcDbEntity
  8
M1
  6
CONTINUOUS
370
25
 62
     7
100
AcDbCircle
 10
482.755767
 20
383.132896
 40
4.0
100
AcDbArc
 50
179.292709
 51
214.2616
  0
ARC
  5
24E
100
AcDbEntity
  8
M1
  6
CONTINUOUS
370
25
 62
     7
100
AcDbCircle
 10
482.755767
 20
370.631797
 40
4.00004
100
AcDbArc
 50
145.737686
 51
180.708176
  0
ARC
  5
24F
100
AcDbEntity
  8
M1
  6
CONTINUOUS
370
25
 62
     7
100
AcDbCircle
 10
328.756072
 20
210.382377
 40
1.5
100
AcDbArc
 50
0.0
 51
90.0
  0
ARC
  5
250
100
AcDbEntity
  8
M1
  6
CONTINUOUS
370
25
 62
     7
100
AcDbCircle
 10
446.256072
 20
203.779289
 40
9.99999
100
AcDbArc
 50
95.376572
 51
180.0
  0
ARC
  5
251
100
AcDbEntity
  8
M1
  6
CONTINUOUS
370
25
 62
     7
100
AcDbCircle
 10
326.755767
 20
228.131767
 40
4.000074
100
AcDbArc
 50
145.736954
 51
180.707291
  0
ARC
  5
252
100
AcDbEntity
  8
M1
  6
CONTINUOUS
370
25
 62
     7
100
AcDbCircle
 10
326.755767
 20
240.632865
 40
4.0
100
AcDbArc
 50
179.292267
 51
214.261597
  0
ARC
  5
253
100
AcDbEntity
  8
M1
  6
CONTINUOUS
370
25
 62
     7
100
AcDbCircle
 10
439.756377
 20
170.631767
 40
4.0
100
AcDbArc
 50
359.292694
 51
394.263031
  0
ARC
  5
254
100
AcDbEntity
  8
M1
  6
CONTINUOUS
370
25
 62
     7
100
AcDbCircle
 10
439.756377
 20
183.132865
 40
4.000006
100
AcDbArc
 50
325.738403
 51
360.707733
  0
ARC
  5
255
100
AcDbEntity
  8
M1
  6
CONTINUOUS
370
25
 62
     7
100
AcDbCircle
 10
151.389764
 20
291.882377
 40
22.499964
100
AcDbArc
 50
105.466034
 51
434.533966
  0
CIRCLE
  5
256
100
AcDbEntity
  8
M1
  6
CONTINUOUS
370
25
 62
     7
100
AcDbCircle
 10
151.389764
 20
291.882377
 40
144.999756
  0
CIRCLE
  5
257
100
AcDbEntity
  8
M1
  6
CONTINUOUS
370
25
 62
     7
100
AcDbCircle
 10
151.389764
 20
291.882377
 40
127.999756
  0
CIRCLE
  5
258
100
AcDbEntity
  8
M1
  6
CONTINUOUS
370
25
 62
     7
100
AcDbCircle
 10
250.982415
 20
349.382286
 40
6.5
  0
CIRCLE
  5
259
100
AcDbEntity
  8
M1
  6
CONTINUOUS
370
25
 62
     7
100
AcDbCircle
 10
151.389764
 20
406.882408
 40
6.5
  0
CIRCLE
  5
25A
100
AcDbEntity
  8
M1
  6
CONTINUOUS
370
25
 62
     7
100
AcDbCircle
 10
51.796746
 20
349.382377
 40
6.5
  0
CIRCLE
  5
25B
100
AcDbEntity
  8
M1
  6
CONTINUOUS
370
25
 62
     7
100
AcDbCircle
 10
51.796746
 20
349.382377
 40
6.5
  0
CIRCLE
  5
25C
100
AcDbEntity
  8
M1
  6
CONTINUOUS
370
25
 62
     7
100
AcDbCircle
 10
51.796746
 20
349.382377
 40
6.5
  0
CIRCLE
  5
25D
100
AcDbEntity
  8
M1
  6
CONTINUOUS
370
25
 62
     7
100
AcDbCircle
 10
51.796746
 20
234.382377
 40
6.5
  0
CIRCLE
  5
25E
100
AcDbEntity
  8
M1
  6
CONTINUOUS
370
25
 62
     7
100
AcDbCircle
 10
151.389764
 20
176.882377
 40
6.5
  0
CIRCLE
  5
25F
100
AcDbEntity
  8
M1
  6
CONTINUOUS
370
25
 62
     7
100
AcDbCircle
 10
250.982415
 20
234.382377
 40
6.5
  0
CIRCLE
  5
260
100
AcDbEntity
  8
M1
  6
CONTINUOUS
370
25
 62
     7
100
AcDbCircle
 10
151.389764
 20
291.882377
 40
54.999756
  0
CIRCLE
  5
261
100
AcDbEntity
  8
M1
  6
CONTINUOUS
370
25
 62
     7
100
AcDbCircle
 10
151.389764
 20
291.882377
 40
47.499756
  0
CIRCLE
  5
262
100
AcDbEntity
  8
M1
  6
CONTINUOUS
370
25
 62
     7
100
AcDbCircle
 10
151.389764
 20
291.882377
 40
30.0
  0
ARC
  5
263
100
AcDbEntity
  8
M1
  6
CONTINUOUS
370
25
 62
     7
100
AcDbCircle
 10
683.79268
 20
291.882377
 40
22.499964
100
AcDbArc
 50
105.466034
 51
434.533966
  0
ARC
  5
264
100
AcDbEntity
  8
M1
  6
CONTINUOUS
370
25
 62
     7
100
AcDbCircle
 10
683.79268
 20
291.882377
 40
144.999908
100
AcDbArc
 50
61.106049
 51
418.893219
  0
CIRCLE
  5
265
100
AcDbEntity
  8
M1
  6
CONTINUOUS
370
25
 62
     7
100
AcDbCircle
 10
683.79268
 20
291.882377
 40
131.0
  0
CIRCLE
  5
266
100
AcDbEntity
  8
M1
  6
CONTINUOUS
370
25
 62
     7
100
AcDbCircle
 10
683.79268
 20
291.882377
 40
95.0
  0
CIRCLE
  5
267
100
AcDbEntity
  8
M1
  6
CONTINUOUS
370
25
 62
     7
100
AcDbCircle
 10
683.79268
 20
291.882377
 40
52.5
  0
CIRCLE
  5
268
100
AcDbEntity
  8
M1
  6
CONTINUOUS
370
25
 62
     7
100
AcDbCircle
 10
683.79268
 20
291.882377
 40
47.5
  0
CIRCLE
  5
269
100
AcDbEntity
  8
M1
  6
CONTINUOUS
370
25
 62
     7
100
AcDbCircle
 10
683.79268
 20
291.882377
 40
30.0
  0
ARC
  5
26A
100
AcDbEntity
  8
M1
  6
CONTINUOUS
370
13
 62
     7
100
AcDbCircle
 10
683.79268
 20
291.882377
 40
59.999977
100
AcDbArc
 50
22.074093
 51
37.636608
  0
CIRCLE
  5
26B
100
AcDbEntity
  8
M1
  6
CONTINUOUS
370
25
 62
     7
100
AcDbCircle
 10
735.754182
 20
321.882377
 40
4.184998
  0
CIRCLE
  5
26C
100
AcDbEntity
  8
M1
  6
CONTINUOUS
370
13
 62
     7
100
AcDbCircle
 10
735.754182
 20
321.882377
 40
5.0
  0
CIRCLE
  5
26D
100
AcDbEntity
  8
M1
  6
CONTINUOUS
370
13
 62
     7
100
AcDbCircle
 10
683.79268
 20
351.882377
 40
5.0
  0
CIRCLE
  5
26E
100
AcDbEntity
  8
M1
  6
CONTINUOUS
370
25
 62
     7
100
AcDbCircle
 10
683.79268
 20
351.882377
 40
4.184998
  0
ARC
  5
26F
100
AcDbEntity
  8
M1
  6
CONTINUOUS
370
13
 62
     7
100
AcDbCircle
 10
683.79268
 20
291.882377
 40
59.999962
100
AcDbArc
 50
82.074043
 51
97.636621
  0
CIRCLE
  5
270
100
AcDbEntity
  8
M1
  6
CONTINUOUS
370
13
 62
     7
100
AcDbCircle
 10
631.831193
 20
321.882377
 40
5.0
  0
CIRCLE
  5
271
100
AcDbEntity
  8
M1
  6
CONTINUOUS
370
25
 62
     7
100
AcDbCircle
 10
631.831193
 20
321.882377
 40
4.184998
  0
ARC
  5
272
100
AcDbEntity
  8
M1
  6
CONTINUOUS
370
13
 62
     7
100
AcDbCircle
 10
683.79268
 20
291.882377
 40
60.000015
100
AcDbArc
 50
142.074112
 51
157.636683
  0
CIRCLE
  5
273
100
AcDbEntity
  8
M1
  6
CONTINUOUS
370
13
 62
     7
100
AcDbCircle
 10
631.831193
 20
261.882377
 40
5.0
  0
CIRCLE
  5
274
100
AcDbEntity
  8
M1
  6
CONTINUOUS
370
25
 62
     7
100
AcDbCircle
 10
631.831193
 20
261.882377
 40
4.184998
  0
ARC
  5
275
100
AcDbEntity
  8
M1
  6
CONTINUOUS
370
13
 62
     7
100
AcDbCircle
 10
683.79268
 20
291.882377
 40
60.000011
100
AcDbArc
 50
202.074173
 51
217.636747
  0
CIRCLE
  5
276
100
AcDbEntity
  8
M1
  6
CONTINUOUS
370
13
 62
     7
100
AcDbCircle
 10
683.79268
 20
231.882377
 40
5.0
  0
CIRCLE
  5
277
100
AcDbEntity
  8
M1
  6
CONTINUOUS
370
25
 62
     7
100
AcDbCircle
 10
683.79268
 20
231.882377
 40
4.184998
  0
ARC
  5
278
100
AcDbEntity
  8
M1
  6
CONTINUOUS
370
13
 62
     7
100
AcDbCircle
 10
683.79268
 20
291.882377
 40
60.000069
100
AcDbArc
 50
262.074158
 51
277.636737
  0
CIRCLE
  5
279
100
AcDbEntity
  8
M1
  6
CONTINUOUS
370
13
 62
     7
100
AcDbCircle
 10
735.754182
 20
261.882377
 40
5.0
  0
CIRCLE
  5
27A
100
AcDbEntity
  8
M1
  6
CONTINUOUS
370
25
 62
     7
100
AcDbCircle
 10
735.754182
 20
261.882377
 40
4.184998
  0
ARC
  5
27B
100
AcDbEntity
  8
M1
  6
CONTINUOUS
370
13
 62
     7
100
AcDbCircle
 10
683.79268
 20
291.882377
 40
60.000015
100
AcDbArc
 50
322.074127
 51
337.636622
  0
ARC
  5
27C
100
AcDbEntity
  8
M1
  6
CONTINUOUS
370
25
 62
     7
100
AcDbCircle
 10
762.976792
 20
457.032371
 40
11.199559
100
AcDbArc
 50
329.99884
 51
390.001427
  0
ARC
  5
27D
100
AcDbEntity
  8
M1
  6
CONTINUOUS
370
25
 62
     7
100
AcDbCircle
 10
762.976792
 20
457.032371
 40
13.999686
100
AcDbArc
 50
329.999268
 51
390.000751
  0
ARC
  5
27E
100
AcDbEntity
  8
M1
  6
CONTINUOUS
370
25
 62
     7
100
AcDbCircle
 10
787.225785
 20
443.032371
 40
11.200012
100
AcDbArc
 50
90.0
 51
150.001217
  0
ARC
  5
27F
100
AcDbEntity
  8
M1
  6
CONTINUOUS
370
25
 62
     7
100
AcDbCircle
 10
787.225785
 20
443.032371
 40
14.0
100
AcDbArc
 50
90.00412
 51
150.001369
  0
ARC
  5
280
100
AcDbEntity
  8
M1
  6
CONTINUOUS
370
25
 62
     7
100
AcDbCircle
 10
72.205682
 20
457.032371
 40
11.199576
100
AcDbArc
 50
149.998535
 51
210.001198
  0
ARC
  5
281
100
AcDbEntity
  8
M1
  6
CONTINUOUS
370
25
 62
     7
100
AcDbCircle
 10
72.205682
 20
457.032371
 40
13.999606
100
AcDbArc
 50
149.999069
 51
210.000927
  0
ARC
  5
282
100
AcDbEntity
  8
M1
  6
CONTINUOUS
370
25
 62
     7
100
AcDbCircle
 10
47.95678
 20
443.032371
 40
11.199454
100
AcDbArc
 50
30.000385
 51
90.0
  0
ARC
  5
283
100
AcDbEntity
  8
M1
  6
CONTINUOUS
370
25
 62
     7
100
AcDbCircle
 10
47.95678
 20
443.032371
 40
13.999454
100
AcDbArc
 50
29.999847
 51
90.0
  0
ARC
  5
284
100
AcDbEntity
  8
M1
  6
CONTINUOUS
370
13
 62
     7
100
AcDbCircle
 10
151.389764
 20
291.882377
 40
69.999817
100
AcDbArc
 50
23.554834
 51
35.772532
  0
CIRCLE
  5
285
100
AcDbEntity
  8
M1
  6
CONTINUOUS
370
13
 62
     7
100
AcDbCircle
 10
212.011346
 20
326.882377
 40
4.0
  0
CIRCLE
  5
286
100
AcDbEntity
  8
M1
  6
CONTINUOUS
370
25
 62
     7
100
AcDbCircle
 10
212.011346
 20
326.882377
 40
3.325012
  0
ARC
  5
287
100
AcDbEntity
  8
M1
  6
CONTINUOUS
370
25
 62
     7
100
AcDbCircle
 10
212.011346
 20
326.882377
 40
10.000038
100
AcDbArc
 50
308.037567
 51
471.962448
  0
ARC
  5
288
100
AcDbEntity
  8
M1
  6
CONTINUOUS
370
25
 62
     7
100
AcDbCircle
 10
151.389764
 20
291.882377
 40
102.499733
100
AcDbArc
 50
340.98053
 51
379.01944
  0
ARC
  5
289
100
AcDbEntity
  8
M1
  6
CONTINUOUS
370
25
 62
     7
100
AcDbCircle
 10
151.389764
 20
291.882377
 40
66.674774
100
AcDbArc
 50
343.808411
 51
376.191616
  0
ARC
  5
28A
100
AcDbEntity
  8
M1
  6
CONTINUOUS
370
25
 62
     7
100
AcDbCircle
 10
240.730523
 20
322.678764
 40
8.000059
100
AcDbArc
 50
19.020027
 51
119.999931
  0
ARC
  5
28B
100
AcDbEntity
  8
M1
  6
CONTINUOUS
370
25
 62
     7
100
AcDbCircle
 10
240.730523
 20
261.085868
 40
7.99999
100
AcDbArc
 50
239.999954
 51
340.980797
  0
ARC
  5
28C
100
AcDbEntity
  8
M1
  6
CONTINUOUS
370
25
 62
     7
100
AcDbCircle
 10
151.389764
 20
361.882377
 40
10.000205
100
AcDbArc
 50
8.037226
 51
171.962778
  0
CIRCLE
  5
28D
100
AcDbEntity
  8
M1
  6
CONTINUOUS
370
13
 62
     7
100
AcDbCircle
 10
151.389764
 20
361.882377
 40
4.0
  0
CIRCLE
  5
28E
100
AcDbEntity
  8
M1
  6
CONTINUOUS
370
25
 62
     7
100
AcDbCircle
 10
151.389764
 20
361.882377
 40
3.324951
  0
ARC
  5
28F
100
AcDbEntity
  8
M1
  6
CONTINUOUS
370
13
 62
     7
100
AcDbCircle
 10
151.389764
 20
291.882377
 40
69.999924
100
AcDbArc
 50
83.555428
 51
95.772915
  0
ARC
  5
290
100
AcDbEntity
  8
M1
  6
CONTINUOUS
370
25
 62
     7
100
AcDbCircle
 10
169.389764
 20
384.652183
 40
8.000004
100
AcDbArc
 50
79.018585
 51
180.0
  0
ARC
  5
291
100
AcDbEntity
  8
M1
  6
CONTINUOUS
370
25
 62
     7
100
AcDbCircle
 10
151.389764
 20
291.882377
 40
102.499771
100
AcDbArc
 50
40.980663
 51
79.01936
  0
ARC
  5
292
100
AcDbEntity
  8
M1
  6
CONTINUOUS
370
25
 62
     7
100
AcDbCircle
 10
222.730523
 20
353.855766
 40
7.99999
100
AcDbArc
 50
300.000031
 51
400.980263
  0
ARC
  5
293
100
AcDbEntity
  8
M1
  6
CONTINUOUS
370
25
 62
     7
100
AcDbCircle
 10
151.389764
 20
291.882377
 40
66.674767
100
AcDbArc
 50
43.808594
 51
76.192211
  0
ARC
  5
294
100
AcDbEntity
  8
M1
  6
CONTINUOUS
370
25
 62
     7
100
AcDbCircle
 10
90.767693
 20
326.882377
 40
10.000001
100
AcDbArc
 50
68.037544
 51
231.961601
  0
CIRCLE
  5
295
100
AcDbEntity
  8
M1
  6
CONTINUOUS
370
13
 62
     7
100
AcDbCircle
 10
90.767693
 20
326.882377
 40
4.0
  0
CIRCLE
  5
296
100
AcDbEntity
  8
M1
  6
CONTINUOUS
370
25
 62
     7
100
AcDbCircle
 10
90.767693
 20
326.882377
 40
3.325073
  0
ARC
  5
297
100
AcDbEntity
  8
M1
  6
CONTINUOUS
370
13
 62
     7
100
AcDbCircle
 10
151.389764
 20
291.882377
 40
70.000198
100
AcDbArc
 50
143.554962
 51
155.772605
  0
ARC
  5
298
100
AcDbEntity
  8
M1
  6
CONTINUOUS
370
25
 62
     7
100
AcDbCircle
 10
80.048699
 20
353.855766
 40
8.000331
100
AcDbArc
 50
139.021729
 51
239.999954
  0
ARC
  5
299
100
AcDbEntity
  8
M1
  6
CONTINUOUS
370
25
 62
     7
100
AcDbCircle
 10
151.389764
 20
291.882377
 40
102.500015
100
AcDbArc
 50
100.980713
 51
139.019608
  0
ARC
  5
29A
100
AcDbEntity
  8
M1
  6
CONTINUOUS
370
25
 62
     7
100
AcDbCircle
 10
133.389764
 20
384.652305
 40
8.0
100
AcDbArc
 50
0.0
 51
100.982361
  0
ARC
  5
29B
100
AcDbEntity
  8
M1
  6
CONTINUOUS
370
25
 62
     7
100
AcDbCircle
 10
151.389764
 20
291.882377
 40
66.675026
100
AcDbArc
 50
103.808708
 51
136.051968
  0
CIRCLE
  5
29C
100
AcDbEntity
  8
M1
  6
CONTINUOUS
370
13
 62
     7
100
AcDbCircle
 10
90.767693
 20
326.882377
 40
4.0
  0
CIRCLE
  5
29D
100
AcDbEntity
  8
M1
  6
CONTINUOUS
370
25
 62
     7
100
AcDbCircle
 10
90.767693
 20
326.882377
 40
3.325073
  0
ARC
  5
29E
100
AcDbEntity
  8
M1
  6
CONTINUOUS
370
13
 62
     7
100
AcDbCircle
 10
151.389764
 20
291.882377
 40
70.000198
100
AcDbArc
 50
143.554962
 51
155.772605
  0
ARC
  5
29F
100
AcDbEntity
  8
M1
  6
CONTINUOUS
370
25
 62
     7
100
AcDbCircle
 10
80.048699
 20
353.855766
 40
8.000331
100
AcDbArc
 50
139.021729
 51
239.999954
  0
ARC
  5
2A0
100
AcDbEntity
  8
M1
  6
CONTINUOUS
370
25
 62
     7
100
AcDbCircle
 10
151.389764
 20
291.882377
 40
102.500015
100
AcDbArc
 50
100.980713
 51
139.019608
  0
ARC
  5
2A1
100
AcDbEntity
  8
M1
  6
CONTINUOUS
370
25
 62
     7
100
AcDbCircle
 10
133.389764
 20
384.652305
 40
8.0
100
AcDbArc
 50
0.0
 51
100.982361
  0
ARC
  5
2A2
100
AcDbEntity
  8
M1
  6
CONTINUOUS
370
25
 62
     7
100
AcDbCircle
 10
90.767693
 20
256.882286
 40
10.000151
100
AcDbArc
 50
128.038391
 51
291.962387
  0
CIRCLE
  5
2A3
100
AcDbEntity
  8
M1
  6
CONTINUOUS
370
13
 62
     7
100
AcDbCircle
 10
90.767693
 20
256.882286
 40
4.0
  0
CIRCLE
  5
2A4
100
AcDbEntity
  8
M1
  6
CONTINUOUS
370
25
 62
     7
100
AcDbCircle
 10
90.767693
 20
256.882286
 40
3.325073
  0
ARC
  5
2A5
100
AcDbEntity
  8
M1
  6
CONTINUOUS
370
13
 62
     7
100
AcDbCircle
 10
151.389764
 20
291.882377
 40
70.000481
100
AcDbArc
 50
203.554703
 51
215.772531
  0
ARC
  5
2A6
100
AcDbEntity
  8
M1
  6
CONTINUOUS
370
25
 62
     7
100
AcDbCircle
 10
62.048699
 20
261.085868
 40
8.000654
100
AcDbArc
 50
199.017639
 51
300.000046
  0
ARC
  5
2A7
100
AcDbEntity
  8
M1
  6
CONTINUOUS
370
25
 62
     7
100
AcDbCircle
 10
151.389764
 20
291.882377
 40
102.500626
100
AcDbArc
 50
160.980743
 51
199.019295
  0
ARC
  5
2A8
100
AcDbEntity
  8
M1
  6
CONTINUOUS
370
25
 62
     7
100
AcDbCircle
 10
62.048699
 20
322.678886
 40
7.99999
100
AcDbArc
 50
59.999962
 51
160.982368
  0
ARC
  5
2A9
100
AcDbEntity
  8
M1
  6
CONTINUOUS
370
25
 62
     7
100
AcDbCircle
 10
151.389764
 20
291.882377
 40
66.67469
100
AcDbArc
 50
163.808456
 51
196.191616
  0
ARC
  5
2AA
100
AcDbEntity
  8
M1
  6
CONTINUOUS
370
25
 62
     7
100
AcDbCircle
 10
151.389764
 20
221.882286
 40
10.000205
100
AcDbArc
 50
188.037231
 51
351.962784
  0
CIRCLE
  5
2AB
100
AcDbEntity
  8
M1
  6
CONTINUOUS
370
13
 62
     7
100
AcDbCircle
 10
151.389764
 20
221.882286
 40
4.0
  0
CIRCLE
  5
2AC
100
AcDbEntity
  8
M1
  6
CONTINUOUS
370
25
 62
     7
100
AcDbCircle
 10
151.389764
 20
221.882286
 40
3.324951
  0
ARC
  5
2AD
100
AcDbEntity
  8
M1
  6
CONTINUOUS
370
13
 62
     7
100
AcDbCircle
 10
151.389764
 20
291.882377
 40
70.000046
100
AcDbArc
 50
263.554535
 51
275.772011
  0
ARC
  5
2AE
100
AcDbEntity
  8
M1
  6
CONTINUOUS
370
25
 62
     7
100
AcDbCircle
 10
133.389764
 20
199.11248
 40
8.000027
100
AcDbArc
 50
259.017731
 51
360.000008
  0
ARC
  5
2AF
100
AcDbEntity
  8
M1
  6
CONTINUOUS
370
25
 62
     7
100
AcDbCircle
 10
151.389764
 20
291.882377
 40
102.500404
100
AcDbArc
 50
220.980453
 51
259.019302
  0
ARC
  5
2B0
100
AcDbEntity
  8
M1
  6
CONTINUOUS
370
25
 62
     7
100
AcDbCircle
 10
80.048699
 20
229.908989
 40
7.99999
100
AcDbArc
 50
120.000038
 51
220.978264
  0
ARC
  5
2B1
100
AcDbEntity
  8
M1
  6
CONTINUOUS
370
25
 62
     7
100
AcDbCircle
 10
151.389764
 20
291.882377
 40
66.6754
100
AcDbArc
 50
223.808182
 51
256.191299
  0
ARC
  5
2B2
100
AcDbEntity
  8
M1
  6
CONTINUOUS
370
25
 62
     7
100
AcDbCircle
 10
212.011346
 20
256.882286
 40
10.00003
100
AcDbArc
 50
248.037613
 51
411.962433
  0
CIRCLE
  5
2B3
100
AcDbEntity
  8
M1
  6
CONTINUOUS
370
13
 62
     7
100
AcDbCircle
 10
212.011346
 20
256.882286
 40
4.0
  0
CIRCLE
  5
2B4
100
AcDbEntity
  8
M1
  6
CONTINUOUS
370
25
 62
     7
100
AcDbCircle
 10
212.011346
 20
256.882286
 40
3.325012
  0
ARC
  5
2B5
100
AcDbEntity
  8
M1
  6
CONTINUOUS
370
13
 62
     7
100
AcDbCircle
 10
151.389764
 20
291.882377
 40
69.999802
100
AcDbArc
 50
323.554718
 51
335.772284
  0
ARC
  5
2B6
100
AcDbEntity
  8
M1
  6
CONTINUOUS
370
25
 62
     7
100
AcDbCircle
 10
222.730523
 20
229.908989
 40
8.000009
100
AcDbArc
 50
319.019714
 51
419.999947
  0
ARC
  5
2B7
100
AcDbEntity
  8
M1
  6
CONTINUOUS
370
25
 62
     7
100
AcDbCircle
 10
151.389764
 20
291.882377
 40
102.500023
100
AcDbArc
 50
280.980652
 51
319.019348
  0
ARC
  5
2B8
100
AcDbEntity
  8
M1
  6
CONTINUOUS
370
25
 62
     7
100
AcDbCircle
 10
169.389764
 20
199.11248
 40
8.0
100
AcDbArc
 50
180.0
 51
280.981415
  0
ARC
  5
2B9
100
AcDbEntity
  8
M1
  6
CONTINUOUS
370
25
 62
     7
100
AcDbCircle
 10
151.389764
 20
291.882377
 40
66.674995
100
AcDbArc
 50
283.808594
 51
316.191341
  0
ARC
  5
2BA
100
AcDbEntity
  8
M1
  6
CONTINUOUS
370
25
 62
     7
100
AcDbCircle
 10
169.212762
 20
364.399192
 40
7.999618
100
AcDbArc
 50
188.038269
 51
256.187302
  0
ARC
  5
2BB
100
AcDbEntity
  8
M1
  6
CONTINUOUS
370
25
 62
     7
100
AcDbCircle
 10
205.279351
 20
343.576072
 40
8.000034
100
AcDbArc
 50
223.808182
 51
291.962616
  0
ARC
  5
2BC
100
AcDbEntity
  8
M1
  6
CONTINUOUS
370
25
 62
     7
100
AcDbCircle
 10
223.102532
 20
312.705467
 40
7.99994
100
AcDbArc
 50
128.037521
 51
196.191605
  0
ARC
  5
2BD
100
AcDbEntity
  8
M1
  6
CONTINUOUS
370
25
 62
     7
100
AcDbCircle
 10
223.102532
 20
271.059288
 40
8.000002
100
AcDbArc
 50
163.808395
 51
231.962479
  0
ARC
  5
2BE
100
AcDbEntity
  8
M1
  6
CONTINUOUS
370
25
 62
     7
100
AcDbCircle
 10
205.279351
 20
240.188591
 40
7.999949
100
AcDbArc
 50
68.0373
 51
136.191818
  0
ARC
  5
2BF
100
AcDbEntity
  8
M1
  6
CONTINUOUS
370
25
 62
     7
100
AcDbCircle
 10
169.212762
 20
219.365562
 40
7.999951
100
AcDbArc
 50
103.805916
 51
171.962387
  0
ARC
  5
2C0
100
AcDbEntity
  8
M1
  6
CONTINUOUS
370
25
 62
     7
100
AcDbCircle
 10
133.566766
 20
219.365562
 40
7.999605
100
AcDbArc
 50
8.037616
 51
76.194934
  0
ARC
  5
2C1
100
AcDbEntity
  8
M1
  6
CONTINUOUS
370
25
 62
     7
100
AcDbCircle
 10
79.676751
 20
271.059288
 40
7.999749
100
AcDbArc
 50
308.034698
 51
376.190987
  0
ARC
  5
2C2
100
AcDbEntity
  8
M1
  6
CONTINUOUS
370
25
 62
     7
100
AcDbCircle
 10
97.499749
 20
240.188591
 40
7.999834
100
AcDbArc
 50
43.810478
 51
111.963112
  0
ARC
  5
2C3
100
AcDbEntity
  8
M1
  6
CONTINUOUS
370
25
 62
     7
100
AcDbCircle
 10
97.499749
 20
343.576072
 40
8.0
100
AcDbArc
 50
248.036972
 51
316.189995
  0
ARC
  5
2C4
100
AcDbEntity
  8
M1
  6
CONTINUOUS
370
25
 62
     7
100
AcDbCircle
 10
79.676751
 20
312.705375
 40
8.00027
100
AcDbArc
 50
343.809631
 51
411.965294
  0
ARC
  5
2C5
100
AcDbEntity
  8
M1
  6
CONTINUOUS
370
25
 62
     7
100
AcDbCircle
 10
133.566766
 20
364.399192
 40
7.999921
100
AcDbArc
 50
283.805054
 51
351.961723
  0
ARC
  5
2C6
100
AcDbEntity
  8
M1
  6
CONTINUOUS
370
25
 62
     7
100
AcDbCircle
 10
151.389764
 20
290.882377
 40
31.75
100
AcDbArc
 50
0.0
 51
76.336441
  0
ARC
  5
2C7
100
AcDbEntity
  8
M1
  6
CONTINUOUS
370
25
 62
     7
100
AcDbCircle
 10
151.389764
 20
290.882377
 40
31.750042
100
AcDbArc
 50
103.663559
 51
360.000015
  0
CIRCLE
  5
2C8
100
AcDbEntity
  8
M1
  6
CONTINUOUS
370
25
 62
     7
100
AcDbCircle
 10
147.147698
 20
323.650566
 40
1.25
  0
CIRCLE
  5
2C9
100
AcDbEntity
  8
M1
  6
CONTINUOUS
370
25
 62
     7
100
AcDbCircle
 10
155.630731
 20
323.650566
 40
1.25
  0
ARC
  5
2CA
100
AcDbEntity
  8
M1
  6
CONTINUOUS
370
25
 62
     7
100
AcDbCircle
 10
145.389764
 20
325.482383
 40
1.5
100
AcDbArc
 50
90.0
 51
180.0
  0
ARC
  5
2CB
100
AcDbEntity
  8
M1
  6
CONTINUOUS
370
25
 62
     7
100
AcDbCircle
 10
157.389764
 20
325.482383
 40
1.5
100
AcDbArc
 50
0.0
 51
90.0
  0
ARC
  5
2CC
100
AcDbEntity
  8
M1
  6
CONTINUOUS
370
25
 62
     7
100
AcDbCircle
 10
151.389764
 20
292.882377
 40
44.699951
100
AcDbArc
 50
0.0
 51
77.733467
  0
ARC
  5
2CD
100
AcDbEntity
  8
M1
  6
CONTINUOUS
370
25
 62
     7
100
AcDbCircle
 10
151.389764
 20
292.882377
 40
44.700039
100
AcDbArc
 50
102.266685
 51
359.999992
  0
CIRCLE
  5
2CE
100
AcDbEntity
  8
M1
  6
CONTINUOUS
370
25
 62
     7
100
AcDbCircle
 10
157.477776
 20
336.314964
 40
1.5
  0
ARC
  5
2CF
100
AcDbEntity
  8
M1
  6
CONTINUOUS
370
25
 62
     7
100
AcDbCircle
 10
158.654778
 20
335.682365
 40
2.0
100
AcDbArc
 50
270.0
 51
347.998436
  0
ARC
  5
2D0
100
AcDbEntity
  8
M1
  6
CONTINUOUS
370
25
 62
     7
100
AcDbCircle
 10
155.384759
 20
334.682365
 40
1.000486
100
AcDbArc
 50
175.998062
 51
270.0
  0
ARC
  5
2D1
100
AcDbEntity
  8
M1
  6
CONTINUOUS
370
25
 62
     7
100
AcDbCircle
 10
147.394769
 20
334.682365
 40
1.0
100
AcDbArc
 50
270.0
 51
364.00634
  0
ARC
  5
2D2
100
AcDbEntity
  8
M1
  6
CONTINUOUS
370
25
 62
     7
100
AcDbCircle
 10
144.124749
 20
335.682365
 40
2.000715
100
AcDbArc
 50
191.995026
 51
270.0
  0
CIRCLE
  5
2D3
100
AcDbEntity
  8
M1
  6
CONTINUOUS
370
25
 62
     7
100
AcDbCircle
 10
145.301751
 20
336.314964
 40
1.5
  0
ARC
  5
2D4
100
AcDbEntity
  8
M1
  6
CONTINUOUS
370
25
 62
     7
100
AcDbCircle
 10
451.256072
 20
167.400962
 40
5.0
100
AcDbArc
 50
180.0
 51
270.0
  0
ARC
  5
2D5
100
AcDbEntity
  8
M1
  6
CONTINUOUS
370
25
 62
     7
100
AcDbCircle
 10
485.256072
 20
161.400962
 40
1.0
100
AcDbArc
 50
0.0
 51
90.0
  0
ARC
  5
2D6
100
AcDbEntity
  8
M1
  6
CONTINUOUS
370
25
 62
     7
100
AcDbCircle
 10
483.256072
 20
286.956474
 40
3.0
100
AcDbArc
 50
0.0
 51
88.567192
  0
ARC
  5
2D7
100
AcDbEntity
  8
M1
  6
CONTINUOUS
370
25
 62
     7
100
AcDbCircle
 10
483.256072
 20
263.967063
 40
3.000034
100
AcDbArc
 50
274.224731
 51
360.000008
  0
ARC
  5
2D8
100
AcDbEntity
  8
M1
  6
CONTINUOUS
370
25
 62
     7
100
AcDbCircle
 10
456.256072
 20
248.936973
 40
9.99999
100
AcDbArc
 50
94.225479
 51
180.0
  0
ARC
  5
2D9
100
AcDbEntity
  8
M1
  6
CONTINUOUS
370
25
 62
     7
100
AcDbCircle
 10
447.190765
 20
239.008079
 40
0.934631
100
AcDbArc
 50
91.309692
 51
268.701538
  0
ARC
  5
2DA
100
AcDbEntity
  8
M1
  6
CONTINUOUS
370
25
 62
     7
100
AcDbCircle
 10
447.281402
 20
291.882286
 40
1.02533
100
AcDbArc
 50
180.0
 51
268.560402
  0
ARC
  5
2DB
100
AcDbEntity
  8
M1
  6
CONTINUOUS
370
25
 62
     7
100
AcDbCircle
 10
456.256072
 20
221.756675
 40
10.000001
100
AcDbArc
 50
93.827927
 51
180.0
  0
ARC
  5
2DC
100
AcDbEntity
  8
M1
  6
CONTINUOUS
370
25
 62
     7
100
AcDbCircle
 10
483.256072
 20
243.77169
 40
2.999995
100
AcDbArc
 50
271.313843
 51
360.0
  0
ARC
  5
2DD
100
AcDbEntity
  8
M1
  6
CONTINUOUS
370
25
 62
     7
100
AcDbCircle
 10
483.256072
 20
234.252983
 40
3.000005
100
AcDbArc
 50
22.94841
 51
88.698975
  0
ARC
  5
2DE
100
AcDbEntity
  8
M1
  6
CONTINUOUS
370
25
 62
     7
100
AcDbCircle
 10
483.256072
 20
236.592369
 40
2.999981
100
AcDbArc
 50
273.828644
 51
359.999992
  0
ARC
  5
2DF
100
AcDbEntity
  8
M1
  6
CONTINUOUS
370
25
 62
     7
100
AcDbCircle
 10
483.256072
 20
199.571464
 40
3.000003
100
AcDbArc
 50
270.96991
 51
360.000015
  0
ARC
  5
2E0
100
AcDbEntity
  8
M1
  6
CONTINUOUS
370
25
 62
     7
100
AcDbCircle
 10
483.256072
 20
190.99459
 40
3.0
100
AcDbArc
 50
0.0
 51
89.054581
  0
ARC
  5
2E1
100
AcDbEntity
  8
M1
  6
CONTINUOUS
370
25
 62
     7
100
AcDbCircle
 10
446.93637
 20
195.274986
 40
0.680303
100
AcDbArc
 50
90.966446
 51
269.05925
  0
ARC
  5
2E2
100
AcDbEntity
  8
M1
  6
CONTINUOUS
370
25
 62
     7
100
AcDbCircle
 10
446.567351
 20
168.247581
 40
0.31132
100
AcDbArc
 50
90.460556
 51
269.584366
  0
ARC
  5
2E3
100
AcDbEntity
  8
M1
  6
CONTINUOUS
370
25
 62
     7
100
AcDbCircle
 10
344.756194
 20
388.882408
 40
3.0
100
AcDbArc
 50
90.0
 51
180.0
  0
ARC
  5
2E4
100
AcDbEntity
  8
M1
  6
CONTINUOUS
370
25
 62
     7
100
AcDbCircle
 10
326.755767
 20
170.631767
 40
4.000074
100
AcDbArc
 50
145.736954
 51
180.707291
  0
ARC
  5
2E5
100
AcDbEntity
  8
M1
  6
CONTINUOUS
370
25
 62
     7
100
AcDbCircle
 10
326.755767
 20
183.132865
 40
4.0
100
AcDbArc
 50
179.292267
 51
214.261597
  0
ARC
  5
2E6
100
AcDbEntity
  8
M1
  6
CONTINUOUS
370
25
 62
     7
100
AcDbCircle
 10
439.756377
 20
240.632865
 40
4.000006
100
AcDbArc
 50
325.738403
 51
360.707733
  0
ARC
  5
2E7
100
AcDbEntity
  8
M1
  6
CONTINUOUS
370
25
 62
     7
100
AcDbCircle
 10
439.756377
 20
228.131767
 40
4.0
100
AcDbArc
 50
359.292694
 51
394.263031
  0
ARC
  5
2E8
100
AcDbEntity
  8
M1
  6
CONTINUOUS
370
25
 62
     7
100
AcDbCircle
 10
750.741883
 20
410.640586
 40
1.399591
100
AcDbArc
 50
150.001297
 51
330.001312
  0
ARC
  5
2E9
100
AcDbEntity
  8
M1
  6
CONTINUOUS
370
25
 62
     7
100
AcDbCircle
 10
753.166291
 20
409.240867
 40
1.399635
100
AcDbArc
 50
149.999451
 51
330.003174
  0
ARC
  5
2EA
100
AcDbEntity
  8
M1
  6
CONTINUOUS
370
25
 62
     7
100
AcDbCircle
 10
751.999589
 20
410.292198
 40
5.000022
100
AcDbArc
 50
92.181282
 51
384.028542
  0
SPLINE
  5
2EB
100
AcDbEntity
  8
M1
  6
CONTINUOUS
370
25
 62
     7
100
AcDbSpline
210
0.0
220
0.0
230
-1.0
 70
     8
 71
     3
 72
    11
 73
     7
 43
0.0000001
 40
0.0
 40
0.0
 40
0.0
 40
0.0
 40
1.0
 40
1.0
 40
1.0
 40
2.0
 40
2.0
 40
2.0
 40
2.0
 10
323.448943
 20
410.882408
 10
323.00595
 20
409.603782
 10
322.756072
 20
408.243064
 10
322.756072
 20
406.882408
 10
322.756072
 20
405.521751
 10
323.00595
 20
404.161033
 10
323.448943
 20
402.882408
  0
SPLINE
  5
2EC
100
AcDbEntity
  8
M1
  6
CONTINUOUS
370
25
 62
     7
100
AcDbSpline
210
0.0
220
0.0
230
-1.0
 70
     8
 71
     3
 72
    11
 73
     7
 43
0.0000001
 40
0.0
 40
0.0
 40
0.0
 40
0.0
 40
1.0
 40
1.0
 40
1.0
 40
2.0
 40
2.0
 40
2.0
 40
2.0
 10
443.063201
 20
410.882408
 10
443.506194
 20
409.603782
 10
443.756072
 20
408.243064
 10
443.756072
 20
406.882408
 10
443.756072
 20
405.521751
 10
443.506194
 20
404.161033
 10
443.063201
 20
402.882408
  0
SPLINE
  5
2ED
100
AcDbEntity
  8
M1
  6
CONTINUOUS
370
25
 62
     7
100
AcDbSpline
210
0.0
220
0.0
230
-1.0
 70
     8
 71
     3
 72
    11
 73
     7
 43
0.0000001
 40
0.0
 40
0.0
 40
0.0
 40
0.0
 40
1.0
 40
1.0
 40
1.0
 40
2.0
 40
2.0
 40
2.0
 40
2.0
 10
479.448943
 20
380.882408
 10
479.00595
 20
379.603782
 10
478.756072
 20
378.243064
 10
478.756072
 20
376.882408
 10
478.756072
 20
375.521751
 10
479.00595
 20
374.161033
 10
479.448943
 20
372.882408
  0
SPLINE
  5
2EE
100
AcDbEntity
  8
M1
  6
CONTINUOUS
370
25
 62
     7
100
AcDbSpline
210
0.0
220
0.0
230
-1.0
 70
     8
 71
     3
 72
    11
 73
     7
 43
0.0000001
 40
0.0
 40
0.0
 40
0.0
 40
0.0
 40
1.0
 40
1.0
 40
1.0
 40
2.0
 40
2.0
 40
2.0
 40
2.0
 10
323.448943
 20
230.382377
 10
323.00595
 20
231.661003
 10
322.756072
 20
233.02169
 10
322.756072
 20
234.382377
 10
322.756072
 20
235.743064
 10
323.00595
 20
237.103752
 10
323.448943
 20
238.382377
  0
SPLINE
  5
2EF
100
AcDbEntity
  8
M1
  6
CONTINUOUS
370
25
 62
     7
100
AcDbSpline
210
0.0
220
0.0
230
-1.0
 70
     8
 71
     3
 72
    11
 73
     7
 43
0.0000001
 40
0.0
 40
0.0
 40
0.0
 40
0.0
 40
1.0
 40
1.0
 40
1.0
 40
2.0
 40
2.0
 40
2.0
 40
2.0
 10
443.063201
 20
172.882377
 10
443.506194
 20
174.161003
 10
443.756072
 20
175.52169
 10
443.756072
 20
176.882377
 10
443.756072
 20
178.243064
 10
443.506194
 20
179.603752
 10
443.063201
 20
180.882377
  0
SPLINE
  5
2F0
100
AcDbEntity
  8
M1
  6
CONTINUOUS
370
25
 62
     7
100
AcDbSpline
210
0.0
220
0.0
230
-1.0
 70
     8
 71
     3
 72
    11
 73
     7
 43
0.0000001
 40
0.0
 40
0.0
 40
0.0
 40
0.0
 40
1.0
 40
1.0
 40
1.0
 40
2.0
 40
2.0
 40
2.0
 40
2.0
 10
323.448943
 20
172.882377
 10
323.00595
 20
174.161003
 10
322.756072
 20
175.52169
 10
322.756072
 20
176.882377
 10
322.756072
 20
178.243064
 10
323.00595
 20
179.603752
 10
323.448943
 20
180.882377
  0
SPLINE
  5
2F1
100
AcDbEntity
  8
M1
  6
CONTINUOUS
370
25
 62
     7
100
AcDbSpline
210
0.0
220
0.0
230
-1.0
 70
     8
 71
     3
 72
    11
 73
     7
 43
0.0000001
 40
0.0
 40
0.0
 40
0.0
 40
0.0
 40
1.0
 40
1.0
 40
1.0
 40
2.0
 40
2.0
 40
2.0
 40
2.0
 10
443.063201
 20
230.382377
 10
443.506194
 20
231.661003
 10
443.756072
 20
233.02169
 10
443.756072
 20
234.382377
 10
443.756072
 20
235.743064
 10
443.506194
 20
237.103752
 10
443.063201
 20
238.382377
  0
TEXT
  5
2F2
100
AcDbEntity
  8
M1
100
AcDbText
 10
1120.354736
 20
66.744362
 40
9.0
  1
ＰＨＣ－１０Ｒ
 41
0.833333
  7
STANDARD
100
AcDbText
  0
TEXT
  5
2F3
100
AcDbEntity
  8
M1
100
AcDbText
 10
137.430801
 20
69.286186
 40
9.0
  1
Ｄ１
 41
0.833333
  7
STANDARD
100
AcDbText
  0
TEXT
  5
2F4
100
AcDbEntity
  8
M1
100
AcDbText
 10
402.143799
 20
83.975151
 40
9.0
  1
Ｄ２
 41
0.833333
  7
STANDARD
100
AcDbText
  0
TEXT
  5
2F5
100
AcDbEntity
  8
M1
100
AcDbText
 10
674.492188
 20
85.310173
 40
9.0
  1
Ｄ３
 41
0.833333
  7
STANDARD
100
AcDbText
  0
TEXT
  5
2F6
100
AcDbEntity
  8
M1
100
AcDbText
 10
1104.569702
 20
45.698185
 40
9.0
  1
（ＳＤＫ６２３４）
 41
0.833333
  7
STANDARD
100
AcDbText
  0
LINE
  5
2F7
100
AcDbEntity
  8
M1
  6
CONTINUOUS
370
25
100
AcDbLine
 10
142.889764
 20
436.88228
 11
159.889764
 21
436.88228
  0
ARC
  5
2F8
100
AcDbEntity
  8
M1
  6
CONTINUOUS
370
25
100
AcDbCircle
 10
151.389764
 20
468.632097
 40
3.15
100
AcDbArc
 50
0.0
 51
180.0
  0
LINE
  5
2F9
100
AcDbEntity
  8
M1
  6
CONTINUOUS
370
25
100
AcDbLine
 10
159.889764
 20
438.482133
 11
142.889764
 21
438.482133
  0
LINE
  5
2FA
100
AcDbEntity
  8
M1
  6
CONTINUOUS
370
25
100
AcDbLine
 10
142.889764
 20
438.482133
 11
142.889764
 21
436.88228
  0
LINE
  5
2FB
100
AcDbEntity
  8
M1
  6
CONTINUOUS
370
25
100
AcDbLine
 10
159.889764
 20
436.88228
 11
159.889764
 21
438.482133
  0
ARC
  5
2FC
100
AcDbEntity
  8
M1
  6
CONTINUOUS
370
25
100
AcDbCircle
 10
145.147058
 20
442.689439
 40
1.0
100
AcDbArc
 50
105.693804
 51
170.000123
  0
ARC
  5
2FD
100
AcDbEntity
  8
M1
  6
CONTINUOUS
370
25
100
AcDbCircle
 10
157.63247
 20
442.689409
 40
1.0
100
AcDbArc
 50
9.999725
 51
74.306669
  0
ARC
  5
2FE
100
AcDbEntity
  8
M1
  6
CONTINUOUS
370
25
100
AcDbCircle
 10
146.97976
 20
442.540361
 40
1.259999
100
AcDbArc
 50
270.0
 51
360.0
  0
ARC
  5
2FF
100
AcDbEntity
  8
M1
  6
CONTINUOUS
370
25
100
AcDbCircle
 10
155.799768
 20
442.540361
 40
1.259999
100
AcDbArc
 50
180.0
 51
270.0
  0
ARC
  5
300
100
AcDbEntity
  8
M1
  6
DASHED
370
13
100
AcDbCircle
 10
151.389764
 20
468.632097
 40
3.15
100
AcDbArc
 50
180.0
 51
360.0
  0
LINE
  5
301
100
AcDbEntity
  8
M1
  6
CONTINUOUS
370
25
100
AcDbLine
 10
143.389779
 20
438.482133
 11
159.389779
 21
438.482133
  0
LINE
  5
302
100
AcDbEntity
  8
M1
  6
CONTINUOUS
370
25
100
AcDbLine
 10
159.389749
 20
438.482133
 11
158.617288
 21
442.863054
  0
LINE
  5
303
100
AcDbEntity
  8
M1
  6
CONTINUOUS
370
25
100
AcDbLine
 10
148.23977
 20
468.632097
 11
148.23977
 21
442.540361
  0
LINE
  5
304
100
AcDbEntity
  8
M1
  6
CONTINUOUS
370
25
100
AcDbLine
 10
154.539773
 20
442.540361
 11
154.539773
 21
468.632097
  0
LINE
  5
305
100
AcDbEntity
  8
M1
  6
DASHED
370
13
100
AcDbLine
 10
148.23977
 20
444.597078
 11
151.389764
 21
445.482133
  0
LINE
  5
306
100
AcDbEntity
  8
M1
  6
DASHED
370
13
100
AcDbLine
 10
154.539773
 20
444.597078
 11
151.389764
 21
445.482133
  0
LINE
  5
307
100
AcDbEntity
  8
M1
  6
CONTINUOUS
370
25
100
AcDbLine
 10
144.876565
 20
443.652147
 11
148.23977
 21
444.597078
  0
LINE
  5
308
100
AcDbEntity
  8
M1
  6
CONTINUOUS
370
25
100
AcDbLine
 10
157.902963
 20
443.652147
 11
154.539773
 21
444.597078
  0
LINE
  5
309
100
AcDbEntity
  8
M1
  6
CONTINUOUS
370
25
100
AcDbLine
 10
143.389764
 20
438.482133
 11
144.162255
 21
442.863084
  0
CIRCLE
  5
30A
100
AcDbEntity
  8
M1
  6
CONTINUOUS
370
25
100
AcDbCircle
 10
377.006087
 20
455.482408
 40
10.0
  0
ARC
  5
30B
100
AcDbEntity
  8
M1
  6
CONTINUOUS
370
25
100
AcDbCircle
 10
377.006087
 20
455.482408
 40
16.299988
100
AcDbArc
 50
301.163318
 51
598.836084
  0
LINE
  5
30C
100
AcDbEntity
  8
M1
  6
CONTINUOUS
370
25
100
AcDbLine
 10
368.506077
 20
438.482408
 11
368.506077
 21
436.882554
  0
LINE
  5
30D
100
AcDbEntity
  8
M1
  6
CONTINUOUS
370
25
100
AcDbLine
 10
385.506077
 20
438.482408
 11
368.506077
 21
438.482408
  0
ARC
  5
30E
100
AcDbEntity
  8
M1
  6
CONTINUOUS
370
25
100
AcDbCircle
 10
367.794799
 20
440.251115
 40
1.5
100
AcDbArc
 50
349.999549
 51
418.835928
  0
ARC
  5
30F
100
AcDbEntity
  8
M1
  6
CONTINUOUS
370
25
100
AcDbCircle
 10
386.217223
 20
440.251038
 40
1.5
100
AcDbArc
 50
121.16377
 51
190.003996
  0
ARC
  5
310
100
AcDbEntity
  8
M1
  6
CONTINUOUS
370
25
100
AcDbCircle
 10
370.76335
 20
442.689698
 40
1.0
100
AcDbArc
 50
105.693568
 51
170.000123
  0
ARC
  5
311
100
AcDbEntity
  8
M1
  6
CONTINUOUS
370
25
100
AcDbCircle
 10
383.248458
 20
442.689698
 40
1.0
100
AcDbArc
 50
10.003321
 51
74.306432
  0
LINE
  5
312
100
AcDbEntity
  8
M1
  6
CONTINUOUS
370
25
100
AcDbLine
 10
385.006057
 20
438.482408
 11
384.23326
 21
442.863404
  0
LINE
  5
313
100
AcDbEntity
  8
M1
  6
CONTINUOUS
370
25
100
AcDbLine
 10
369.006072
 20
438.482408
 11
369.778548
 21
442.863343
  0
LINE
  5
314
100
AcDbEntity
  8
M1
  6
CONTINUOUS
370
25
100
AcDbLine
 10
369.006072
 20
438.482408
 11
373.006087
 21
438.482408
  0
LINE
  5
315
100
AcDbEntity
  8
M1
  6
CONTINUOUS
370
25
100
AcDbLine
 10
370.153747
 20
443.482408
 11
383.858046
 21
443.482408
  0
LINE
  5
316
100
AcDbEntity
  8
M1
  6
CONTINUOUS
370
25
100
AcDbLine
 10
381.006087
 20
438.482408
 11
385.006057
 21
438.482408
  0
LINE
  5
317
100
AcDbEntity
  8
M1
  6
CONTINUOUS
370
25
100
AcDbLine
 10
385.506077
 20
436.882554
 11
385.506077
 21
438.482408
  0
LINE
  5
318
100
AcDbEntity
  8
M1
  6
CONTINUOUS
370
25
100
AcDbLine
 10
370.492858
 20
443.652421
 11
377.006087
 21
445.482408
  0
LINE
  5
319
100
AcDbEntity
  8
M1
  6
CONTINUOUS
370
25
100
AcDbLine
 10
383.51895
 20
443.652421
 11
377.006087
 21
445.482408
  0
LINE
  5
31A
100
AcDbEntity
  8
M1
  6
CONTINUOUS
370
25
100
AcDbLine
 10
675.29268
 20
436.882432
 11
692.29268
 21
436.882432
  0
ARC
  5
31B
100
AcDbEntity
  8
M1
  6
CONTINUOUS
370
25
100
AcDbCircle
 10
683.79268
 20
468.632249
 40
3.15
100
AcDbArc
 50
0.0
 51
180.0
  0
LINE
  5
31C
100
AcDbEntity
  8
M1
  6
CONTINUOUS
370
25
100
AcDbLine
 10
692.29268
 20
438.482286
 11
675.29268
 21
438.482286
  0
LINE
  5
31D
100
AcDbEntity
  8
M1
  6
CONTINUOUS
370
25
100
AcDbLine
 10
675.29268
 20
438.482286
 11
675.29268
 21
436.882432
  0
LINE
  5
31E
100
AcDbEntity
  8
M1
  6
CONTINUOUS
370
25
100
AcDbLine
 10
692.29268
 20
436.882432
 11
692.29268
 21
438.482286
  0
ARC
  5
31F
100
AcDbEntity
  8
M1
  6
CONTINUOUS
370
25
100
AcDbCircle
 10
677.549974
 20
442.689592
 40
1.0
100
AcDbArc
 50
105.693804
 51
170.000123
  0
ARC
  5
320
100
AcDbEntity
  8
M1
  6
CONTINUOUS
370
25
100
AcDbCircle
 10
690.035386
 20
442.689561
 40
1.0
100
AcDbArc
 50
9.999725
 51
74.306669
  0
ARC
  5
321
100
AcDbEntity
  8
M1
  6
CONTINUOUS
370
25
100
AcDbCircle
 10
679.382676
 20
442.540513
 40
1.259999
100
AcDbArc
 50
270.0
 51
360.0
  0
ARC
  5
322
100
AcDbEntity
  8
M1
  6
CONTINUOUS
370
25
100
AcDbCircle
 10
688.202684
 20
442.540513
 40
1.259999
100
AcDbArc
 50
180.0
 51
270.0
  0
ARC
  5
323
100
AcDbEntity
  8
M1
  6
DASHED
370
13
100
AcDbCircle
 10
683.79268
 20
468.632249
 40
3.15
100
AcDbArc
 50
180.0
 51
360.0
  0
LINE
  5
324
100
AcDbEntity
  8
M1
  6
CONTINUOUS
370
25
100
AcDbLine
 10
675.792695
 20
438.482286
 11
691.792695
 21
438.482286
  0
LINE
  5
325
100
AcDbEntity
  8
M1
  6
CONTINUOUS
370
25
100
AcDbLine
 10
691.792665
 20
438.482286
 11
691.020204
 21
442.863206
  0
LINE
  5
326
100
AcDbEntity
  8
M1
  6
CONTINUOUS
370
25
100
AcDbLine
 10
680.642686
 20
468.632249
 11
680.642686
 21
442.540513
  0
LINE
  5
327
100
AcDbEntity
  8
M1
  6
CONTINUOUS
370
25
100
AcDbLine
 10
686.942689
 20
442.540513
 11
686.942689
 21
468.632249
  0
LINE
  5
328
100
AcDbEntity
  8
M1
  6
DASHED
370
13
100
AcDbLine
 10
680.642686
 20
444.59723
 11
683.79268
 21
445.482286
  0
LINE
  5
329
100
AcDbEntity
  8
M1
  6
DASHED
370
13
100
AcDbLine
 10
686.942689
 20
444.59723
 11
683.79268
 21
445.482286
  0
LINE
  5
32A
100
AcDbEntity
  8
M1
  6
CONTINUOUS
370
25
100
AcDbLine
 10
677.279481
 20
443.652299
 11
680.642686
 21
444.59723
  0
LINE
  5
32B
100
AcDbEntity
  8
M1
  6
CONTINUOUS
370
25
100
AcDbLine
 10
690.305879
 20
443.652299
 11
686.942689
 21
444.59723
  0
LINE
  5
32C
100
AcDbEntity
  8
M1
  6
CONTINUOUS
370
25
100
AcDbLine
 10
675.79268
 20
438.482286
 11
676.565171
 21
442.863237
  0
ENDSEC
  0
SECTION
  2
OBJECTS
  0
DICTIONARY
  5
C
100
AcDbDictionary
  3
ACAD_GROUP
350
D
  3
ACAD_MLINESTYLE
350
E
  0
DICTIONARY
  5
D
102
{ACAD_REACTORS
330
C
102
}
100
AcDbDictionary
  0
DICTIONARY
  5
E
102
{ACAD_REACTORS
330
C
102
}
100
AcDbDictionary
  3
STANDARD
350
13
  0
MLINESTYLE
  5
13
102
{ACAD_REACTORS
330
E
102
}
100
AcDbMlineStyle
  2
STANDARD
 70
     0
  3

 62
     0
 51
90.0
 52
90.0
 71
     2
 49
0.5
 62
   256
  6
BYLAYER
 49
-0.5
 62
   256
  6
BYLAYER
  0
ENDSEC
  0
EOF
