  0
SECTION
  2
HEADER
  9
$ACADVER
  1
AC1015
  9
$INSBASE
 10
0.0
 20
0.0
  9
$VIEWCTR
 10
7.531722
 20
4.5
  9
$VIEWSIZE
 40
9.0
  9
$SNAPMODE
 70
     0
  9
$SNAPUNIT
 10
1.0
 20
1.0
  9
$SNAPBASE
 10
0.0
 20
0.0
  9
$SNAPANG
 50
0.0
  9
$SNAPSTYLE
 70
     0
  9
$SNAPISOPAIR
 70
     0
  9
$GRIDMODE
 70
     0
  9
$GRIDUNIT
 10
0.0
 20
0.0
  9
$ORTHOMODE
 70
     0
  9
$REGENMODE
 70
     1
  9
$FILLMODE
 70
     1
  9
$QTEXTMODE
 70
     0
  9
$DRAGMODE
 70
     2
  9
$LTSCALE
 40
1.0
  9
$OSMODE
 70
     0
  9
$ATTMODE
 70
     1
  9
$TEXTSIZE
 40
0.2
  9
$TRACEWID
 40
0.05
  9
$TEXTSTYLE
  7
STANDARD
  9
$CELTYPE
  6
BYLAYER
  9
$CECOLOR
 62
   256
  9
$DIMSCALE
 40
1.0
  9
$DIMASZ
 40
0.18
  9
$DIMEXO
 40
0.0625
  9
$DIMDLI
 40
0.38
  9
$DIMRND
 40
0.0
  9
$DIMDLE
 40
0.0
  9
$DIMEXE
 40
0.18
  9
$DIMTP
 40
0.0
  9
$DIMTM
 40
0.0
  9
$DIMTXT
 40
0.18
  9
$DIMCEN
 40
0.09
  9
$DIMTSZ
 40
0.0
  9
$DIMADEC
 70
     0
  9
$DIMALTRND
 40
0.000000
  9
$DIMAZIN
 70
     0
  9
$DIMDSEP
 70
    46
  9
$DIMATFIT
 70
     3
  9
$DIMFRAC
 70
     0
  9
$DIMLDRBLK
  1

  9
$DIMLUNIT
 70
     2
  9
$DIMLWD
 70
   13
  9
$DIMLWE
 70
   13
  9
$DIMTMOVE
 70
     0
  9
$CELWEIGHT
370
    25
  9
$LWDISPLAY
290
    1
  9
$EXTNAMES
290
    1
  9
$DIMTOL
 70
     0
  9
$DIMLIM
 70
     0
  9
$DIMTIH
 70
     1
  9
$DIMTOH
 70
     1
  9
$DIMSE1
 70
     0
  9
$DIMSE2
 70
     0
  9
$DIMTAD
 70
     0
  9
$DIMZIN
 70
     0
  9
$DIMBLK
  1

  9
$LUNITS
 70
     2
  9
$LUPREC
 70
     4
  9
$AXISMODE
 70
     0
  9
$AXISUNIT
 10
0.0
 20
0.0
  9
$SKETCHINC
 40
0.1
  9
$FILLETRAD
 40
0.0
  9
$AUNITS
 70
     0
  9
$AUPREC
 70
     0
  9
$MENU
  1
ACAD
  9
$ELEVATION
 40
0.0
  9
$THICKNESS
 40
0.0
  9
$VIEWDIR
 10
0.0
 20
0.0
 30
1.0
  9
$LIMCHECK
 70
     0
  9
$BLIPMODE
 70
     1
  9
$CHAMFERA
 40
0.0
  9
$CHAMFERB
 40
0.0
  9
$FASTZOOM
 70
     1
  9
$SKPOLY
 70
     0
  9
$TDCREATE
 40
0000000.0000000000
  9
$TDUPDATE
 40
0000000.0000000000
  9
$TDINDWG
 40
0.0000000000
  9
$TDUSRTIMER
 40
0.0000000000
  9
$USRTIMER
 70
     1
  9
$ANGBASE
 50
0.0
  9
$ANGDIR
 70
     0
  9
$PDMODE
 70
     0
  9
$PDSIZE
 40
0.0
  9
$PLINEWID
 40
0.0
  9
$COORDS
 70
     0
  9
$USERI1
 70
     0
  9
$USERI2
 70
     0
  9
$USERI3
 70
     0
  9
$USERI4
 70
     0
  9
$USERI5
 70
     0
  9
$USERR1
 40
0.0
  9
$USERR2
 40
0.0
  9
$USERR3
 40
0.0
  9
$USERR4
 40
0.0
  9
$USERR5
 40
0.0
  9
$CLAYER
  8
M1
  9
$EXTMIN
 10
253.866182
 20
292.934522
  9
$EXTMAX
 10
1522.23787
 20
954.29251
  9
$LIMMIN
 10
0.0
 20
0.0
  9
$LIMMAX
 10
841.0
 20
594.0
  9
$HANDSEED
  5
330
  0
ENDSEC
  0
SECTION
  2
CLASSES
  0
ENDSEC
  0
SECTION
  2
TABLES
  0
TABLE
  2
VPORT
  5
8
100
AcDbSymbolTable
 70
     2
  0
VPORT
  5
14
100
AcDbSymbolTableRecord
100
AcDbViewportTableRecord
  2
*ACTIVE
 70
     0
 10
0.0
 20
0.0
 11
1.0
 21
1.0
 12
484.0
 22
297.0
 13
0.0
 23
0.0
 14
1.0
 24
1.0
 15
0.0
 25
0.0
 16
0.0
 26
0.0
 36
1.0
 17
0.0
 27
0.0
 37
0.0
 40
594.0
 41
2.0
 42
50.0
 43
0.0
 44
0.0
 50
0.0
 51
0.0
 71
     0
 72
   100
 73
     1
 74
     1
 75
     0
 76
     0
 77
     0
 78
     0
  0
ENDTAB
  0
TABLE
  2
LTYPE
  5
5
100
AcDbSymbolTable
 70
     5
  0
LTYPE
  5
15
100
AcDbSymbolTableRecord
100
AcDbLinetypeTableRecord
  2
BYBLOCK
 70
     0
  3

 72
    65
 73
     0
 40
0.0
  0
LTYPE
  5
16
100
AcDbSymbolTableRecord
100
AcDbLinetypeTableRecord
  2
BYLAYER
 70
     0
  3

 72
    65
 73
     0
 40
0.0
  0
LTYPE
  5
17
100
AcDbSymbolTableRecord
100
AcDbLinetypeTableRecord
  2
CONTINUOUS
 70
    64
  3
Solid line
 72
    65
 73
     0
 40
0.0
  0
LTYPE
  5
18
100
AcDbSymbolTableRecord
100
AcDbLinetypeTableRecord
  2
DASHED
 70
    64
  3
__ __ __ __ __ __ __ __ __ __ __ __ __ __ __ __
 72
    65
 73
     2
 40
0.75
 49
0.5
 74
     0
 49
-0.25
 74
     0
  0
LTYPE
  5
19
100
AcDbSymbolTableRecord
100
AcDbLinetypeTableRecord
  2
DASHDOT
 70
    64
  3
__ . __ . __ . __ . __ . __ . __ . __ . __ . __
 72
    65
 73
     4
 40
1.0
 49
0.5
 74
     0
 49
-0.25
 74
     0
 49
0.0
 74
     0
 49
-0.25
 74
     0
  0
LTYPE
  5
1A
100
AcDbSymbolTableRecord
100
AcDbLinetypeTableRecord
  2
DIVIDE
 70
    64
  3
____ . . ____ . . ____ . . ____ . . ____ . . __
 72
    65
 73
     6
 40
1.25
 49
0.5
 74
     0
 49
-0.25
 74
     0
 49
0.0
 74
     0
 49
-0.25
 74
     0
 49
0.0
 74
     0
 49
-0.25
 74
     0
  0
LTYPE
  5
1B
100
AcDbSymbolTableRecord
100
AcDbLinetypeTableRecord
  2
DOT
 70
    64
  3
. . . . . . . . . . . . . . . . . . . . . . . .
 72
    65
 73
     2
 40
0.25
 49
0.0
 74
     0
 49
-0.25
 74
     0
  0
ENDTAB
  0
TABLE
  2
LAYER
  5
2
100
AcDbSymbolTable
 70
   102
  0
LAYER
  5
F
100
AcDbSymbolTableRecord
100
AcDbLayerTableRecord
  2
0
 70
     0
 62
     7
  6
CONTINUOUS
370
     -3
390
F
  0
LAYER
  5
1C
100
AcDbSymbolTableRecord
100
AcDbLayerTableRecord
  2
M1
 70
     0
 62
     3
  6
CONTINUOUS
370
     -3
390
F
  0
ENDTAB
  0
TABLE
  2
STYLE
  5
3
100
AcDbSymbolTable
 70
     2
  0
STYLE
  5
10
100
AcDbSymbolTableRecord
100
AcDbTextStyleTableRecord
  2
STANDARD
 70
     0
 40
0.0
 41
1.0
 50
0.0
 71
     0
 42
0.2
  3
txt
  4
BIGFONT
  0
ENDTAB
  0
TABLE
  2
VIEW
  5
6
100
AcDbSymbolTable
 70
     0
  0
ENDTAB
  0
TABLE
  2
UCS
  5
7
100
AcDbSymbolTable
 70
     0
  0
ENDTAB
  0
TABLE
  2
APPID
  5
9
100
AcDbSymbolTable
 70
     1
  0
APPID
  5
11
100
AcDbSymbolTableRecord
100
AcDbRegAppTableRecord
  2
ACAD
 70
     0
  0
ENDTAB
  0
TABLE
  2
DIMSTYLE
  5
A
100
AcDbSymbolTable
 70
     2
100
AcDbDimStyleTable
 71
     1
  0
DIMSTYLE
105
23
100
AcDbSymbolTableRecord
100
AcDbDimStyleTableRecord
  2
STANDARD
 70
     0
  3

  4

  5

  6
_OPEN
  7
_OPEN
 40
1.0
 41
6.0
 42
0.5
 43
8.0
 44
1.5
 45
0.0
 46
0.0
 47
0.0
 48
0.0
140
6.3
141
0.09
142
0.0
143
0.03937
144
1.0
145
0.0
146
1.0
147
1.0
148
0.000000
 71
     0
 72
     0
 73
     0
 74
     0
 75
     0
 76
     0
 77
     3
 78
     8
170
     0
171
     2
172
     0
173
     1
174
     0
175
     0
176
     0
177
     0
178
     0
270
     2
271
     2
272
     4
273
     2
274
     2
340
10
275
     0
278
    46
280
     0
281
     0
282
     0
283
     1
284
     0
285
     0
286
     0
287
     3
288
     0
371
   13
372
   13
  0
DIMSTYLE
105
24
100
AcDbSymbolTableRecord
100
AcDbDimStyleTableRecord
  2
LEADSTYL
 70
     0
  3

  4

  5

  6
_OPEN
  7
_OPEN
 40
1.0
 41
6.0
 42
0.0625
 43
0.38
 44
0.18
 45
0.0
 46
0.0
 47
0.0
 48
0.0
140
6.3
141
0.09
142
0.0
143
25.4
144
1.0
145
0.0
146
1.0
147
1.0
 71
     0
 72
     0
 73
     1
 74
     1
 75
     0
 76
     0
 77
     0
 78
     0
170
     0
171
     2
172
     0
173
     1
174
     0
175
     0
176
     0
177
     0
178
     0
270
     2
271
     4
272
     4
273
     2
274
     2
340
10
275
     0
280
     0
281
     0
282
     0
283
     1
284
     0
285
     0
286
     0
287
     3
288
     0
  0
ENDTAB
  0
TABLE
  2
BLOCK_RECORD
  5
1
100
AcDbSymbolTable
 70
     6
  0
BLOCK_RECORD
  5
1D
100
AcDbSymbolTableRecord
100
AcDbBlockTableRecord
  2
*MODEL_SPACE
  0
BLOCK_RECORD
  5
20
100
AcDbSymbolTableRecord
100
AcDbBlockTableRecord
  2
*PAPER_SPACE
  0
BLOCK_RECORD
  5
25
100
AcDbSymbolTableRecord
100
AcDbBlockTableRecord
  2
_NONE
  0
BLOCK_RECORD
  5
29
100
AcDbSymbolTableRecord
100
AcDbBlockTableRecord
  2
_OPEN
  0
BLOCK_RECORD
  5
2F
100
AcDbSymbolTableRecord
100
AcDbBlockTableRecord
  2
_CLOSED
  0
BLOCK_RECORD
  5
36
100
AcDbSymbolTableRecord
100
AcDbBlockTableRecord
  2
_ORIGIN
  0
BLOCK_RECORD
  5
3B
100
AcDbSymbolTableRecord
100
AcDbBlockTableRecord
  2
_DOT
  0
BLOCK_RECORD
  5
43
100
AcDbSymbolTableRecord
100
AcDbBlockTableRecord
  2
_OBLIQUE
  0
ENDTAB
  0
ENDSEC
  0
SECTION
  2
BLOCKS
  0
BLOCK
  5
1E
100
AcDbEntity
  8
0
100
AcDbBlockBegin
  2
*MODEL_SPACE
 70
     0
 10
0.0
 20
0.0
 30
0.0
  3
*MODEL_SPACE
  1

  0
ENDBLK
  5
1F
100
AcDbEntity
  8
0
100
AcDbBlockEnd
  0
BLOCK
  5
21
100
AcDbEntity
 67
     1
  8
0
100
AcDbBlockBegin
  2
*PAPER_SPACE
 70
     0
 10
0.0
 20
0.0
 30
0.0
  3
*PAPER_SPACE
  1

  0
ENDBLK
  5
22
100
AcDbEntity
 67
     1
  8
0
100
AcDbBlockEnd
  0
BLOCK
  5
26
100
AcDbEntity
  8
0
100
AcDbBlockBegin
  2
_NONE
 70
     0
 10
0.0
 20
0.0
  0
CIRCLE
  5
27
100
AcDbEntity
  8
0
 62
     0
370
13
100
AcDbCircle
 10
0.0
 20
0.0
 40
0.25
  0
ENDBLK
  5
28
100
AcDbEntity
  8
0
100
AcDbBlockEnd
  0
BLOCK
  5
2A
100
AcDbEntity
  8
0
100
AcDbBlockBegin
  2
_OPEN
 70
     0
 10
0.0
 20
0.0
  0
LINE
  5
2B
100
AcDbEntity
  8
0
 62
     0
370
13
100
AcDbLine
 10
-0.965926
 20
0.25882
 11
0.0
 21
0.0
  0
LINE
  5
2C
100
AcDbEntity
  8
0
 62
     0
370
13
100
AcDbLine
 10
0.0
 20
0.0
 11
-0.965926
 21
-0.25882
  0
LINE
  5
2D
100
AcDbEntity
  8
0
 62
     0
370
13
100
AcDbLine
 10
0.0
 20
0.0
 11
-1.0
 21
0.0
  0
ENDBLK
  5
2E
100
AcDbEntity
  8
0
100
AcDbBlockEnd
  0
BLOCK
  5
30
100
AcDbEntity
  8
0
100
AcDbBlockBegin
  2
_CLOSED
 70
     0
 10
0.0
 20
0.0
  0
LINE
  5
31
100
AcDbEntity
  8
0
 62
     0
370
13
100
AcDbLine
 10
-0.965926
 20
0.25882
 11
0.0
 21
0.0
  0
LINE
  5
32
100
AcDbEntity
  8
0
 62
     0
370
13
100
AcDbLine
 10
0.0
 20
0.0
 11
-0.965926
 21
-0.25882
  0
LINE
  5
33
100
AcDbEntity
  8
0
 62
     0
370
13
100
AcDbLine
 10
-0.965926
 20
0.25882
 11
-0.965926
 21
-0.25882
  0
LINE
  5
34
100
AcDbEntity
  8
0
 62
     0
370
13
100
AcDbLine
 10
0.0
 20
0.0
 11
-1.0
 21
0.0
  0
ENDBLK
  5
35
100
AcDbEntity
  8
0
100
AcDbBlockEnd
  0
BLOCK
  5
37
100
AcDbEntity
  8
0
100
AcDbBlockBegin
  2
_ORIGIN
 70
     0
 10
0.0
 20
0.0
  0
CIRCLE
  5
38
100
AcDbEntity
  8
0
 62
     0
370
13
100
AcDbCircle
 10
0.0
 20
0.0
 40
0.5
  0
LINE
  5
39
100
AcDbEntity
  8
0
 62
     0
370
13
100
AcDbLine
 10
0.0
 20
0.0
 11
-1.0
 21
0.0
  0
ENDBLK
  5
3A
100
AcDbEntity
  8
0
100
AcDbBlockEnd
  0
BLOCK
  5
3C
100
AcDbEntity
  8
0
100
AcDbBlockBegin
  2
_DOT
 70
     0
 10
0.0
 20
0.0
  0
POLYLINE
  5
3D
100
AcDbEntity
  8
0
 62
     0
100
AcDb2dPolyline
 66
     1
 70
     1
 40
0.5
 41
0.5
  0
VERTEX
  5
3E
100
AcDbEntity
  8
0
 62
     0
100
AcDbVertex
100
AcDb2dVertex
 10
-0.25
 20
0.0
 42
1.0
  0
VERTEX
  5
3F
100
AcDbEntity
  8
0
 62
     0
100
AcDbVertex
100
AcDb2dVertex
 10
0.25
 20
0.0
 42
1.0
  0
SEQEND
  5
40
100
AcDbEntity
  8
0
 62
     0
  0
LINE
  5
41
100
AcDbEntity
  8
0
 62
     0
370
13
100
AcDbLine
 10
-0.5
 20
0.0
 11
-1.0
 21
0.0
  0
ENDBLK
  5
42
100
AcDbEntity
  8
0
100
AcDbBlockEnd
  0
BLOCK
  5
44
100
AcDbEntity
  8
0
100
AcDbBlockBegin
  2
_OBLIQUE
 70
     0
 10
0.0
 20
0.0
  0
LINE
  5
45
100
AcDbEntity
  8
0
 62
     0
370
13
100
AcDbLine
 10
-0.353553
 20
-0.353553
 11
0.353553
 21
0.353553
  0
ENDBLK
  5
46
100
AcDbEntity
  8
0
100
AcDbBlockEnd
  0
ENDSEC
  0
SECTION
  2
ENTITIES
  0
LINE
  5
47
100
AcDbEntity
  8
M1
  6
CONTINUOUS
370
25
 62
     7
100
AcDbLine
 10
413.866243
 20
773.792464
 11
413.866243
 21
767.749953
  0
LINE
  5
48
100
AcDbEntity
  8
M1
  6
CONTINUOUS
370
25
 62
     7
100
AcDbLine
 10
428.866243
 20
773.792464
 11
428.866243
 21
767.749953
  0
LINE
  5
49
100
AcDbEntity
  8
M1
  6
CONTINUOUS
370
25
 62
     7
100
AcDbLine
 10
428.866243
 20
773.792464
 11
413.866243
 21
773.792464
  0
LINE
  5
4A
100
AcDbEntity
  8
M1
  6
CONTINUOUS
370
25
 62
     7
100
AcDbLine
 10
805.220613
 20
908.792464
 11
886.220613
 21
908.792464
  0
LINE
  5
4B
100
AcDbEntity
  8
M1
  6
CONTINUOUS
370
25
 62
     7
100
AcDbLine
 10
956.220613
 20
833.292464
 11
956.220613
 21
822.292464
  0
LINE
  5
4C
100
AcDbEntity
  8
M1
  6
CONTINUOUS
370
25
 62
     7
100
AcDbLine
 10
888.720613
 20
890.292464
 11
905.720613
 21
890.292464
  0
LINE
  5
4D
100
AcDbEntity
  8
M1
  6
CONTINUOUS
370
25
 62
     7
100
AcDbLine
 10
892.220613
 20
884.292464
 11
892.220613
 21
866.292464
  0
LINE
  5
4E
100
AcDbEntity
  8
M1
  6
CONTINUOUS
370
25
 62
     7
100
AcDbLine
 10
908.720613
 20
887.292464
 11
908.720613
 21
840.08647
  0
LINE
  5
4F
100
AcDbEntity
  8
M1
  6
CONTINUOUS
370
25
 62
     7
100
AcDbLine
 10
892.220613
 20
866.292464
 11
896.720613
 21
866.292464
  0
LINE
  5
50
100
AcDbEntity
  8
M1
  6
CONTINUOUS
370
25
 62
     7
100
AcDbLine
 10
894.220613
 20
826.292464
 11
921.220613
 21
826.292464
  0
LINE
  5
51
100
AcDbEntity
  8
M1
  6
CONTINUOUS
370
25
 62
     7
100
AcDbLine
 10
928.220613
 20
826.292464
 11
928.220613
 21
796.292464
  0
LINE
  5
52
100
AcDbEntity
  8
M1
  6
CONTINUOUS
370
25
 62
     7
100
AcDbLine
 10
921.220613
 20
826.292464
 11
921.220613
 21
796.292464
  0
LINE
  5
53
100
AcDbEntity
  8
M1
  6
CONTINUOUS
370
25
 62
     7
100
AcDbLine
 10
921.220613
 20
821.292464
 11
928.220613
 21
821.292464
  0
LINE
  5
54
100
AcDbEntity
  8
M1
  6
CONTINUOUS
370
25
 62
     7
100
AcDbLine
 10
893.220613
 20
817.149886
 11
901.839021
 21
817.149886
  0
LINE
  5
55
100
AcDbEntity
  8
M1
  6
CONTINUOUS
370
25
 62
     7
100
AcDbLine
 10
893.220613
 20
805.535445
 11
901.724824
 21
805.535445
  0
LINE
  5
56
100
AcDbEntity
  8
M1
  6
CONTINUOUS
370
25
 62
     7
100
AcDbLine
 10
951.688752
 20
819.491439
 11
951.688752
 21
802.725447
  0
LINE
  5
57
100
AcDbEntity
  8
M1
  6
CONTINUOUS
370
25
 62
     7
100
AcDbLine
 10
932.419954
 20
819.491439
 11
932.419954
 21
802.725447
  0
LINE
  5
58
100
AcDbEntity
  8
M1
  6
CONTINUOUS
370
25
 62
     7
100
AcDbLine
 10
916.518647
 20
819.491439
 11
916.518647
 21
802.725447
  0
LINE
  5
59
100
AcDbEntity
  8
M1
  6
CONTINUOUS
370
25
 62
     7
100
AcDbLine
 10
897.156404
 20
819.491439
 11
897.156404
 21
802.257186
  0
LINE
  5
5A
100
AcDbEntity
  8
M1
  6
CONTINUOUS
370
25
 62
     7
100
AcDbLine
 10
928.220613
 20
817.149886
 11
936.817415
 21
817.149886
  0
LINE
  5
5B
100
AcDbEntity
  8
M1
  6
CONTINUOUS
370
25
 62
     7
100
AcDbLine
 10
928.220613
 20
805.535445
 11
936.707246
 21
805.535445
  0
LINE
  5
5C
100
AcDbEntity
  8
M1
  6
CONTINUOUS
370
25
 62
     7
100
AcDbLine
 10
947.291353
 20
817.149886
 11
956.220613
 21
817.149886
  0
LINE
  5
5D
100
AcDbEntity
  8
M1
  6
CONTINUOUS
370
25
 62
     7
100
AcDbLine
 10
947.40146
 20
805.535445
 11
956.220613
 21
805.535445
  0
LINE
  5
5E
100
AcDbEntity
  8
M1
  6
CONTINUOUS
370
25
 62
     7
100
AcDbLine
 10
911.929536
 20
817.149886
 11
921.220613
 21
817.149886
  0
LINE
  5
5F
100
AcDbEntity
  8
M1
  6
CONTINUOUS
370
25
 62
     7
100
AcDbLine
 10
912.043855
 20
805.535445
 11
921.220613
 21
805.535445
  0
LINE
  5
60
100
AcDbEntity
  8
M1
  6
CONTINUOUS
370
25
 62
     7
100
AcDbLine
 10
921.220613
 20
801.320571
 11
928.220613
 21
801.320571
  0
LINE
  5
61
100
AcDbEntity
  8
M1
  6
CONTINUOUS
370
25
 62
     7
100
AcDbLine
 10
928.220613
 20
826.292464
 11
955.220613
 21
826.292464
  0
LINE
  5
62
100
AcDbEntity
  8
M1
  6
CONTINUOUS
370
25
 62
     7
100
AcDbLine
 10
956.220613
 20
822.292464
 11
956.220613
 21
797.792464
  0
LINE
  5
63
100
AcDbEntity
  8
M1
  6
CONTINUOUS
370
25
 62
     7
100
AcDbLine
 10
897.220613
 20
796.292464
 11
954.720613
 21
796.292464
  0
LINE
  5
64
100
AcDbEntity
  8
M1
  6
CONTINUOUS
370
25
 62
     7
100
AcDbLine
 10
799.220613
 20
884.292464
 11
799.220613
 21
867.792464
  0
LINE
  5
65
100
AcDbEntity
  8
M1
  6
CONTINUOUS
370
25
 62
     7
100
AcDbLine
 10
810.220613
 20
861.292464
 11
881.220613
 21
861.292464
  0
LINE
  5
66
100
AcDbEntity
  8
M1
  6
CONTINUOUS
370
25
 62
     7
100
AcDbLine
 10
803.220613
 20
906.792464
 11
803.220613
 21
884.292464
  0
LINE
  5
67
100
AcDbEntity
  8
M1
  6
CONTINUOUS
370
25
 62
     7
100
AcDbLine
 10
799.220613
 20
884.292464
 11
803.220613
 21
884.292464
  0
LINE
  5
68
100
AcDbEntity
  8
M1
  6
CONTINUOUS
370
25
 62
     7
100
AcDbLine
 10
799.220613
 20
884.292464
 11
803.220613
 21
884.292464
  0
LINE
  5
69
100
AcDbEntity
  8
M1
  6
CONTINUOUS
370
25
 62
     7
100
AcDbLine
 10
888.220613
 20
884.292464
 11
892.220613
 21
884.292464
  0
LINE
  5
6A
100
AcDbEntity
  8
M1
  6
CONTINUOUS
370
25
 62
     7
100
AcDbLine
 10
799.22043
 20
867.792342
 11
810.22043
 21
861.292342
  0
LINE
  5
6B
100
AcDbEntity
  8
M1
  6
CONTINUOUS
370
25
 62
     7
100
AcDbLine
 10
888.220613
 20
906.792464
 11
888.220613
 21
884.292464
  0
LINE
  5
6C
100
AcDbEntity
  8
M1
  6
CONTINUOUS
370
25
 62
     7
100
AcDbLine
 10
881.220735
 20
861.292281
 11
892.220857
 21
867.792281
  0
LINE
  5
6D
100
AcDbEntity
  8
M1
  6
CONTINUOUS
370
25
 62
     7
100
AcDbLine
 10
803.220857
 20
906.792342
 11
805.220735
 21
908.792342
  0
LINE
  5
6E
100
AcDbEntity
  8
M1
  6
CONTINUOUS
370
25
 62
     7
100
AcDbLine
 10
886.220613
 20
908.792342
 11
888.220613
 21
906.792281
  0
LINE
  5
6F
100
AcDbEntity
  8
M1
  6
CONTINUOUS
370
25
 62
     7
100
AcDbLine
 10
817.720613
 20
847.792464
 11
873.720613
 21
847.792464
  0
LINE
  5
70
100
AcDbEntity
  8
M1
  6
CONTINUOUS
370
25
 62
     7
100
AcDbLine
 10
874.720613
 20
846.792464
 11
874.720613
 21
844.78044
  0
LINE
  5
71
100
AcDbEntity
  8
M1
  6
CONTINUOUS
370
25
 62
     7
100
AcDbLine
 10
816.720613
 20
846.792464
 11
816.720613
 21
844.78044
  0
LINE
  5
72
100
AcDbEntity
  8
M1
  6
CONTINUOUS
370
25
 62
     7
100
AcDbLine
 10
849.720613
 20
821.812361
 11
849.720613
 21
801.292464
  0
LINE
  5
73
100
AcDbEntity
  8
M1
  6
CONTINUOUS
370
25
 62
     7
100
AcDbLine
 10
841.720613
 20
821.812361
 11
841.720613
 21
801.292464
  0
LINE
  5
74
100
AcDbEntity
  8
M1
  6
CONTINUOUS
370
25
 62
     7
100
AcDbLine
 10
817.905305
 20
842.391951
 11
839.746003
 21
825.792952
  0
LINE
  5
75
100
AcDbEntity
  8
M1
  6
CONTINUOUS
370
25
 62
     7
100
AcDbLine
 10
851.695527
 20
825.79283
 11
873.536104
 21
842.391768
  0
LINE
  5
76
100
AcDbEntity
  8
M1
  6
CONTINUOUS
370
25
 62
     7
100
AcDbLine
 10
796.720613
 20
860.292464
 11
887.720613
 21
860.292464
  0
LINE
  5
77
100
AcDbEntity
  8
M1
  6
CONTINUOUS
370
25
 62
     7
100
AcDbLine
 10
862.220613
 20
822.292464
 11
862.220613
 21
781.342452
  0
LINE
  5
78
100
AcDbEntity
  8
M1
  6
CONTINUOUS
370
25
 62
     7
100
AcDbLine
 10
881.220613
 20
860.292464
 11
881.220613
 21
848.792464
  0
LINE
  5
79
100
AcDbEntity
  8
M1
  6
CONTINUOUS
370
25
 62
     7
100
AcDbLine
 10
810.220613
 20
848.792464
 11
881.220613
 21
848.792464
  0
LINE
  5
7A
100
AcDbEntity
  8
M1
  6
CONTINUOUS
370
25
 62
     7
100
AcDbLine
 10
785.720613
 20
890.292464
 11
803.220613
 21
890.292464
  0
LINE
  5
7B
100
AcDbEntity
  8
M1
  6
CONTINUOUS
370
25
 62
     7
100
AcDbLine
 10
782.720613
 20
887.292464
 11
782.720613
 21
827.650069
  0
LINE
  5
7C
100
AcDbEntity
  8
M1
  6
CONTINUOUS
370
25
 62
     7
100
AcDbLine
 10
796.720613
 20
867.792464
 11
799.220613
 21
867.792464
  0
LINE
  5
7D
100
AcDbEntity
  8
M1
  6
CONTINUOUS
370
25
 62
     7
100
AcDbLine
 10
841.720613
 20
801.292464
 11
849.720613
 21
801.292464
  0
LINE
  5
7E
100
AcDbEntity
  8
M1
  6
CONTINUOUS
370
25
 62
     7
100
AcDbLine
 10
861.220613
 20
821.878279
 11
861.220613
 21
781.292464
  0
LINE
  5
7F
100
AcDbEntity
  8
M1
  6
CONTINUOUS
370
25
 62
     7
100
AcDbLine
 10
857.220735
 20
827.292342
 11
862.220735
 21
822.292342
  0
LINE
  5
80
100
AcDbEntity
  8
M1
  6
CONTINUOUS
370
25
 62
     7
100
AcDbLine
 10
856.513521
 20
826.58525
 11
861.220613
 21
821.878157
  0
LINE
  5
81
100
AcDbEntity
  8
M1
  6
CONTINUOUS
370
25
 62
     7
100
AcDbLine
 10
857.220735
 20
827.292342
 11
856.513643
 21
826.58525
  0
LINE
  5
82
100
AcDbEntity
  8
M1
  6
CONTINUOUS
370
25
 62
     7
100
AcDbLine
 10
810.220613
 20
860.292464
 11
810.220613
 21
848.792464
  0
LINE
  5
83
100
AcDbEntity
  8
M1
  6
CONTINUOUS
370
25
 62
     7
100
AcDbLine
 10
796.720613
 20
860.292464
 11
796.720613
 21
821.292464
  0
LINE
  5
84
100
AcDbEntity
  8
M1
  6
CONTINUOUS
370
25
 62
     7
100
AcDbLine
 10
813.220613
 20
848.792464
 11
813.220613
 21
827.292464
  0
LINE
  5
85
100
AcDbEntity
  8
M1
  6
CONTINUOUS
370
25
 62
     7
100
AcDbLine
 10
821.720613
 20
822.292464
 11
821.720613
 21
790.292464
  0
LINE
  5
86
100
AcDbEntity
  8
M1
  6
CONTINUOUS
370
25
 62
     7
100
AcDbLine
 10
813.220613
 20
827.292342
 11
821.720613
 21
819.292342
  0
LINE
  5
87
100
AcDbEntity
  8
M1
  6
CONTINUOUS
370
25
 62
     7
100
AcDbLine
 10
817.920625
 20
797.292464
 11
821.720613
 21
797.292464
  0
LINE
  5
88
100
AcDbEntity
  8
M1
  6
CONTINUOUS
370
25
 62
     7
100
AcDbLine
 10
815.720613
 20
810.292464
 11
815.720613
 21
791.292464
  0
LINE
  5
89
100
AcDbEntity
  8
M1
  6
CONTINUOUS
370
25
 62
     7
100
AcDbLine
 10
817.920625
 20
797.292464
 11
817.920625
 21
790.292464
  0
LINE
  5
8A
100
AcDbEntity
  8
M1
  6
CONTINUOUS
370
25
 62
     7
100
AcDbLine
 10
796.720613
 20
821.292464
 11
803.720613
 21
821.292464
  0
LINE
  5
8B
100
AcDbEntity
  8
M1
  6
CONTINUOUS
370
25
 62
     7
100
AcDbLine
 10
803.720613
 20
821.292586
 11
815.720613
 21
810.292586
  0
LINE
  5
8C
100
AcDbEntity
  8
M1
  6
CONTINUOUS
370
25
 62
     7
100
AcDbLine
 10
817.920625
 20
797.292464
 11
821.720613
 21
790.292464
  0
LINE
  5
8D
100
AcDbEntity
  8
M1
  6
CONTINUOUS
370
25
 62
     7
100
AcDbLine
 10
821.720552
 20
797.292647
 11
817.920503
 21
790.292556
  0
LINE
  5
8E
100
AcDbEntity
  8
M1
  6
CONTINUOUS
370
25
 62
     7
100
AcDbLine
 10
815.720613
 20
791.292464
 11
817.920625
 21
791.292464
  0
LINE
  5
8F
100
AcDbEntity
  8
M1
  6
CONTINUOUS
370
25
 62
     7
100
AcDbLine
 10
822.720613
 20
821.878279
 11
822.720613
 21
790.292464
  0
LINE
  5
90
100
AcDbEntity
  8
M1
  6
CONTINUOUS
370
25
 62
     7
100
AcDbLine
 10
821.720857
 20
822.292281
 11
829.720857
 21
830.292281
  0
LINE
  5
91
100
AcDbEntity
  8
M1
  6
CONTINUOUS
370
25
 62
     7
100
AcDbLine
 10
822.720735
 20
821.878035
 11
830.427949
 21
829.58525
  0
LINE
  5
92
100
AcDbEntity
  8
M1
  6
CONTINUOUS
370
25
 62
     7
100
AcDbLine
 10
829.720613
 20
830.292342
 11
830.427705
 21
829.585189
  0
LINE
  5
93
100
AcDbEntity
  8
M1
  6
CONTINUOUS
370
25
 62
     7
100
AcDbLine
 10
780.220613
 20
886.684737
 11
780.220613
 21
865.90013
  0
LINE
  5
94
100
AcDbEntity
  8
M1
  6
CONTINUOUS
370
25
 62
     7
100
AcDbLine
 10
780.220613
 20
885.492476
 11
782.720613
 21
885.492476
  0
LINE
  5
95
100
AcDbEntity
  8
M1
  6
CONTINUOUS
370
25
 62
     7
100
AcDbLine
 10
782.720613
 20
867.092452
 11
780.220613
 21
867.092452
  0
LINE
  5
96
100
AcDbEntity
  8
M1
  6
CONTINUOUS
370
25
 62
     7
100
AcDbLine
 10
780.220857
 20
876.292342
 11
782.720857
 21
878.876448
  0
LINE
  5
97
100
AcDbEntity
  8
M1
  6
CONTINUOUS
370
25
 62
     7
100
AcDbLine
 10
782.720613
 20
876.292342
 11
780.220613
 21
873.915938
  0
LINE
  5
98
100
AcDbEntity
  8
M1
  6
CONTINUOUS
370
25
 62
     7
100
AcDbLine
 10
772.720613
 20
884.488631
 11
772.720613
 21
868.096236
  0
LINE
  5
99
100
AcDbEntity
  8
M1
  6
CONTINUOUS
370
25
 62
     7
100
AcDbLine
 10
918.720613
 20
884.488631
 11
918.720613
 21
868.096236
  0
LINE
  5
9A
100
AcDbEntity
  8
M1
  6
CONTINUOUS
370
25
 62
     7
100
AcDbLine
 10
908.720735
 20
876.292281
 11
911.220613
 21
878.668441
  0
LINE
  5
9B
100
AcDbEntity
  8
M1
  6
CONTINUOUS
370
25
 62
     7
100
AcDbLine
 10
911.220918
 20
876.292281
 11
908.720918
 21
873.708174
  0
LINE
  5
9C
100
AcDbEntity
  8
M1
  6
CONTINUOUS
370
25
 62
     7
100
AcDbLine
 10
908.720613
 20
867.092452
 11
911.220613
 21
867.092452
  0
LINE
  5
9D
100
AcDbEntity
  8
M1
  6
CONTINUOUS
370
25
 62
     7
100
AcDbLine
 10
911.220613
 20
885.492476
 11
908.720613
 21
885.492476
  0
LINE
  5
9E
100
AcDbEntity
  8
M1
  6
CONTINUOUS
370
25
 62
     7
100
AcDbLine
 10
911.220613
 20
886.684737
 11
911.220613
 21
865.90013
  0
LINE
  5
9F
100
AcDbEntity
  8
M1
  6
CONTINUOUS
370
13
 62
     7
100
AcDbLine
 10
1012.016023
 20
741.292464
 11
989.72165
 21
741.292464
  0
LINE
  5
A0
100
AcDbEntity
  8
M1
  6
CONTINUOUS
370
25
 62
     7
100
AcDbLine
 10
1326.247423
 20
773.792464
 11
1341.247331
 21
773.792464
  0
LINE
  5
A1
100
AcDbEntity
  8
M1
  6
CONTINUOUS
370
25
 62
     7
100
AcDbLine
 10
1326.247423
 20
773.792464
 11
1326.247423
 21
767.749953
  0
LINE
  5
A2
100
AcDbEntity
  8
M1
  6
CONTINUOUS
370
25
 62
     7
100
AcDbLine
 10
1341.247331
 20
773.792464
 11
1341.247331
 21
767.749953
  0
LINE
  5
A3
100
AcDbEntity
  8
M1
  6
CONTINUOUS
370
25
 62
     7
100
AcDbLine
 10
401.316194
 20
854.880233
 11
401.316194
 21
815.434188
  0
LINE
  5
A4
100
AcDbEntity
  8
M1
  6
CONTINUOUS
370
25
 62
     7
100
AcDbLine
 10
333.021272
 20
815.450057
 11
367.183259
 21
795.727065
  0
LINE
  5
A5
100
AcDbEntity
  8
M1
  6
CONTINUOUS
370
25
 62
     7
100
AcDbLine
 10
406.366243
 20
814.777144
 11
406.366243
 21
812.003035
  0
LINE
  5
A6
100
AcDbEntity
  8
M1
  6
CONTINUOUS
370
25
 62
     7
100
AcDbLine
 10
436.366243
 20
814.777144
 11
436.366243
 21
812.003035
  0
LINE
  5
A7
100
AcDbEntity
  8
M1
  6
CONTINUOUS
370
13
 62
     7
100
AcDbLine
 10
347.573274
 20
783.896956
 11
364.939241
 21
773.870772
  0
LINE
  5
A8
100
AcDbEntity
  8
M1
  6
CONTINUOUS
370
25
 62
     7
100
AcDbLine
 10
365.226228
 20
791.025344
 11
367.629182
 21
789.63835
  0
LINE
  5
A9
100
AcDbEntity
  8
M1
  6
CONTINUOUS
370
25
 62
     7
100
AcDbLine
 10
350.226228
 20
765.044448
 11
352.629182
 21
763.657454
  0
LINE
  5
AA
100
AcDbEntity
  8
M1
  6
CONTINUOUS
370
25
 62
     7
100
AcDbLine
 10
312.971223
 20
701.861953
 11
347.13321
 21
721.584944
  0
LINE
  5
AB
100
AcDbEntity
  8
M1
  6
CONTINUOUS
370
25
 62
     7
100
AcDbLine
 10
312.971223
 20
780.722548
 11
347.13321
 21
760.999465
  0
LINE
  5
AC
100
AcDbEntity
  8
M1
  6
CONTINUOUS
370
13
 62
     7
100
AcDbLine
 10
347.573274
 20
698.687667
 11
364.939241
 21
708.713973
  0
LINE
  5
AD
100
AcDbEntity
  8
M1
  6
CONTINUOUS
370
25
 62
     7
100
AcDbLine
 10
350.228181
 20
717.540847
 11
352.629182
 21
718.927474
  0
LINE
  5
AE
100
AcDbEntity
  8
M1
  6
CONTINUOUS
370
25
 62
     7
100
AcDbLine
 10
365.226228
 20
691.559371
 11
367.629182
 21
692.946547
  0
LINE
  5
AF
100
AcDbEntity
  8
M1
  6
CONTINUOUS
370
25
 62
     7
100
AcDbLine
 10
401.316194
 20
627.704665
 11
401.316194
 21
667.150771
  0
LINE
  5
B0
100
AcDbEntity
  8
M1
  6
CONTINUOUS
370
25
 62
     7
100
AcDbLine
 10
333.021272
 20
667.134566
 11
367.183259
 21
686.85765
  0
LINE
  5
B1
100
AcDbEntity
  8
M1
  6
CONTINUOUS
370
25
 62
     7
100
AcDbLine
 10
406.366243
 20
667.807753
 11
406.366243
 21
670.581771
  0
LINE
  5
B2
100
AcDbEntity
  8
M1
  6
CONTINUOUS
370
25
 62
     7
100
AcDbLine
 10
436.366243
 20
667.807753
 11
436.366243
 21
670.581771
  0
LINE
  5
B3
100
AcDbEntity
  8
M1
  6
CONTINUOUS
370
25
 62
     7
100
AcDbLine
 10
509.711213
 20
667.134566
 11
475.550203
 21
686.85765
  0
LINE
  5
B4
100
AcDbEntity
  8
M1
  6
CONTINUOUS
370
25
 62
     7
100
AcDbLine
 10
441.416169
 20
627.704665
 11
441.416169
 21
667.150771
  0
LINE
  5
B5
100
AcDbEntity
  8
M1
  6
CONTINUOUS
370
13
 62
     7
100
AcDbLine
 10
495.159211
 20
698.687972
 11
477.793245
 21
708.714247
  0
LINE
  5
B6
100
AcDbEntity
  8
M1
  6
CONTINUOUS
370
25
 62
     7
100
AcDbLine
 10
477.505281
 20
691.560073
 11
475.103181
 21
692.946852
  0
LINE
  5
B7
100
AcDbEntity
  8
M1
  6
CONTINUOUS
370
25
 62
     7
100
AcDbLine
 10
492.507234
 20
717.540053
 11
490.103181
 21
718.927565
  0
LINE
  5
B8
100
AcDbEntity
  8
M1
  6
CONTINUOUS
370
25
 62
     7
100
AcDbLine
 10
529.761201
 20
780.722274
 11
495.600251
 21
760.99916
  0
LINE
  5
B9
100
AcDbEntity
  8
M1
  6
CONTINUOUS
370
25
 62
     7
100
AcDbLine
 10
529.761201
 20
701.862258
 11
495.600251
 21
721.585372
  0
LINE
  5
BA
100
AcDbEntity
  8
M1
  6
CONTINUOUS
370
13
 62
     7
100
AcDbLine
 10
495.159211
 20
783.897261
 11
477.793245
 21
773.870955
  0
LINE
  5
BB
100
AcDbEntity
  8
M1
  6
CONTINUOUS
370
25
 62
     7
100
AcDbLine
 10
492.504182
 20
765.044051
 11
490.103181
 21
763.657759
  0
LINE
  5
BC
100
AcDbEntity
  8
M1
  6
CONTINUOUS
370
25
 62
     7
100
AcDbLine
 10
477.506257
 20
791.026046
 11
475.103181
 21
789.638472
  0
LINE
  5
BD
100
AcDbEntity
  8
M1
  6
CONTINUOUS
370
25
 62
     7
100
AcDbLine
 10
441.416169
 20
854.880233
 11
441.416169
 21
815.434188
  0
LINE
  5
BE
100
AcDbEntity
  8
M1
  6
CONTINUOUS
370
25
 62
     7
100
AcDbLine
 10
509.710237
 20
815.451277
 11
475.549226
 21
795.728163
  0
LINE
  5
BF
100
AcDbEntity
  8
M1
  6
CONTINUOUS
370
25
 62
     7
100
AcDbLine
 10
413.122224
 20
782.725356
 11
411.836213
 21
779.709273
  0
LINE
  5
C0
100
AcDbEntity
  8
M1
  6
CONTINUOUS
370
25
 62
     7
100
AcDbLine
 10
429.610261
 20
782.725173
 11
430.895173
 21
779.709151
  0
LINE
  5
C1
100
AcDbEntity
  8
M1
  6
CONTINUOUS
370
25
 62
     7
100
AcDbLine
 10
419.866243
 20
784.416365
 11
419.866243
 21
776.510573
  0
LINE
  5
C2
100
AcDbEntity
  8
M1
  6
CONTINUOUS
370
25
 62
     7
100
AcDbLine
 10
422.866243
 20
784.416365
 11
422.866243
 21
776.510573
  0
LINE
  5
C3
100
AcDbEntity
  8
M1
  6
CONTINUOUS
370
25
 62
     7
100
AcDbLine
 10
898.720613
 20
864.292464
 11
898.720613
 21
834.002181
  0
LINE
  5
C4
100
AcDbEntity
  8
M1
  6
CONTINUOUS
370
25
 62
     7
100
AcDbLine
 10
913.510347
 20
835.090865
 11
956.220735
 21
833.292586
  0
LINE
  5
C5
100
AcDbEntity
  8
M1
  6
CONTINUOUS
370
25
 62
     7
100
AcDbLine
 10
893.220613
 20
833.292464
 11
893.220613
 21
827.292464
  0
LINE
  5
C6
100
AcDbEntity
  8
M1
  6
CONTINUOUS
370
25
 62
     7
100
AcDbLine
 10
893.220613
 20
833.292586
 11
898.720552
 21
834.002242
  0
LINE
  5
C7
100
AcDbEntity
  8
M1
  6
CONTINUOUS
370
25
 62
     7
100
AcDbLine
 10
955.220735
 20
826.292464
 11
956.220857
 21
827.292342
  0
LINE
  5
C8
100
AcDbEntity
  8
M1
  6
CONTINUOUS
370
25
 62
     7
100
AcDbLine
 10
893.220613
 20
827.292464
 11
893.220613
 21
794.292464
  0
LINE
  5
C9
100
AcDbEntity
  8
M1
  6
CONTINUOUS
370
25
 62
     7
100
AcDbLine
 10
893.220613
 20
827.292342
 11
894.220613
 21
826.292342
  0
LINE
  5
CA
100
AcDbEntity
  8
M1
  6
CONTINUOUS
370
25
 62
     7
100
AcDbLine
 10
887.720613
 20
860.292464
 11
887.720613
 21
821.292464
  0
LINE
  5
CB
100
AcDbEntity
  8
M1
  6
CONTINUOUS
370
25
 62
     7
100
AcDbLine
 10
877.720613
 20
848.792464
 11
877.720613
 21
827.292464
  0
LINE
  5
CC
100
AcDbEntity
  8
M1
  6
CONTINUOUS
370
25
 62
     7
100
AcDbLine
 10
870.720613
 20
803.792464
 11
870.720613
 21
796.292464
  0
LINE
  5
CD
100
AcDbEntity
  8
M1
  6
CONTINUOUS
370
25
 62
     7
100
AcDbLine
 10
868.720613
 20
796.292464
 11
868.720613
 21
784.942458
  0
LINE
  5
CE
100
AcDbEntity
  8
M1
  6
CONTINUOUS
370
25
 62
     7
100
AcDbLine
 10
868.720613
 20
796.292464
 11
889.220613
 21
796.292464
  0
LINE
  5
CF
100
AcDbEntity
  8
M1
  6
CONTINUOUS
370
25
 62
     7
100
AcDbLine
 10
862.221101
 20
810.242049
 11
877.720918
 21
827.292037
  0
LINE
  5
D0
100
AcDbEntity
  8
M1
  6
CONTINUOUS
370
25
 62
     7
100
AcDbLine
 10
870.720735
 20
803.792342
 11
887.720613
 21
821.292342
  0
LINE
  5
D1
100
AcDbEntity
  8
M1
  6
CONTINUOUS
370
25
 62
     7
100
AcDbLine
 10
994.220613
 20
806.292464
 11
994.220613
 21
799.292464
  0
LINE
  5
D2
100
AcDbEntity
  8
M1
  6
CONTINUOUS
370
25
 62
     7
100
AcDbLine
 10
866.220613
 20
784.942458
 11
866.220613
 21
781.292464
  0
LINE
  5
D3
100
AcDbEntity
  8
M1
  6
CONTINUOUS
370
25
 62
     7
100
AcDbLine
 10
868.720613
 20
796.292464
 11
868.720613
 21
784.942458
  0
LINE
  5
D4
100
AcDbEntity
  8
M1
  6
CONTINUOUS
370
25
 62
     7
100
AcDbLine
 10
862.220613
 20
784.942458
 11
868.720613
 21
784.942458
  0
LINE
  5
D5
100
AcDbEntity
  8
M1
  6
CONTINUOUS
370
25
 62
     7
100
AcDbLine
 10
866.220613
 20
782.292464
 11
962.920625
 21
782.292464
  0
LINE
  5
D6
100
AcDbEntity
  8
M1
  6
CONTINUOUS
370
25
 62
     7
100
AcDbLine
 10
889.220613
 20
804.272933
 11
889.220613
 21
794.292464
  0
LINE
  5
D7
100
AcDbEntity
  8
M1
  6
CONTINUOUS
370
25
 62
     7
100
AcDbLine
 10
889.220613
 20
794.292464
 11
893.220613
 21
794.292464
  0
LINE
  5
D8
100
AcDbEntity
  8
M1
  6
CONTINUOUS
370
25
 62
     7
100
AcDbLine
 10
975.220613
 20
851.292464
 11
985.220613
 21
851.292464
  0
LINE
  5
D9
100
AcDbEntity
  8
M1
  6
CONTINUOUS
370
25
 62
     7
100
AcDbLine
 10
985.220613
 20
851.292464
 11
985.220613
 21
806.292464
  0
LINE
  5
DA
100
AcDbEntity
  8
M1
  6
CONTINUOUS
370
25
 62
     7
100
AcDbLine
 10
985.220613
 20
806.292464
 11
994.220613
 21
806.292464
  0
LINE
  5
DB
100
AcDbEntity
  8
M1
  6
CONTINUOUS
370
25
 62
     7
100
AcDbLine
 10
975.220613
 20
851.292464
 11
975.220613
 21
826.292464
  0
LINE
  5
DC
100
AcDbEntity
  8
M1
  6
CONTINUOUS
370
25
 62
     7
100
AcDbLine
 10
970.220613
 20
893.792464
 11
970.220613
 21
893.292464
  0
LINE
  5
DD
100
AcDbEntity
  8
M1
  6
CONTINUOUS
370
25
 62
     7
100
AcDbLine
 10
970.220613
 20
826.292464
 11
975.220613
 21
826.292464
  0
LINE
  5
DE
100
AcDbEntity
  8
M1
  6
CONTINUOUS
370
25
 62
     7
100
AcDbLine
 10
956.221223
 20
801.291945
 11
970.221101
 21
816.291976
  0
LINE
  5
DF
100
AcDbEntity
  8
M1
  6
CONTINUOUS
370
25
 62
     7
100
AcDbLine
 10
968.720613
 20
798.792464
 11
987.020601
 21
798.792464
  0
LINE
  5
E0
100
AcDbEntity
  8
M1
  6
CONTINUOUS
370
25
 62
     7
100
AcDbLine
 10
967.220613
 20
797.292464
 11
967.220613
 21
778.792464
  0
LINE
  5
E1
100
AcDbEntity
  8
M1
  6
CONTINUOUS
370
25
 62
     7
100
AcDbLine
 10
962.920625
 20
784.89247
 11
962.920625
 21
781.292464
  0
LINE
  5
E2
100
AcDbEntity
  8
M1
  6
CONTINUOUS
370
25
 62
     7
100
AcDbLine
 10
962.920625
 20
784.89247
 11
966.220613
 21
784.89247
  0
LINE
  5
E3
100
AcDbEntity
  8
M1
  6
CONTINUOUS
370
25
 62
     7
100
AcDbLine
 10
966.220613
 20
791.292464
 11
967.220613
 21
791.292464
  0
LINE
  5
E4
100
AcDbEntity
  8
M1
  6
CONTINUOUS
370
25
 62
     7
100
AcDbLine
 10
966.220613
 20
791.292464
 11
966.220613
 21
781.292464
  0
LINE
  5
E5
100
AcDbEntity
  8
M1
  6
CONTINUOUS
370
25
 62
     7
100
AcDbLine
 10
991.220613
 20
800.792464
 11
991.220613
 21
790.248061
  0
LINE
  5
E6
100
AcDbEntity
  8
M1
  6
CONTINUOUS
370
25
 62
     7
100
AcDbLine
 10
987.020601
 20
800.792464
 11
987.020601
 21
778.792464
  0
LINE
  5
E7
100
AcDbEntity
  8
M1
  6
CONTINUOUS
370
25
 62
     7
100
AcDbLine
 10
987.020601
 20
800.792464
 11
991.220613
 21
800.792464
  0
LINE
  5
E8
100
AcDbEntity
  8
M1
  6
CONTINUOUS
370
25
 62
     7
100
AcDbLine
 10
991.220613
 20
798.792464
 11
993.720613
 21
798.792464
  0
LINE
  5
E9
100
AcDbEntity
  8
M1
  6
CONTINUOUS
370
25
 62
     7
100
AcDbLine
 10
993.720857
 20
798.792464
 11
994.220735
 21
799.292464
  0
LINE
  5
EA
100
AcDbEntity
  8
M1
  6
CONTINUOUS
370
25
 62
     7
100
AcDbLine
 10
889.220613
 20
804.272933
 11
893.220613
 21
804.272933
  0
LINE
  5
EB
100
AcDbEntity
  8
M1
  6
CONTINUOUS
370
25
 62
     7
100
AcDbLine
 10
775.220613
 20
777.792464
 11
775.220613
 21
769.792464
  0
LINE
  5
EC
100
AcDbEntity
  8
M1
  6
CONTINUOUS
370
25
 62
     7
100
AcDbLine
 10
775.220613
 20
773.792464
 11
994.220613
 21
773.792464
  0
LINE
  5
ED
100
AcDbEntity
  8
M1
  6
CONTINUOUS
370
25
 62
     7
100
AcDbLine
 10
919.220613
 20
769.292464
 11
919.220613
 21
741.292464
  0
LINE
  5
EE
100
AcDbEntity
  8
M1
  6
CONTINUOUS
370
25
 62
     7
100
AcDbLine
 10
850.220613
 20
769.292464
 11
850.220613
 21
741.292464
  0
LINE
  5
EF
100
AcDbEntity
  8
M1
  6
CONTINUOUS
370
25
 62
     7
100
AcDbLine
 10
775.220613
 20
768.792464
 11
850.220613
 21
768.792464
  0
LINE
  5
F0
100
AcDbEntity
  8
M1
  6
CONTINUOUS
370
25
 62
     7
100
AcDbLine
 10
850.220613
 20
769.292464
 11
919.220613
 21
769.292464
  0
LINE
  5
F1
100
AcDbEntity
  8
M1
  6
CONTINUOUS
370
25
 62
     7
100
AcDbLine
 10
966.220613
 20
778.792464
 11
993.220552
 21
778.792464
  0
LINE
  5
F2
100
AcDbEntity
  8
M1
  6
CONTINUOUS
370
25
 62
     7
100
AcDbLine
 10
965.220613
 20
781.292464
 11
965.220613
 21
779.792464
  0
LINE
  5
F3
100
AcDbEntity
  8
M1
  6
CONTINUOUS
370
25
 62
     7
100
AcDbLine
 10
809.220613
 20
808.792464
 11
809.220613
 21
778.792464
  0
LINE
  5
F4
100
AcDbEntity
  8
M1
  6
CONTINUOUS
370
25
 62
     7
100
AcDbLine
 10
776.220613
 20
778.792464
 11
781.220613
 21
778.792464
  0
LINE
  5
F5
100
AcDbEntity
  8
M1
  6
CONTINUOUS
370
25
 62
     7
100
AcDbLine
 10
831.720613
 20
820.292464
 11
841.720613
 21
820.292464
  0
LINE
  5
F6
100
AcDbEntity
  8
M1
  6
CONTINUOUS
370
25
 62
     7
100
AcDbLine
 10
831.720613
 20
822.292464
 11
831.720613
 21
820.292464
  0
LINE
  5
F7
100
AcDbEntity
  8
M1
  6
CONTINUOUS
370
25
 62
     7
100
AcDbLine
 10
829.720613
 20
824.292464
 11
829.720613
 21
818.292464
  0
LINE
  5
F8
100
AcDbEntity
  8
M1
  6
CONTINUOUS
370
25
 62
     7
100
AcDbLine
 10
829.720613
 20
818.292464
 11
830.720613
 21
818.292464
  0
LINE
  5
F9
100
AcDbEntity
  8
M1
  6
CONTINUOUS
370
25
 62
     7
100
AcDbLine
 10
830.720613
 20
818.292464
 11
830.720613
 21
790.292464
  0
LINE
  5
FA
100
AcDbEntity
  8
M1
  6
CONTINUOUS
370
25
 62
     7
100
AcDbLine
 10
809.220613
 20
790.292464
 11
830.720613
 21
790.292464
  0
LINE
  5
FB
100
AcDbEntity
  8
M1
  6
CONTINUOUS
370
25
 62
     7
100
AcDbLine
 10
849.220613
 20
801.292464
 11
849.220613
 21
778.792464
  0
LINE
  5
FC
100
AcDbEntity
  8
M1
  6
CONTINUOUS
370
25
 62
     7
100
AcDbLine
 10
849.220613
 20
778.792464
 11
859.220613
 21
778.792464
  0
LINE
  5
FD
100
AcDbEntity
  8
M1
  6
CONTINUOUS
370
25
 62
     7
100
AcDbLine
 10
859.220613
 20
781.292464
 11
859.220613
 21
778.792464
  0
LINE
  5
FE
100
AcDbEntity
  8
M1
  6
CONTINUOUS
370
25
 62
     7
100
AcDbLine
 10
859.220613
 20
781.292464
 11
966.220613
 21
781.292464
  0
LINE
  5
FF
100
AcDbEntity
  8
M1
  6
CONTINUOUS
370
25
 62
     7
100
AcDbLine
 10
919.220613
 20
768.792464
 11
994.220613
 21
768.792464
  0
LINE
  5
100
100
AcDbEntity
  8
M1
  6
CONTINUOUS
370
25
 62
     7
100
AcDbLine
 10
781.220613
 20
777.292464
 11
783.920625
 21
777.292464
  0
LINE
  5
101
100
AcDbEntity
  8
M1
  6
CONTINUOUS
370
25
 62
     7
100
AcDbLine
 10
781.220613
 20
784.416365
 11
781.220613
 21
777.292464
  0
LINE
  5
102
100
AcDbEntity
  8
M1
  6
CONTINUOUS
370
25
 62
     7
100
AcDbLine
 10
783.920625
 20
784.416365
 11
783.920625
 21
778.792464
  0
LINE
  5
103
100
AcDbEntity
  8
M1
  6
CONTINUOUS
370
25
 62
     7
100
AcDbLine
 10
829.720613
 20
824.292342
 11
831.720613
 21
822.292342
  0
LINE
  5
104
100
AcDbEntity
  8
M1
  6
CONTINUOUS
370
25
 62
     7
100
AcDbLine
 10
783.920625
 20
778.792464
 11
809.220613
 21
778.792464
  0
LINE
  5
105
100
AcDbEntity
  8
M1
  6
CONTINUOUS
370
25
 62
     7
100
AcDbLine
 10
775.220735
 20
777.792372
 11
776.220735
 21
778.792372
  0
LINE
  5
106
100
AcDbEntity
  8
M1
  6
CONTINUOUS
370
25
 62
     7
100
AcDbLine
 10
994.220613
 20
777.792464
 11
994.220613
 21
741.292464
  0
LINE
  5
107
100
AcDbEntity
  8
M1
  6
CONTINUOUS
370
25
 62
     7
100
AcDbLine
 10
993.220613
 20
778.792464
 11
994.220613
 21
777.792372
  0
LINE
  5
108
100
AcDbEntity
  8
M1
  6
CONTINUOUS
370
25
 62
     7
100
AcDbLine
 10
962.920625
 20
784.892745
 11
966.220613
 21
781.292647
  0
LINE
  5
109
100
AcDbEntity
  8
M1
  6
CONTINUOUS
370
25
 62
     7
100
AcDbLine
 10
966.220308
 20
784.892745
 11
962.920442
 21
781.292647
  0
LINE
  5
10A
100
AcDbEntity
  8
M1
  6
CONTINUOUS
370
25
 62
     7
100
AcDbLine
 10
967.220613
 20
792.736769
 11
972.836946
 21
792.736769
  0
LINE
  5
10B
100
AcDbEntity
  8
M1
  6
CONTINUOUS
370
25
 62
     7
100
AcDbLine
 10
967.220613
 20
784.284163
 11
972.876741
 21
784.284163
  0
LINE
  5
10C
100
AcDbEntity
  8
M1
  6
CONTINUOUS
370
25
 62
     7
100
AcDbLine
 10
984.657808
 20
794.759047
 11
984.657808
 21
782.464156
  0
LINE
  5
10D
100
AcDbEntity
  8
M1
  6
CONTINUOUS
370
25
 62
     7
100
AcDbLine
 10
969.480134
 20
794.759047
 11
969.480134
 21
782.464156
  0
LINE
  5
10E
100
AcDbEntity
  8
M1
  6
CONTINUOUS
370
25
 62
     7
100
AcDbLine
 10
981.451204
 20
792.736769
 11
987.020601
 21
792.736769
  0
LINE
  5
10F
100
AcDbEntity
  8
M1
  6
CONTINUOUS
370
25
 62
     7
100
AcDbLine
 10
981.411348
 20
784.284163
 11
987.020601
 21
784.284163
  0
LINE
  5
110
100
AcDbEntity
  8
M1
  6
CONTINUOUS
370
25
 62
     7
100
AcDbLine
 10
808.220613
 20
808.792464
 11
809.220613
 21
808.792464
  0
LINE
  5
111
100
AcDbEntity
  8
M1
  6
CONTINUOUS
370
25
 62
     7
100
AcDbLine
 10
808.220613
 20
808.792464
 11
808.220613
 21
778.792464
  0
LINE
  5
112
100
AcDbEntity
  8
M1
  6
CONTINUOUS
370
25
 62
     7
100
AcDbLine
 10
776.220613
 20
806.292464
 11
776.220613
 21
798.792464
  0
LINE
  5
113
100
AcDbEntity
  8
M1
  6
CONTINUOUS
370
25
 62
     7
100
AcDbLine
 10
780.220613
 20
825.650069
 11
780.220613
 21
806.292464
  0
LINE
  5
114
100
AcDbEntity
  8
M1
  6
CONTINUOUS
370
25
 62
     7
100
AcDbLine
 10
794.720613
 20
865.792464
 11
794.720613
 21
810.17845
  0
LINE
  5
115
100
AcDbEntity
  8
M1
  6
CONTINUOUS
370
25
 62
     7
100
AcDbLine
 10
806.720613
 20
804.292464
 11
806.720613
 21
793.792464
  0
LINE
  5
116
100
AcDbEntity
  8
M1
  6
CONTINUOUS
370
25
 62
     7
100
AcDbLine
 10
776.220613
 20
798.792464
 11
779.720613
 21
798.792464
  0
LINE
  5
117
100
AcDbEntity
  8
M1
  6
CONTINUOUS
370
25
 62
     7
100
AcDbLine
 10
776.220613
 20
806.292464
 11
780.220613
 21
806.292464
  0
LINE
  5
118
100
AcDbEntity
  8
M1
  6
CONTINUOUS
370
25
 62
     7
100
AcDbLine
 10
796.018403
 20
808.305831
 11
806.720613
 21
804.292586
  0
LINE
  5
119
100
AcDbEntity
  8
M1
  6
CONTINUOUS
370
25
 62
     7
100
AcDbLine
 10
775.220613
 20
777.792464
 11
775.220613
 21
741.292464
  0
LINE
  5
11A
100
AcDbEntity
  8
M1
  6
CONTINUOUS
370
25
 62
     7
100
AcDbLine
 10
779.720613
 20
792.070357
 11
783.920625
 21
792.070357
  0
LINE
  5
11B
100
AcDbEntity
  8
M1
  6
CONTINUOUS
370
25
 62
     7
100
AcDbLine
 10
781.220613
 20
784.416365
 11
783.920625
 21
784.416365
  0
LINE
  5
11C
100
AcDbEntity
  8
M1
  6
CONTINUOUS
370
25
 62
     7
100
AcDbLine
 10
780.220613
 20
825.650069
 11
780.720613
 21
825.650069
  0
LINE
  5
11D
100
AcDbEntity
  8
M1
  6
CONTINUOUS
370
25
 62
     7
100
AcDbLine
 10
803.720613
 20
798.792464
 11
803.720613
 21
778.792464
  0
LINE
  5
11E
100
AcDbEntity
  8
M1
  6
CONTINUOUS
370
25
 62
     7
100
AcDbLine
 10
779.720613
 20
800.792464
 11
779.720613
 21
792.070357
  0
LINE
  5
11F
100
AcDbEntity
  8
M1
  6
CONTINUOUS
370
25
 62
     7
100
AcDbLine
 10
783.920625
 20
800.792464
 11
783.920625
 21
777.292464
  0
LINE
  5
120
100
AcDbEntity
  8
M1
  6
CONTINUOUS
370
25
 62
     7
100
AcDbLine
 10
803.720613
 20
793.792464
 11
806.720613
 21
793.792464
  0
LINE
  5
121
100
AcDbEntity
  8
M1
  6
CONTINUOUS
370
25
 62
     7
100
AcDbLine
 10
783.920625
 20
798.792464
 11
803.720613
 21
798.792464
  0
LINE
  5
122
100
AcDbEntity
  8
M1
  6
CONTINUOUS
370
25
 62
     7
100
AcDbLine
 10
779.720613
 20
800.792464
 11
783.920625
 21
800.792464
  0
LINE
  5
123
100
AcDbEntity
  8
M1
  6
CONTINUOUS
370
25
 62
     7
100
AcDbLine
 10
783.920625
 20
792.94786
 11
790.218049
 21
792.94786
  0
LINE
  5
124
100
AcDbEntity
  8
M1
  6
CONTINUOUS
370
25
 62
     7
100
AcDbLine
 10
783.920625
 20
784.313948
 11
790.283601
 21
784.313948
  0
LINE
  5
125
100
AcDbEntity
  8
M1
  6
CONTINUOUS
370
25
 62
     7
100
AcDbLine
 10
786.63791
 20
794.153762
 11
786.63791
 21
783.108168
  0
LINE
  5
126
100
AcDbEntity
  8
M1
  6
CONTINUOUS
370
25
 62
     7
100
AcDbLine
 10
801.128511
 20
794.153762
 11
801.128511
 21
782.866957
  0
LINE
  5
127
100
AcDbEntity
  8
M1
  6
CONTINUOUS
370
25
 62
     7
100
AcDbLine
 10
797.42325
 20
792.94786
 11
803.720613
 21
792.94786
  0
LINE
  5
128
100
AcDbEntity
  8
M1
  6
CONTINUOUS
370
25
 62
     7
100
AcDbLine
 10
797.357637
 20
784.313948
 11
803.720613
 21
784.313948
  0
LINE
  5
129
100
AcDbEntity
  8
M1
  6
CONTINUOUS
370
25
 62
     7
100
AcDbLine
 10
862.220613
 20
784.942366
 11
866.220613
 21
781.292372
  0
LINE
  5
12A
100
AcDbEntity
  8
M1
  6
CONTINUOUS
370
25
 62
     7
100
AcDbLine
 10
866.220857
 20
784.942244
 11
862.220857
 21
781.292372
  0
LINE
  5
12B
100
AcDbEntity
  8
M1
  6
CONTINUOUS
370
13
 62
     7
100
AcDbLine
 10
772.729402
 20
816.292464
 11
801.727449
 21
816.292464
  0
LINE
  5
12C
100
AcDbEntity
  8
M1
  6
CONTINUOUS
370
13
 62
     7
100
AcDbLine
 10
780.220613
 20
821.292464
 11
794.720613
 21
821.292464
  0
LINE
  5
12D
100
AcDbEntity
  8
M1
  6
CONTINUOUS
370
25
 62
     7
100
AcDbLine
 10
780.220613
 20
820.792464
 11
794.720613
 21
820.792464
  0
LINE
  5
12E
100
AcDbEntity
  8
M1
  6
CONTINUOUS
370
13
 62
     7
100
AcDbLine
 10
780.220613
 20
811.292464
 11
794.720613
 21
811.292464
  0
LINE
  5
12F
100
AcDbEntity
  8
M1
  6
CONTINUOUS
370
25
 62
     7
100
AcDbLine
 10
985.220613
 20
811.792464
 11
966.020601
 21
811.792464
  0
LINE
  5
130
100
AcDbEntity
  8
M1
  6
CONTINUOUS
370
13
 62
     7
100
AcDbLine
 10
970.220613
 20
821.292464
 11
985.220613
 21
821.292464
  0
LINE
  5
131
100
AcDbEntity
  8
M1
  6
CONTINUOUS
370
25
 62
     7
100
AcDbLine
 10
970.220613
 20
820.792464
 11
985.220613
 21
820.792464
  0
LINE
  5
132
100
AcDbEntity
  8
M1
  6
CONTINUOUS
370
25
 62
     7
100
AcDbLine
 10
794.720613
 20
811.792464
 11
780.220613
 21
811.792464
  0
LINE
  5
133
100
AcDbEntity
  8
M1
  6
CONTINUOUS
370
13
 62
     7
100
AcDbLine
 10
965.554048
 20
811.292464
 11
985.220613
 21
811.292464
  0
LINE
  5
134
100
AcDbEntity
  8
M1
  6
CONTINUOUS
370
13
 62
     7
100
AcDbLine
 10
961.33426
 20
816.292464
 11
992.454011
 21
816.292464
  0
LINE
  5
135
100
AcDbEntity
  8
M1
  6
CONTINUOUS
370
25
 62
     7
100
AcDbLine
 10
970.220613
 20
893.792464
 11
976.220613
 21
893.792464
  0
LINE
  5
136
100
AcDbEntity
  8
M1
  6
CONTINUOUS
370
25
 62
     7
100
AcDbLine
 10
976.220613
 20
893.792464
 11
976.220613
 21
851.292464
  0
LINE
  5
137
100
AcDbEntity
  8
M1
  6
CONTINUOUS
370
25
 62
     7
100
AcDbLine
 10
923.220613
 20
885.292464
 11
923.220613
 21
851.184371
  0
LINE
  5
138
100
AcDbEntity
  8
M1
  6
CONTINUOUS
370
25
 62
     7
100
AcDbLine
 10
929.220613
 20
891.292464
 11
968.220613
 21
891.292464
  0
LINE
  5
139
100
AcDbEntity
  8
M1
  6
CONTINUOUS
370
25
 62
     7
100
AcDbLine
 10
933.057039
 20
840.246138
 11
963.061921
 21
837.054183
  0
LINE
  5
13A
100
AcDbEntity
  8
M1
  6
CONTINUOUS
370
25
 62
     7
100
AcDbLine
 10
970.220613
 20
893.792464
 11
970.220613
 21
816.292464
  0
LINE
  5
13B
100
AcDbEntity
  8
M1
  6
CONTINUOUS
370
25
 62
     7
100
AcDbLine
 10
780.220613
 20
656.934859
 11
780.720613
 21
656.934859
  0
LINE
  5
13C
100
AcDbEntity
  8
M1
  6
CONTINUOUS
370
25
 62
     7
100
AcDbLine
 10
780.220613
 20
656.934859
 11
780.220613
 21
741.292464
  0
LINE
  5
13D
100
AcDbEntity
  8
M1
  6
CONTINUOUS
370
25
 62
     7
100
AcDbLine
 10
772.720613
 20
598.096267
 11
772.720613
 21
614.48857
  0
LINE
  5
13E
100
AcDbEntity
  8
M1
  6
CONTINUOUS
370
25
 62
     7
100
AcDbLine
 10
782.720735
 20
606.292372
 11
780.220735
 21
603.915969
  0
LINE
  5
13F
100
AcDbEntity
  8
M1
  6
CONTINUOUS
370
25
 62
     7
100
AcDbLine
 10
780.220918
 20
606.292372
 11
782.720918
 21
608.876448
  0
LINE
  5
140
100
AcDbEntity
  8
M1
  6
CONTINUOUS
370
25
 62
     7
100
AcDbLine
 10
782.720613
 20
615.492446
 11
780.220613
 21
615.492446
  0
LINE
  5
141
100
AcDbEntity
  8
M1
  6
CONTINUOUS
370
25
 62
     7
100
AcDbLine
 10
780.220613
 20
597.092452
 11
782.720613
 21
597.092452
  0
LINE
  5
142
100
AcDbEntity
  8
M1
  6
CONTINUOUS
370
25
 62
     7
100
AcDbLine
 10
780.220613
 20
595.900161
 11
780.220613
 21
616.684767
  0
LINE
  5
143
100
AcDbEntity
  8
M1
  6
CONTINUOUS
370
25
 62
     7
100
AcDbLine
 10
782.720613
 20
595.292464
 11
782.720613
 21
741.292464
  0
LINE
  5
144
100
AcDbEntity
  8
M1
  6
CONTINUOUS
370
25
 62
     7
100
AcDbLine
 10
785.720613
 20
592.292464
 11
803.220613
 21
592.292464
  0
LINE
  5
145
100
AcDbEntity
  8
M1
  6
CONTINUOUS
370
25
 62
     7
100
AcDbLine
 10
886.220613
 20
573.792372
 11
888.220613
 21
575.792372
  0
LINE
  5
146
100
AcDbEntity
  8
M1
  6
CONTINUOUS
370
25
 62
     7
100
AcDbLine
 10
803.220613
 20
575.792372
 11
805.220613
 21
573.792372
  0
LINE
  5
147
100
AcDbEntity
  8
M1
  6
CONTINUOUS
370
25
 62
     7
100
AcDbLine
 10
805.220613
 20
573.792464
 11
886.220613
 21
573.792464
  0
LINE
  5
148
100
AcDbEntity
  8
M1
  6
CONTINUOUS
370
25
 62
     7
100
AcDbLine
 10
888.220613
 20
575.792464
 11
888.220613
 21
741.292464
  0
LINE
  5
149
100
AcDbEntity
  8
M1
  6
CONTINUOUS
370
25
 62
     7
100
AcDbLine
 10
803.220613
 20
575.792464
 11
803.220613
 21
741.292464
  0
LINE
  5
14A
100
AcDbEntity
  8
M1
  6
CONTINUOUS
370
25
 62
     7
100
AcDbLine
 10
888.720613
 20
592.292464
 11
905.720613
 21
592.292464
  0
LINE
  5
14B
100
AcDbEntity
  8
M1
  6
CONTINUOUS
370
25
 62
     7
100
AcDbLine
 10
911.220613
 20
595.900161
 11
911.220613
 21
616.684767
  0
LINE
  5
14C
100
AcDbEntity
  8
M1
  6
CONTINUOUS
370
25
 62
     7
100
AcDbLine
 10
911.220613
 20
597.092452
 11
908.720613
 21
597.092452
  0
LINE
  5
14D
100
AcDbEntity
  8
M1
  6
CONTINUOUS
370
25
 62
     7
100
AcDbLine
 10
908.720613
 20
615.492446
 11
911.220613
 21
615.492446
  0
LINE
  5
14E
100
AcDbEntity
  8
M1
  6
CONTINUOUS
370
25
 62
     7
100
AcDbLine
 10
911.220613
 20
606.292464
 11
908.720613
 21
603.708266
  0
LINE
  5
14F
100
AcDbEntity
  8
M1
  6
CONTINUOUS
370
25
 62
     7
100
AcDbLine
 10
908.720735
 20
606.29225
 11
911.220735
 21
608.668563
  0
LINE
  5
150
100
AcDbEntity
  8
M1
  6
CONTINUOUS
370
25
 62
     7
100
AcDbLine
 10
918.720613
 20
598.096267
 11
918.720613
 21
614.48857
  0
LINE
  5
151
100
AcDbEntity
  8
M1
  6
CONTINUOUS
370
25
 62
     7
100
AcDbLine
 10
908.720613
 20
595.292464
 11
908.720613
 21
741.292464
  0
LINE
  5
152
100
AcDbEntity
  8
M1
  6
CONTINUOUS
370
25
 62
     7
100
AcDbLine
 10
918.720613
 20
665.596267
 11
918.720613
 21
681.98857
  0
LINE
  5
153
100
AcDbEntity
  8
M1
  6
CONTINUOUS
370
25
 62
     7
100
AcDbLine
 10
908.720735
 20
673.79225
 11
911.220857
 21
676.168654
  0
LINE
  5
154
100
AcDbEntity
  8
M1
  6
CONTINUOUS
370
25
 62
     7
100
AcDbLine
 10
911.220857
 20
673.792159
 11
908.720857
 21
671.208052
  0
LINE
  5
155
100
AcDbEntity
  8
M1
  6
CONTINUOUS
370
25
 62
     7
100
AcDbLine
 10
908.720613
 20
682.992446
 11
911.220613
 21
682.992446
  0
LINE
  5
156
100
AcDbEntity
  8
M1
  6
CONTINUOUS
370
25
 62
     7
100
AcDbLine
 10
911.220613
 20
664.592452
 11
908.720613
 21
664.592452
  0
LINE
  5
157
100
AcDbEntity
  8
M1
  6
CONTINUOUS
370
25
 62
     7
100
AcDbLine
 10
911.220613
 20
663.400161
 11
911.220613
 21
684.184767
  0
LINE
  5
158
100
AcDbEntity
  8
M1
  6
CONTINUOUS
370
25
 62
     7
100
AcDbLine
 10
780.220613
 20
664.592452
 11
780.220613
 21
682.992446
  0
LINE
  5
159
100
AcDbEntity
  8
M1
  6
CONTINUOUS
370
25
 62
     7
100
AcDbLine
 10
780.220613
 20
664.592452
 11
782.720613
 21
664.592452
  0
LINE
  5
15A
100
AcDbEntity
  8
M1
  6
CONTINUOUS
370
25
 62
     7
100
AcDbLine
 10
782.720613
 20
682.992446
 11
780.220613
 21
682.992446
  0
LINE
  5
15B
100
AcDbEntity
  8
M1
  6
CONTINUOUS
370
25
 62
     7
100
AcDbLine
 10
780.220857
 20
673.792067
 11
782.720918
 21
676.376265
  0
LINE
  5
15C
100
AcDbEntity
  8
M1
  6
CONTINUOUS
370
25
 62
     7
100
AcDbLine
 10
782.720613
 20
673.792464
 11
780.220613
 21
671.41606
  0
LINE
  5
15D
100
AcDbEntity
  8
M1
  6
CONTINUOUS
370
25
 62
     7
100
AcDbLine
 10
772.720613
 20
665.596267
 11
772.720613
 21
681.98857
  0
LINE
  5
15E
100
AcDbEntity
  8
M1
  6
CONTINUOUS
370
13
 62
     7
100
AcDbLine
 10
1259.316316
 20
784.265364
 11
1276.049043
 21
774.604659
  0
LINE
  5
15F
100
AcDbEntity
  8
M1
  6
CONTINUOUS
370
13
 62
     7
100
AcDbLine
 10
1262.101137
 20
699.927565
 11
1276.048829
 21
707.980361
  0
LINE
  5
160
100
AcDbEntity
  8
M1
  6
CONTINUOUS
370
13
 62
     7
100
AcDbLine
 10
1405.393525
 20
699.927657
 11
1391.445726
 21
707.980361
  0
LINE
  5
161
100
AcDbEntity
  8
M1
  6
CONTINUOUS
370
13
 62
     7
100
AcDbLine
 10
1405.393327
 20
782.657363
 11
1391.445634
 21
774.604659
  0
LINE
  5
162
100
AcDbEntity
  8
M1
  6
CONTINUOUS
370
25
 62
     7
100
AcDbLine
 10
775.220613
 20
777.792464
 11
775.220613
 21
741.292464
  0
LINE
  5
163
100
AcDbEntity
  8
M1
  6
CONTINUOUS
370
25
 62
     7
100
AcDbLine
 10
968.220613
 20
851.492476
 11
968.220613
 21
836.092452
  0
LINE
  5
164
100
AcDbEntity
  8
M1
  6
CONTINUOUS
370
25
 62
     7
100
AcDbLine
 10
968.220613
 20
851.492476
 11
970.220613
 21
851.492476
  0
LINE
  5
165
100
AcDbEntity
  8
M1
  6
CONTINUOUS
370
25
 62
     7
100
AcDbLine
 10
970.220613
 20
836.092452
 11
968.220613
 21
836.092452
  0
LINE
  5
166
100
AcDbEntity
  8
M1
  6
CONTINUOUS
370
25
 62
     7
100
AcDbLine
 10
968.220735
 20
843.792281
 11
970.220735
 21
845.73503
  0
LINE
  5
167
100
AcDbEntity
  8
M1
  6
CONTINUOUS
370
25
 62
     7
100
AcDbLine
 10
970.220857
 20
843.792342
 11
968.220857
 21
841.763472
  0
LINE
  5
168
100
AcDbEntity
  8
M1
  6
CONTINUOUS
370
25
 62
     7
100
AcDbLine
 10
962.920625
 20
849.545272
 11
962.920625
 21
838.039656
  0
LINE
  5
169
100
AcDbEntity
  8
M1
  6
CONTINUOUS
370
25
 62
     7
100
AcDbLine
 10
803.720613
 20
786.394271
 11
808.220613
 21
786.394271
  0
LINE
  5
16A
100
AcDbEntity
  8
M1
  6
CONTINUOUS
370
25
 62
     7
100
AcDbLine
 10
987.020601
 20
790.248061
 11
991.220613
 21
790.248061
  0
LINE
  5
16B
100
AcDbEntity
  8
M1
  6
CONTINUOUS
370
13
 62
     7
100
AcDbLine
 10
421.366243
 20
759.064162
 11
421.366243
 21
723.835768
  0
LINE
  5
16C
100
AcDbEntity
  8
M1
  6
CONTINUOUS
370
13
 62
     7
100
AcDbLine
 10
439.03824
 20
741.292464
 11
403.870271
 21
741.292464
  0
LINE
  5
16D
100
AcDbEntity
  8
M1
  6
CONTINUOUS
370
13
 62
     7
100
AcDbLine
 10
421.366243
 20
806.504866
 11
421.366243
 21
827.641829
  0
LINE
  5
16E
100
AcDbEntity
  8
M1
  6
CONTINUOUS
370
13
 62
     7
100
AcDbLine
 10
421.366243
 20
656.854964
 11
421.366243
 21
675.488662
  0
LINE
  5
16F
100
AcDbEntity
  8
M1
  6
CONTINUOUS
370
13
 62
     7
100
AcDbLine
 10
1318.253831
 20
741.292464
 11
1349.204728
 21
741.292464
  0
LINE
  5
170
100
AcDbEntity
  8
M1
  6
CONTINUOUS
370
13
 62
     7
100
AcDbLine
 10
1333.747331
 20
673.710372
 11
1333.747331
 21
655.320967
  0
LINE
  5
171
100
AcDbEntity
  8
M1
  6
CONTINUOUS
370
13
 62
     7
100
AcDbLine
 10
1333.747331
 20
761.208052
 11
1333.747331
 21
722.598372
  0
LINE
  5
172
100
AcDbEntity
  8
M1
  6
CONTINUOUS
370
13
 62
     7
100
AcDbLine
 10
1333.747331
 20
827.943587
 11
1333.747331
 21
807.181441
  0
LINE
  5
173
100
AcDbEntity
  8
M1
  6
CONTINUOUS
370
13
 62
     7
100
AcDbLine
 10
778.473543
 20
741.292464
 11
758.006501
 21
741.292464
  0
LINE
  5
174
100
AcDbEntity
  8
M1
  6
CONTINUOUS
370
25
 62
     7
100
AcDbLine
 10
773.309053
 20
886.684737
 11
780.220613
 21
886.684737
  0
LINE
  5
175
100
AcDbEntity
  8
M1
  6
CONTINUOUS
370
25
 62
     7
100
AcDbLine
 10
773.309053
 20
865.90013
 11
780.220613
 21
865.90013
  0
LINE
  5
176
100
AcDbEntity
  8
M1
  6
CONTINUOUS
370
25
 62
     7
100
AcDbLine
 10
911.220613
 20
886.684737
 11
918.132112
 21
886.684737
  0
LINE
  5
177
100
AcDbEntity
  8
M1
  6
CONTINUOUS
370
25
 62
     7
100
AcDbLine
 10
911.220613
 20
865.90013
 11
918.132112
 21
865.90013
  0
LINE
  5
178
100
AcDbEntity
  8
M1
  6
CONTINUOUS
370
25
 62
     7
100
AcDbLine
 10
963.390352
 20
851.298079
 11
968.220613
 21
851.298079
  0
LINE
  5
179
100
AcDbEntity
  8
M1
  6
CONTINUOUS
370
25
 62
     7
100
AcDbLine
 10
963.39023
 20
836.286971
 11
968.220613
 21
836.286971
  0
LINE
  5
17A
100
AcDbEntity
  8
M1
  6
CONTINUOUS
370
25
 62
     7
100
AcDbLine
 10
773.309053
 20
684.184767
 11
780.220613
 21
684.184767
  0
LINE
  5
17B
100
AcDbEntity
  8
M1
  6
CONTINUOUS
370
25
 62
     7
100
AcDbLine
 10
773.309053
 20
663.400161
 11
780.220613
 21
663.400161
  0
LINE
  5
17C
100
AcDbEntity
  8
M1
  6
CONTINUOUS
370
25
 62
     7
100
AcDbLine
 10
773.309053
 20
616.684767
 11
780.220613
 21
616.684767
  0
LINE
  5
17D
100
AcDbEntity
  8
M1
  6
CONTINUOUS
370
25
 62
     7
100
AcDbLine
 10
773.309053
 20
595.900161
 11
780.220613
 21
595.900161
  0
LINE
  5
17E
100
AcDbEntity
  8
M1
  6
CONTINUOUS
370
25
 62
     7
100
AcDbLine
 10
911.220613
 20
684.184767
 11
918.132112
 21
684.184767
  0
LINE
  5
17F
100
AcDbEntity
  8
M1
  6
CONTINUOUS
370
25
 62
     7
100
AcDbLine
 10
911.220613
 20
663.400161
 11
918.132112
 21
663.400161
  0
LINE
  5
180
100
AcDbEntity
  8
M1
  6
CONTINUOUS
370
25
 62
     7
100
AcDbLine
 10
911.220613
 20
616.684767
 11
918.132112
 21
616.684767
  0
LINE
  5
181
100
AcDbEntity
  8
M1
  6
CONTINUOUS
370
25
 62
     7
100
AcDbLine
 10
911.220613
 20
595.900161
 11
918.132112
 21
595.900161
  0
LINE
  5
182
100
AcDbEntity
  8
M1
  6
CONTINUOUS
370
25
 62
     7
100
AcDbLine
 10
888.220613
 20
893.860884
 11
891.819612
 21
893.860884
  0
LINE
  5
183
100
AcDbEntity
  8
M1
  6
CONTINUOUS
370
25
 62
     7
100
AcDbLine
 10
888.220613
 20
896.660933
 11
891.819612
 21
896.660933
  0
LINE
  5
184
100
AcDbEntity
  8
M1
  6
CONTINUOUS
370
25
 62
     7
100
AcDbLine
 10
894.819612
 20
899.660933
 11
894.819612
 21
910.024886
  0
LINE
  5
185
100
AcDbEntity
  8
M1
  6
CONTINUOUS
370
25
 62
     7
100
AcDbLine
 10
897.619539
 20
899.660933
 11
897.619539
 21
908.152877
  0
LINE
  5
186
100
AcDbEntity
  8
M1
  6
CONTINUOUS
370
25
 62
     7
100
AcDbLine
 10
894.819612
 20
913.697982
 11
894.819612
 21
919.216841
  0
LINE
  5
187
100
AcDbEntity
  8
M1
  6
CONTINUOUS
370
25
 62
     7
100
AcDbLine
 10
897.619539
 20
911.65483
 11
897.619539
 21
919.216841
  0
LINE
  5
188
100
AcDbEntity
  8
M1
  6
CONTINUOUS
370
25
 62
     7
100
AcDbLine
 10
894.819551
 20
913.697737
 11
897.619417
 21
911.654769
  0
LINE
  5
189
100
AcDbEntity
  8
M1
  6
CONTINUOUS
370
25
 62
     7
100
AcDbLine
 10
894.819551
 20
910.024947
 11
897.619417
 21
908.152938
  0
LINE
  5
18A
100
AcDbEntity
  8
M1
  6
CONTINUOUS
370
25
 62
     7
100
AcDbLine
 10
889.919526
 20
930.129073
 11
883.857454
 21
933.629134
  0
LINE
  5
18B
100
AcDbEntity
  8
M1
  6
CONTINUOUS
370
25
 62
     7
100
AcDbLine
 10
890.619417
 20
931.341964
 11
889.219453
 21
928.916976
  0
LINE
  5
18C
100
AcDbEntity
  8
M1
  6
CONTINUOUS
370
25
 62
     7
100
AcDbLine
 10
901.819612
 20
931.341841
 11
903.219636
 21
928.916854
  0
LINE
  5
18D
100
AcDbEntity
  8
M1
  6
CONTINUOUS
370
25
 62
     7
100
AcDbLine
 10
902.519441
 20
930.129256
 11
908.581453
 21
933.629134
  0
LINE
  5
18E
100
AcDbEntity
  8
M1
  6
CONTINUOUS
370
25
 62
     7
100
AcDbLine
 10
339.35428
 20
887.341475
 11
323.573274
 21
914.675277
  0
LINE
  5
18F
100
AcDbEntity
  8
M1
  6
CONTINUOUS
370
25
 62
     7
100
AcDbLine
 10
335.891267
 20
885.341536
 11
319.749177
 21
913.29814
  0
LINE
  5
190
100
AcDbEntity
  8
M1
  6
CONTINUOUS
370
25
 62
     7
100
AcDbLine
 10
317.415193
 20
931.341841
 11
319.147249
 21
930.341841
  0
LINE
  5
191
100
AcDbEntity
  8
M1
  6
CONTINUOUS
370
25
 62
     7
100
AcDbLine
 10
308.755281
 20
926.341964
 11
308.755281
 21
924.341964
  0
LINE
  5
192
100
AcDbEntity
  8
M1
  6
CONTINUOUS
370
25
 62
     7
100
AcDbLine
 10
318.281282
 20
930.841536
 11
320.781282
 21
935.171553
  0
LINE
  5
193
100
AcDbEntity
  8
M1
  6
CONTINUOUS
370
25
 62
     7
100
AcDbLine
 10
308.755281
 20
925.341964
 11
303.755281
 21
925.341964
  0
LINE
  5
194
100
AcDbEntity
  8
M1
  6
CONTINUOUS
370
25
 62
     7
100
AcDbLine
 10
317.415193
 20
921.342147
 11
320.241243
 21
916.446028
  0
LINE
  5
195
100
AcDbEntity
  8
M1
  6
CONTINUOUS
370
25
 62
     7
100
AcDbLine
 10
318.280183
 20
915.84294
 11
315.683259
 21
920.342086
  0
LINE
  5
196
100
AcDbEntity
  8
M1
  6
CONTINUOUS
370
25
 62
     7
100
AcDbLine
 10
322.20218
 20
917.048568
 11
319.146272
 21
922.34178
  0
LINE
  5
197
100
AcDbEntity
  8
M1
  6
CONTINUOUS
370
25
 62
     7
100
AcDbLine
 10
318.280183
 20
915.842147
 11
322.203279
 21
917.04814
  0
LINE
  5
198
100
AcDbEntity
  8
M1
  6
CONTINUOUS
370
25
 62
     7
100
AcDbLine
 10
319.749177
 20
913.298079
 11
323.573274
 21
914.675032
  0
LINE
  5
199
100
AcDbEntity
  8
M1
  6
CONTINUOUS
370
25
 62
     7
100
AcDbLine
 10
321.661287
 20
913.986129
 11
337.616243
 21
886.351973
  0
LINE
  5
19A
100
AcDbEntity
  8
M1
  6
CONTINUOUS
370
25
 62
     7
100
AcDbLine
 10
1412.649629
 20
881.955489
 11
1431.540429
 21
914.675154
  0
LINE
  5
19B
100
AcDbEntity
  8
M1
  6
CONTINUOUS
370
25
 62
     7
100
AcDbLine
 10
1416.017228
 20
879.789046
 11
1435.364229
 21
913.298079
  0
LINE
  5
19C
100
AcDbEntity
  8
M1
  6
CONTINUOUS
370
25
 62
     7
100
AcDbLine
 10
1437.698732
 20
931.34178
 11
1435.96663
 21
930.341658
  0
LINE
  5
19D
100
AcDbEntity
  8
M1
  6
CONTINUOUS
370
25
 62
     7
100
AcDbLine
 10
1446.358552
 20
926.341964
 11
1446.358552
 21
924.341964
  0
LINE
  5
19E
100
AcDbEntity
  8
M1
  6
CONTINUOUS
370
25
 62
     7
100
AcDbLine
 10
1436.832231
 20
930.84178
 11
1434.332231
 21
935.171736
  0
LINE
  5
19F
100
AcDbEntity
  8
M1
  6
CONTINUOUS
370
25
 62
     7
100
AcDbLine
 10
1446.358552
 20
925.341964
 11
1451.358552
 21
925.341964
  0
LINE
  5
1A0
100
AcDbEntity
  8
M1
  6
CONTINUOUS
370
25
 62
     7
100
AcDbLine
 10
1437.698427
 20
921.342086
 11
1434.87243
 21
916.446028
  0
LINE
  5
1A1
100
AcDbEntity
  8
M1
  6
CONTINUOUS
370
25
 62
     7
100
AcDbLine
 10
1436.833627
 20
915.84294
 11
1439.430627
 21
920.342086
  0
LINE
  5
1A2
100
AcDbEntity
  8
M1
  6
CONTINUOUS
370
25
 62
     7
100
AcDbLine
 10
1432.911332
 20
917.048873
 11
1435.967431
 21
922.342086
  0
LINE
  5
1A3
100
AcDbEntity
  8
M1
  6
CONTINUOUS
370
25
 62
     7
100
AcDbLine
 10
1436.83323
 20
915.842269
 11
1432.910333
 21
917.048262
  0
LINE
  5
1A4
100
AcDbEntity
  8
M1
  6
CONTINUOUS
370
25
 62
     7
100
AcDbLine
 10
1435.364633
 20
913.298079
 11
1431.540628
 21
914.674971
  0
LINE
  5
1A5
100
AcDbEntity
  8
M1
  6
CONTINUOUS
370
25
 62
     7
100
AcDbLine
 10
1433.452432
 20
913.985945
 11
1414.381334
 21
880.955489
  0
LINE
  5
1A6
100
AcDbEntity
  8
M1
  6
CONTINUOUS
370
25
 62
     7
100
AcDbLine
 10
775.220613
 20
741.292464
 11
775.220613
 21
684.184767
  0
LINE
  5
1A7
100
AcDbEntity
  8
M1
  6
CONTINUOUS
370
25
 62
     7
100
AcDbLine
 10
423.866243
 20
798.738051
 11
423.866243
 21
791.692458
  0
LINE
  5
1A8
100
AcDbEntity
  8
M1
  6
CONTINUOUS
370
25
 62
     7
100
AcDbLine
 10
425.866243
 20
789.692458
 11
429.366243
 21
789.692458
  0
LINE
  5
1A9
100
AcDbEntity
  8
M1
  6
CONTINUOUS
370
25
 62
     7
100
AcDbLine
 10
432.366243
 20
794.115645
 11
432.366243
 21
792.692458
  0
LINE
  5
1AA
100
AcDbEntity
  8
M1
  6
CONTINUOUS
370
25
 62
     7
100
AcDbLine
 10
418.866243
 20
798.738051
 11
418.866243
 21
791.692458
  0
LINE
  5
1AB
100
AcDbEntity
  8
M1
  6
CONTINUOUS
370
25
 62
     7
100
AcDbLine
 10
416.866243
 20
789.692458
 11
413.366243
 21
789.692458
  0
LINE
  5
1AC
100
AcDbEntity
  8
M1
  6
CONTINUOUS
370
25
 62
     7
100
AcDbLine
 10
410.366243
 20
794.115645
 11
410.366243
 21
792.692458
  0
LINE
  5
1AD
100
AcDbEntity
  8
M1
  6
CONTINUOUS
370
25
 62
     7
100
AcDbLine
 10
1344.747331
 20
794.115645
 11
1344.747331
 21
792.692458
  0
LINE
  5
1AE
100
AcDbEntity
  8
M1
  6
CONTINUOUS
370
25
 62
     7
100
AcDbLine
 10
1338.247331
 20
789.692458
 11
1341.747331
 21
789.692458
  0
LINE
  5
1AF
100
AcDbEntity
  8
M1
  6
CONTINUOUS
370
25
 62
     7
100
AcDbLine
 10
1336.247331
 20
798.738051
 11
1336.247331
 21
791.692458
  0
LINE
  5
1B0
100
AcDbEntity
  8
M1
  6
CONTINUOUS
370
25
 62
     7
100
AcDbLine
 10
1331.247331
 20
798.738051
 11
1331.247331
 21
791.692458
  0
LINE
  5
1B1
100
AcDbEntity
  8
M1
  6
CONTINUOUS
370
25
 62
     7
100
AcDbLine
 10
1329.247331
 20
789.692458
 11
1325.747331
 21
789.692458
  0
LINE
  5
1B2
100
AcDbEntity
  8
M1
  6
CONTINUOUS
370
25
 62
     7
100
AcDbLine
 10
1322.747331
 20
794.115645
 11
1322.747331
 21
792.692458
  0
CIRCLE
  5
1B3
100
AcDbEntity
  8
M1
  6
CONTINUOUS
370
25
 62
     7
100
AcDbCircle
 10
421.366243
 20
741.292464
 40
149.000061
  0
ARC
  5
1B4
100
AcDbEntity
  8
M1
  6
CONTINUOUS
370
25
 62
     7
100
AcDbCircle
 10
421.366243
 20
741.292464
 40
27.499977
100
AcDbArc
 50
105.826637
 51
434.173378
  0
ARC
  5
1B5
100
AcDbEntity
  8
M1
  6
CONTINUOUS
370
25
 62
     7
100
AcDbCircle
 10
905.720613
 20
887.292464
 40
3.0
100
AcDbArc
 50
0.0
 51
90.0
  0
CIRCLE
  5
1B6
100
AcDbEntity
  8
M1
  6
CONTINUOUS
370
25
 62
     7
100
AcDbCircle
 10
942.054353
 20
811.292464
 40
7.857056
  0
CIRCLE
  5
1B7
100
AcDbEntity
  8
M1
  6
CONTINUOUS
370
25
 62
     7
100
AcDbCircle
 10
906.884248
 20
811.292464
 40
7.730652
  0
ARC
  5
1B8
100
AcDbEntity
  8
M1
  6
CONTINUOUS
370
25
 62
     7
100
AcDbCircle
 10
917.220613
 20
800.292464
 40
4.0
100
AcDbArc
 50
270.0
 51
360.0
  0
ARC
  5
1B9
100
AcDbEntity
  8
M1
  6
CONTINUOUS
370
25
 62
     7
100
AcDbCircle
 10
917.220613
 20
822.292464
 40
4.0
100
AcDbArc
 50
0.0
 51
90.0
  0
ARC
  5
1BA
100
AcDbEntity
  8
M1
  6
CONTINUOUS
370
25
 62
     7
100
AcDbCircle
 10
932.220613
 20
822.292464
 40
4.0
100
AcDbArc
 50
90.0
 51
180.0
  0
ARC
  5
1BB
100
AcDbEntity
  8
M1
  6
CONTINUOUS
370
25
 62
     7
100
AcDbCircle
 10
932.220613
 20
800.292464
 40
4.0
100
AcDbArc
 50
180.0
 51
270.0
  0
ARC
  5
1BC
100
AcDbEntity
  8
M1
  6
CONTINUOUS
370
25
 62
     7
100
AcDbCircle
 10
952.220613
 20
800.292464
 40
4.0
100
AcDbArc
 50
270.0
 51
360.0
  0
ARC
  5
1BD
100
AcDbEntity
  8
M1
  6
CONTINUOUS
370
25
 62
     7
100
AcDbCircle
 10
952.220613
 20
822.292464
 40
4.0
100
AcDbArc
 50
0.0
 51
90.0
  0
ARC
  5
1BE
100
AcDbEntity
  8
M1
  6
CONTINUOUS
370
25
 62
     7
100
AcDbCircle
 10
817.720613
 20
846.792464
 40
1.0
100
AcDbArc
 50
90.0
 51
180.0
  0
ARC
  5
1BF
100
AcDbEntity
  8
M1
  6
CONTINUOUS
370
25
 62
     7
100
AcDbCircle
 10
873.720613
 20
846.792464
 40
1.0
100
AcDbArc
 50
0.0
 51
90.0
  0
ARC
  5
1C0
100
AcDbEntity
  8
M1
  6
CONTINUOUS
370
25
 62
     7
100
AcDbCircle
 10
819.720613
 20
844.78044
 40
3.0
100
AcDbArc
 50
180.0
 51
232.762901
  0
ARC
  5
1C1
100
AcDbEntity
  8
M1
  6
CONTINUOUS
370
25
 62
     7
100
AcDbCircle
 10
871.720613
 20
844.78044
 40
2.999902
100
AcDbArc
 50
307.236176
 51
360.000004
  0
ARC
  5
1C2
100
AcDbEntity
  8
M1
  6
CONTINUOUS
370
25
 62
     7
100
AcDbCircle
 10
836.720613
 20
821.812361
 40
5.0
100
AcDbArc
 50
0.0
 51
52.765144
  0
ARC
  5
1C3
100
AcDbEntity
  8
M1
  6
CONTINUOUS
370
25
 62
     7
100
AcDbCircle
 10
854.720613
 20
821.812361
 40
4.999955
100
AcDbArc
 50
127.234856
 51
180.0
  0
ARC
  5
1C4
100
AcDbEntity
  8
M1
  6
CONTINUOUS
370
25
 62
     7
100
AcDbCircle
 10
785.720613
 20
887.292464
 40
3.0
100
AcDbArc
 50
90.0
 51
180.0
  0
ARC
  5
1C5
100
AcDbEntity
  8
M1
  6
CONTINUOUS
370
25
 62
     7
100
AcDbCircle
 10
777.112947
 20
884.488631
 40
4.392322
100
AcDbArc
 50
150.000824
 51
209.999859
  0
ARC
  5
1C6
100
AcDbEntity
  8
M1
  6
CONTINUOUS
370
25
 62
     7
100
AcDbCircle
 10
803.603303
 20
876.292464
 40
30.882708
100
AcDbArc
 50
168.797134
 51
191.202873
  0
ARC
  5
1C7
100
AcDbEntity
  8
M1
  6
CONTINUOUS
370
25
 62
     7
100
AcDbCircle
 10
777.112947
 20
868.096236
 40
4.392383
100
AcDbArc
 50
149.999451
 51
209.999172
  0
ARC
  5
1C8
100
AcDbEntity
  8
M1
  6
CONTINUOUS
370
25
 62
     7
100
AcDbCircle
 10
914.32834
 20
868.096236
 40
4.392216
100
AcDbArc
 50
330.000031
 51
390.001347
  0
ARC
  5
1C9
100
AcDbEntity
  8
M1
  6
CONTINUOUS
370
25
 62
     7
100
AcDbCircle
 10
887.837922
 20
876.292464
 40
30.882647
100
AcDbArc
 50
348.797119
 51
371.202902
  0
ARC
  5
1CA
100
AcDbEntity
  8
M1
  6
CONTINUOUS
370
25
 62
     7
100
AcDbCircle
 10
914.32834
 20
884.488631
 40
4.392247
100
AcDbArc
 50
329.999329
 51
389.999954
  0
CIRCLE
  5
1CB
100
AcDbEntity
  8
M1
  6
CONTINUOUS
370
25
 62
     7
100
AcDbCircle
 10
421.366243
 20
876.292464
 40
8.0
  0
CIRCLE
  5
1CC
100
AcDbEntity
  8
M1
  6
CONTINUOUS
370
25
 62
     7
100
AcDbCircle
 10
538.280244
 20
808.792464
 40
7.999573
  0
CIRCLE
  5
1CD
100
AcDbEntity
  8
M1
  6
CONTINUOUS
370
25
 62
     7
100
AcDbCircle
 10
538.280244
 20
673.792464
 40
7.999573
  0
CIRCLE
  5
1CE
100
AcDbEntity
  8
M1
  6
CONTINUOUS
370
25
 62
     7
100
AcDbCircle
 10
421.366243
 20
606.292464
 40
8.0
  0
CIRCLE
  5
1CF
100
AcDbEntity
  8
M1
  6
CONTINUOUS
370
25
 62
     7
100
AcDbCircle
 10
304.453279
 20
673.792464
 40
8.0
  0
CIRCLE
  5
1D0
100
AcDbEntity
  8
M1
  6
CONTINUOUS
370
25
 62
     7
100
AcDbCircle
 10
304.453279
 20
808.792464
 40
8.0
  0
ARC
  5
1D1
100
AcDbEntity
  8
M1
  6
CONTINUOUS
370
25
 62
     7
100
AcDbCircle
 10
1333.747331
 20
741.292464
 40
167.500046
100
AcDbArc
 50
60.684185
 51
419.31596
  0
ARC
  5
1D2
100
AcDbEntity
  8
M1
  6
CONTINUOUS
370
25
 62
     7
100
AcDbCircle
 10
1333.747331
 20
741.292464
 40
27.499977
100
AcDbArc
 50
105.826637
 51
434.173378
  0
CIRCLE
  5
1D3
100
AcDbEntity
  8
M1
  6
CONTINUOUS
370
25
 62
     7
100
AcDbCircle
 10
1333.747331
 20
741.292464
 40
117.000015
  0
CIRCLE
  5
1D4
100
AcDbEntity
  8
M1
  6
CONTINUOUS
370
25
 62
     7
100
AcDbCircle
 10
421.366243
 20
741.292464
 40
167.500061
  0
ARC
  5
1D5
100
AcDbEntity
  8
M1
  6
CONTINUOUS
370
25
 62
     7
100
AcDbCircle
 10
421.366243
 20
741.292464
 40
125.000099
100
AcDbArc
 50
103.871429
 51
136.128559
  0
ARC
  5
1D6
100
AcDbEntity
  8
M1
  6
CONTINUOUS
370
13
 62
     7
100
AcDbCircle
 10
421.366243
 20
741.292464
 40
75.000015
100
AcDbArc
 50
81.901199
 51
97.958378
  0
ARC
  5
1D7
100
AcDbEntity
  8
M1
  6
CONTINUOUS
370
25
 62
     7
100
AcDbCircle
 10
421.366243
 20
816.292464
 40
15.076345
100
AcDbArc
 50
354.231476
 51
545.768524
  0
CIRCLE
  5
1D8
100
AcDbEntity
  8
M1
  6
CONTINUOUS
370
13
 62
     7
100
AcDbCircle
 10
421.366243
 20
816.292464
 40
5.0
  0
CIRCLE
  5
1D9
100
AcDbEntity
  8
M1
  6
CONTINUOUS
370
25
 62
     7
100
AcDbCircle
 10
421.366243
 20
816.292464
 40
4.5
  0
ARC
  5
1DA
100
AcDbEntity
  8
M1
  6
CONTINUOUS
370
25
 62
     7
100
AcDbCircle
 10
337.021272
 20
822.37834
 40
7.99992
100
AcDbArc
 50
136.128296
 51
239.999847
  0
ARC
  5
1DB
100
AcDbEntity
  8
M1
  6
CONTINUOUS
370
25
 62
     7
100
AcDbCircle
 10
393.316194
 20
854.880233
 40
8.0
100
AcDbArc
 50
0.0
 51
103.87149
  0
ARC
  5
1DC
100
AcDbEntity
  8
M1
  6
CONTINUOUS
370
25
 62
     7
100
AcDbCircle
 10
421.366243
 20
741.292464
 40
70.000122
100
AcDbArc
 50
112.063187
 51
127.937252
  0
ARC
  5
1DD
100
AcDbEntity
  8
M1
  6
CONTINUOUS
370
25
 62
     7
100
AcDbCircle
 10
421.366243
 20
741.292464
 40
64.999786
100
AcDbArc
 50
109.47068
 51
130.528826
  0
ARC
  5
1DE
100
AcDbEntity
  8
M1
  6
CONTINUOUS
370
25
 62
     7
100
AcDbCircle
 10
391.316194
 20
815.434188
 40
9.999884
100
AcDbArc
 50
292.061554
 51
359.999992
  0
ARC
  5
1DF
100
AcDbEntity
  8
M1
  6
CONTINUOUS
370
25
 62
     7
100
AcDbCircle
 10
372.183259
 20
804.387374
 40
10.000048
100
AcDbArc
 50
240.000153
 51
307.932487
  0
ARC
  5
1E0
100
AcDbEntity
  8
M1
  6
CONTINUOUS
370
25
 62
     7
100
AcDbCircle
 10
396.366243
 20
812.003035
 40
9.999901
100
AcDbArc
 50
289.469452
 51
360.000008
  0
ARC
  5
1E1
100
AcDbEntity
  8
M1
  6
CONTINUOUS
370
25
 62
     7
100
AcDbCircle
 10
446.366243
 20
812.003035
 40
10.0
100
AcDbArc
 50
180.0
 51
250.530556
  0
ARC
  5
1E2
100
AcDbEntity
  8
M1
  6
CONTINUOUS
370
25
 62
     7
100
AcDbCircle
 10
372.629182
 20
798.298445
 40
10.000021
100
AcDbArc
 50
240.000076
 51
310.527679
  0
ARC
  5
1E3
100
AcDbEntity
  8
M1
  6
CONTINUOUS
370
25
 62
     7
100
AcDbCircle
 10
347.629182
 20
754.997145
 40
10.000393
100
AcDbArc
 50
349.471588
 51
420.000145
  0
ARC
  5
1E4
100
AcDbEntity
  8
M1
  6
CONTINUOUS
370
25
 62
     7
100
AcDbCircle
 10
342.132234
 20
730.24565
 40
10.000021
100
AcDbArc
 50
299.999939
 51
367.936806
  0
ARC
  5
1E5
100
AcDbEntity
  8
M1
  6
CONTINUOUS
370
25
 62
     7
100
AcDbCircle
 10
342.132234
 20
752.339247
 40
10.000811
100
AcDbArc
 50
352.063904
 51
420.00016
  0
ARC
  5
1E6
100
AcDbEntity
  8
M1
  6
CONTINUOUS
370
25
 62
     7
100
AcDbCircle
 10
421.366243
 20
741.292464
 40
69.99955
100
AcDbArc
 50
172.062943
 51
187.937049
  0
ARC
  5
1E7
100
AcDbEntity
  8
M1
  6
CONTINUOUS
370
25
 62
     7
100
AcDbCircle
 10
308.971223
 20
773.794356
 40
7.99999
100
AcDbArc
 50
59.999962
 51
163.871468
  0
ARC
  5
1E8
100
AcDbEntity
  8
M1
  6
CONTINUOUS
370
25
 62
     7
100
AcDbCircle
 10
308.971223
 20
708.790572
 40
7.999835
100
AcDbArc
 50
196.129379
 51
299.999931
  0
CIRCLE
  5
1E9
100
AcDbEntity
  8
M1
  6
CONTINUOUS
370
25
 62
     7
100
AcDbCircle
 10
356.414216
 20
778.792464
 40
4.5
  0
CIRCLE
  5
1EA
100
AcDbEntity
  8
M1
  6
CONTINUOUS
370
13
 62
     7
100
AcDbCircle
 10
356.414216
 20
778.792464
 40
5.0
  0
ARC
  5
1EB
100
AcDbEntity
  8
M1
  6
CONTINUOUS
370
25
 62
     7
100
AcDbCircle
 10
356.414216
 20
778.792464
 40
15.076303
100
AcDbArc
 50
54.232731
 51
245.76746
  0
ARC
  5
1EC
100
AcDbEntity
  8
M1
  6
CONTINUOUS
370
13
 62
     7
100
AcDbCircle
 10
421.366243
 20
741.292464
 40
74.999947
100
AcDbArc
 50
141.901138
 51
157.958586
  0
ARC
  5
1ED
100
AcDbEntity
  8
M1
  6
CONTINUOUS
370
25
 62
     7
100
AcDbCircle
 10
421.366243
 20
741.292464
 40
124.999855
100
AcDbArc
 50
163.871429
 51
196.128536
  0
ARC
  5
1EE
100
AcDbEntity
  8
M1
  6
CONTINUOUS
370
25
 62
     7
100
AcDbCircle
 10
347.629182
 20
727.587752
 40
10.000021
100
AcDbArc
 50
299.999939
 51
370.528412
  0
ARC
  5
1EF
100
AcDbEntity
  8
M1
  6
CONTINUOUS
370
25
 62
     7
100
AcDbCircle
 10
372.629182
 20
684.286452
 40
9.999839
100
AcDbArc
 50
49.472332
 51
119.999844
  0
ARC
  5
1F0
100
AcDbEntity
  8
M1
  6
CONTINUOUS
370
25
 62
     7
100
AcDbCircle
 10
391.316194
 20
667.150771
 40
10.0
100
AcDbArc
 50
0.0
 51
67.938438
  0
ARC
  5
1F1
100
AcDbEntity
  8
M1
  6
CONTINUOUS
370
25
 62
     7
100
AcDbCircle
 10
372.183259
 20
678.197554
 40
9.999352
100
AcDbArc
 50
52.067181
 51
120.000103
  0
ARC
  5
1F2
100
AcDbEntity
  8
M1
  6
CONTINUOUS
370
25
 62
     7
100
AcDbCircle
 10
421.366243
 20
741.292464
 40
70.00016
100
AcDbArc
 50
232.062698
 51
247.9368
  0
ARC
  5
1F3
100
AcDbEntity
  8
M1
  6
CONTINUOUS
370
25
 62
     7
100
AcDbCircle
 10
337.021272
 20
660.206557
 40
7.99999
100
AcDbArc
 50
120.000038
 51
223.872177
  0
ARC
  5
1F4
100
AcDbEntity
  8
M1
  6
CONTINUOUS
370
25
 62
     7
100
AcDbCircle
 10
393.316194
 20
627.704665
 40
8.000008
100
AcDbArc
 50
256.128448
 51
359.999992
  0
CIRCLE
  5
1F5
100
AcDbEntity
  8
M1
  6
CONTINUOUS
370
25
 62
     7
100
AcDbCircle
 10
356.414216
 20
703.792464
 40
4.5
  0
CIRCLE
  5
1F6
100
AcDbEntity
  8
M1
  6
CONTINUOUS
370
13
 62
     7
100
AcDbCircle
 10
356.414216
 20
703.792464
 40
5.0
  0
ARC
  5
1F7
100
AcDbEntity
  8
M1
  6
CONTINUOUS
370
25
 62
     7
100
AcDbCircle
 10
356.414216
 20
703.792464
 40
15.076488
100
AcDbArc
 50
114.228386
 51
305.766792
  0
ARC
  5
1F8
100
AcDbEntity
  8
M1
  6
CONTINUOUS
370
13
 62
     7
100
AcDbCircle
 10
421.366243
 20
741.292464
 40
74.999855
100
AcDbArc
 50
201.901123
 51
217.958652
  0
ARC
  5
1F9
100
AcDbEntity
  8
M1
  6
CONTINUOUS
370
25
 62
     7
100
AcDbCircle
 10
421.366243
 20
741.292464
 40
124.999916
100
AcDbArc
 50
223.871414
 51
256.128559
  0
ARC
  5
1FA
100
AcDbEntity
  8
M1
  6
CONTINUOUS
370
25
 62
     7
100
AcDbCircle
 10
396.366243
 20
670.581771
 40
10.0
100
AcDbArc
 50
0.0
 51
70.525284
  0
ARC
  5
1FB
100
AcDbEntity
  8
M1
  6
CONTINUOUS
370
25
 62
     7
100
AcDbCircle
 10
446.366243
 20
670.581771
 40
9.999901
100
AcDbArc
 50
109.469444
 51
180.0
  0
ARC
  5
1FC
100
AcDbEntity
  8
M1
  6
CONTINUOUS
370
25
 62
     7
100
AcDbCircle
 10
470.550203
 20
678.197554
 40
10.000048
100
AcDbArc
 50
60.000156
 51
127.936909
  0
ARC
  5
1FD
100
AcDbEntity
  8
M1
  6
CONTINUOUS
370
25
 62
     7
100
AcDbCircle
 10
451.416169
 20
667.150771
 40
9.999884
100
AcDbArc
 50
112.061562
 51
180.0
  0
ARC
  5
1FE
100
AcDbEntity
  8
M1
  6
CONTINUOUS
370
25
 62
     7
100
AcDbCircle
 10
421.366243
 20
741.292464
 40
70.000046
100
AcDbArc
 50
292.06311
 51
307.937259
  0
ARC
  5
1FF
100
AcDbEntity
  8
M1
  6
CONTINUOUS
370
25
 62
     7
100
AcDbCircle
 10
449.416169
 20
627.704665
 40
8.0
100
AcDbArc
 50
180.0
 51
283.872391
  0
ARC
  5
200
100
AcDbEntity
  8
M1
  6
CONTINUOUS
370
25
 62
     7
100
AcDbCircle
 10
505.711213
 20
660.206557
 40
7.999895
100
AcDbArc
 50
316.127228
 51
419.999969
  0
CIRCLE
  5
201
100
AcDbEntity
  8
M1
  6
CONTINUOUS
370
25
 62
     7
100
AcDbCircle
 10
421.366243
 20
666.292464
 40
4.5
  0
CIRCLE
  5
202
100
AcDbEntity
  8
M1
  6
CONTINUOUS
370
13
 62
     7
100
AcDbCircle
 10
421.366243
 20
666.292464
 40
5.0
  0
ARC
  5
203
100
AcDbEntity
  8
M1
  6
CONTINUOUS
370
25
 62
     7
100
AcDbCircle
 10
421.366243
 20
666.292464
 40
15.076343
100
AcDbArc
 50
174.231583
 51
365.768402
  0
ARC
  5
204
100
AcDbEntity
  8
M1
  6
CONTINUOUS
370
13
 62
     7
100
AcDbCircle
 10
421.366243
 20
741.292464
 40
74.999901
100
AcDbArc
 50
261.901184
 51
277.959124
  0
ARC
  5
205
100
AcDbEntity
  8
M1
  6
CONTINUOUS
370
25
 62
     7
100
AcDbCircle
 10
421.366243
 20
741.292464
 40
124.999977
100
AcDbArc
 50
283.871429
 51
316.128506
  0
ARC
  5
206
100
AcDbEntity
  8
M1
  6
CONTINUOUS
370
25
 62
     7
100
AcDbCircle
 10
470.103181
 20
684.286452
 40
10.000048
100
AcDbArc
 50
60.000156
 51
130.527134
  0
ARC
  5
207
100
AcDbEntity
  8
M1
  6
CONTINUOUS
370
25
 62
     7
100
AcDbCircle
 10
495.103181
 20
727.587752
 40
9.999313
100
AcDbArc
 50
169.470444
 51
240.000069
  0
ARC
  5
208
100
AcDbEntity
  8
M1
  6
CONTINUOUS
370
25
 62
     7
100
AcDbCircle
 10
500.600251
 20
752.339247
 40
10.000048
100
AcDbArc
 50
119.99984
 51
187.936874
  0
ARC
  5
209
100
AcDbEntity
  8
M1
  6
CONTINUOUS
370
25
 62
     7
100
AcDbCircle
 10
500.600251
 20
730.24565
 40
9.99986
100
AcDbArc
 50
172.062439
 51
240.000076
  0
ARC
  5
20A
100
AcDbEntity
  8
M1
  6
CONTINUOUS
370
25
 62
     7
100
AcDbCircle
 10
421.366243
 20
741.292464
 40
69.999565
100
AcDbArc
 50
352.062836
 51
367.937005
  0
ARC
  5
20B
100
AcDbEntity
  8
M1
  6
CONTINUOUS
370
25
 62
     7
100
AcDbCircle
 10
533.761201
 20
708.790572
 40
8.000096
100
AcDbArc
 50
240.000397
 51
343.870865
  0
ARC
  5
20C
100
AcDbEntity
  8
M1
  6
CONTINUOUS
370
25
 62
     7
100
AcDbCircle
 10
533.761201
 20
773.794356
 40
7.999918
100
AcDbArc
 50
16.128294
 51
120.000036
  0
CIRCLE
  5
20D
100
AcDbEntity
  8
M1
  6
CONTINUOUS
370
25
 62
     7
100
AcDbCircle
 10
486.318269
 20
703.792464
 40
4.5
  0
CIRCLE
  5
20E
100
AcDbEntity
  8
M1
  6
CONTINUOUS
370
13
 62
     7
100
AcDbCircle
 10
486.318269
 20
703.792464
 40
5.0
  0
ARC
  5
20F
100
AcDbEntity
  8
M1
  6
CONTINUOUS
370
25
 62
     7
100
AcDbCircle
 10
486.318269
 20
703.792464
 40
15.076477
100
AcDbArc
 50
234.228638
 51
425.763412
  0
ARC
  5
210
100
AcDbEntity
  8
M1
  6
CONTINUOUS
370
13
 62
     7
100
AcDbCircle
 10
421.366243
 20
741.292464
 40
74.999962
100
AcDbArc
 50
321.901123
 51
337.958868
  0
ARC
  5
211
100
AcDbEntity
  8
M1
  6
CONTINUOUS
370
25
 62
     7
100
AcDbCircle
 10
421.366243
 20
741.292464
 40
124.999954
100
AcDbArc
 50
343.871368
 51
376.128555
  0
ARC
  5
212
100
AcDbEntity
  8
M1
  6
CONTINUOUS
370
25
 62
     7
100
AcDbCircle
 10
495.103181
 20
754.997145
 40
10.000048
100
AcDbArc
 50
119.99984
 51
190.529549
  0
ARC
  5
213
100
AcDbEntity
  8
M1
  6
CONTINUOUS
370
25
 62
     7
100
AcDbCircle
 10
470.103181
 20
798.298445
 40
9.999759
100
AcDbArc
 50
229.472855
 51
299.999924
  0
ARC
  5
214
100
AcDbEntity
  8
M1
  6
CONTINUOUS
370
25
 62
     7
100
AcDbCircle
 10
451.416169
 20
815.434188
 40
10.0
100
AcDbArc
 50
180.0
 51
247.938438
  0
ARC
  5
215
100
AcDbEntity
  8
M1
  6
CONTINUOUS
370
25
 62
     7
100
AcDbCircle
 10
470.550203
 20
804.387374
 40
9.999953
100
AcDbArc
 50
232.062775
 51
300.000114
  0
ARC
  5
216
100
AcDbEntity
  8
M1
  6
CONTINUOUS
370
25
 62
     7
100
AcDbCircle
 10
421.366243
 20
741.292464
 40
70.000229
100
AcDbArc
 50
52.062748
 51
67.936906
  0
ARC
  5
217
100
AcDbEntity
  8
M1
  6
CONTINUOUS
370
25
 62
     7
100
AcDbCircle
 10
505.711213
 20
822.37834
 40
7.999964
100
AcDbArc
 50
300.000153
 51
403.872314
  0
ARC
  5
218
100
AcDbEntity
  8
M1
  6
CONTINUOUS
370
25
 62
     7
100
AcDbCircle
 10
449.416169
 20
854.880233
 40
8.000067
100
AcDbArc
 50
76.127663
 51
180.0
  0
CIRCLE
  5
219
100
AcDbEntity
  8
M1
  6
CONTINUOUS
370
25
 62
     7
100
AcDbCircle
 10
486.318269
 20
778.792464
 40
4.5
  0
CIRCLE
  5
21A
100
AcDbEntity
  8
M1
  6
CONTINUOUS
370
13
 62
     7
100
AcDbCircle
 10
486.318269
 20
778.792464
 40
5.0
  0
ARC
  5
21B
100
AcDbEntity
  8
M1
  6
CONTINUOUS
370
25
 62
     7
100
AcDbCircle
 10
486.318269
 20
778.792464
 40
15.076571
100
AcDbArc
 50
294.228241
 51
485.763107
  0
ARC
  5
21C
100
AcDbEntity
  8
M1
  6
CONTINUOUS
370
13
 62
     7
100
AcDbCircle
 10
421.366243
 20
741.292464
 40
74.999893
100
AcDbArc
 50
21.901194
 51
37.958714
  0
ARC
  5
21D
100
AcDbEntity
  8
M1
  6
CONTINUOUS
370
25
 62
     7
100
AcDbCircle
 10
421.366243
 20
741.292464
 40
124.999886
100
AcDbArc
 50
43.871483
 51
76.128571
  0
ARC
  5
21E
100
AcDbEntity
  8
M1
  6
CONTINUOUS
370
25
 62
     7
100
AcDbCircle
 10
421.366243
 20
741.292464
 40
64.999977
100
AcDbArc
 50
229.47113
 51
250.528517
  0
ARC
  5
21F
100
AcDbEntity
  8
M1
  6
CONTINUOUS
370
25
 62
     7
100
AcDbCircle
 10
421.366243
 20
741.292464
 40
65.000381
100
AcDbArc
 50
169.471313
 51
190.528641
  0
ARC
  5
220
100
AcDbEntity
  8
M1
  6
CONTINUOUS
370
25
 62
     7
100
AcDbCircle
 10
421.366243
 20
741.292464
 40
65.000114
100
AcDbArc
 50
289.471497
 51
310.528812
  0
ARC
  5
221
100
AcDbEntity
  8
M1
  6
CONTINUOUS
370
25
 62
     7
100
AcDbCircle
 10
421.366243
 20
741.292464
 40
65.000389
100
AcDbArc
 50
349.471283
 51
370.52869
  0
ARC
  5
222
100
AcDbEntity
  8
M1
  6
CONTINUOUS
370
25
 62
     7
100
AcDbCircle
 10
421.366243
 20
741.292464
 40
65.000046
100
AcDbArc
 50
49.471176
 51
70.528509
  0
CIRCLE
  5
223
100
AcDbEntity
  8
M1
  6
CONTINUOUS
370
25
 62
     7
100
AcDbCircle
 10
421.366243
 20
741.292464
 40
35.25
  0
ARC
  5
224
100
AcDbEntity
  8
M1
  6
CONTINUOUS
370
25
 62
     7
100
AcDbCircle
 10
421.366243
 20
739.542464
 40
40.49987
100
AcDbArc
 50
105.515953
 51
434.482719
  0
ARC
  5
225
100
AcDbEntity
  8
M1
  6
CONTINUOUS
370
25
 62
     7
100
AcDbCircle
 10
421.366243
 20
741.292464
 40
43.150051
100
AcDbArc
 50
81.04599
 51
88.007854
  0
CIRCLE
  5
226
100
AcDbEntity
  8
M1
  6
CONTINUOUS
370
25
 62
     7
100
AcDbCircle
 10
415.899202
 20
779.680556
 40
1.5
  0
CIRCLE
  5
227
100
AcDbEntity
  8
M1
  6
CONTINUOUS
370
25
 62
     7
100
AcDbCircle
 10
426.83426
 20
779.680556
 40
1.5
  0
ARC
  5
228
100
AcDbEntity
  8
M1
  6
CONTINUOUS
370
25
 62
     7
100
AcDbCircle
 10
421.366243
 20
741.292464
 40
43.149982
100
AcDbArc
 50
91.992142
 51
98.952724
  0
ARC
  5
229
100
AcDbEntity
  8
M1
  6
CONTINUOUS
370
25
 62
     7
100
AcDbCircle
 10
427.770173
 20
781.941054
 40
2.000227
100
AcDbArc
 50
23.082773
 51
81.025328
  0
ARC
  5
22A
100
AcDbEntity
  8
M1
  6
CONTINUOUS
370
25
 62
     7
100
AcDbCircle
 10
432.736238
 20
780.493453
 40
2.000103
100
AcDbArc
 50
203.083344
 51
254.483334
  0
ARC
  5
22B
100
AcDbEntity
  8
M1
  6
CONTINUOUS
370
25
 62
     7
100
AcDbCircle
 10
409.997224
 20
780.493453
 40
1.999988
100
AcDbArc
 50
285.516663
 51
336.905678
  0
ARC
  5
22C
100
AcDbEntity
  8
M1
  6
CONTINUOUS
370
25
 62
     7
100
AcDbCircle
 10
414.96219
 20
781.941054
 40
1.999932
100
AcDbArc
 50
98.943581
 51
156.915852
  0
ARC
  5
22D
100
AcDbEntity
  8
M1
  6
CONTINUOUS
370
25
 62
     7
100
AcDbCircle
 10
897.220613
 20
800.292464
 40
4.0
100
AcDbArc
 50
180.0
 51
270.0
  0
ARC
  5
22E
100
AcDbEntity
  8
M1
  6
CONTINUOUS
370
25
 62
     7
100
AcDbCircle
 10
897.220613
 20
822.292464
 40
4.0
100
AcDbArc
 50
90.0
 51
180.0
  0
ARC
  5
22F
100
AcDbEntity
  8
M1
  6
CONTINUOUS
370
25
 62
     7
100
AcDbCircle
 10
913.720613
 20
840.08647
 40
5.0
100
AcDbArc
 50
180.0
 51
267.589828
  0
ARC
  5
230
100
AcDbEntity
  8
M1
  6
CONTINUOUS
370
25
 62
     7
100
AcDbCircle
 10
896.720613
 20
864.292464
 40
2.0
100
AcDbArc
 50
0.0
 51
90.0
  0
ARC
  5
231
100
AcDbEntity
  8
M1
  6
CONTINUOUS
370
25
 62
     7
100
AcDbCircle
 10
968.720613
 20
797.292464
 40
1.5
100
AcDbArc
 50
90.0
 51
180.0
  0
ARC
  5
232
100
AcDbEntity
  8
M1
  6
CONTINUOUS
370
25
 62
     7
100
AcDbCircle
 10
954.720613
 20
797.792464
 40
1.5
100
AcDbArc
 50
270.0
 51
360.0
  0
ARC
  5
233
100
AcDbEntity
  8
M1
  6
CONTINUOUS
370
25
 62
     7
100
AcDbCircle
 10
966.220613
 20
779.792464
 40
1.0
100
AcDbArc
 50
180.0
 51
270.0
  0
CIRCLE
  5
234
100
AcDbEntity
  8
M1
  6
CONTINUOUS
370
25
 62
     7
100
AcDbCircle
 10
977.144014
 20
788.530745
 40
6.020325
  0
ARC
  5
235
100
AcDbEntity
  8
M1
  6
CONTINUOUS
370
25
 62
     7
100
AcDbCircle
 10
796.720613
 20
865.792464
 40
2.0
100
AcDbArc
 50
90.0
 51
180.0
  0
ARC
  5
236
100
AcDbEntity
  8
M1
  6
CONTINUOUS
370
25
 62
     7
100
AcDbCircle
 10
796.720613
 20
810.17845
 40
2.0
100
AcDbArc
 50
180.0
 51
249.443542
  0
ARC
  5
237
100
AcDbEntity
  8
M1
  6
CONTINUOUS
370
25
 62
     7
100
AcDbCircle
 10
780.720613
 20
827.650069
 40
2.0
100
AcDbArc
 50
270.0
 51
360.0
  0
ARC
  5
238
100
AcDbEntity
  8
M1
  6
CONTINUOUS
370
25
 62
     7
100
AcDbCircle
 10
785.920625
 20
796.792464
 40
2.0
100
AcDbArc
 50
90.0
 51
180.0
  0
ARC
  5
239
100
AcDbEntity
  8
M1
  6
CONTINUOUS
370
25
 62
     7
100
AcDbCircle
 10
785.920625
 20
780.792464
 40
2.0
100
AcDbArc
 50
180.0
 51
270.0
  0
ARC
  5
23A
100
AcDbEntity
  8
M1
  6
CONTINUOUS
370
25
 62
     7
100
AcDbCircle
 10
801.720613
 20
780.792464
 40
2.0
100
AcDbArc
 50
270.0
 51
360.0
  0
ARC
  5
23B
100
AcDbEntity
  8
M1
  6
CONTINUOUS
370
25
 62
     7
100
AcDbCircle
 10
801.720613
 20
796.792464
 40
2.0
100
AcDbArc
 50
0.0
 51
90.0
  0
CIRCLE
  5
23C
100
AcDbEntity
  8
M1
  6
CONTINUOUS
370
25
 62
     7
100
AcDbCircle
 10
793.820649
 20
788.658065
 40
5.601807
  0
ARC
  5
23D
100
AcDbEntity
  8
M1
  6
CONTINUOUS
370
25
 62
     7
100
AcDbCircle
 10
929.220613
 20
885.292464
 40
6.0
100
AcDbArc
 50
90.0
 51
180.0
  0
ARC
  5
23E
100
AcDbEntity
  8
M1
  6
CONTINUOUS
370
25
 62
     7
100
AcDbCircle
 10
934.220613
 20
851.184371
 40
11.0
100
AcDbArc
 50
180.0
 51
263.927925
  0
ARC
  5
23F
100
AcDbEntity
  8
M1
  6
CONTINUOUS
370
25
 62
     7
100
AcDbCircle
 10
968.220613
 20
893.292464
 40
2.0
100
AcDbArc
 50
270.0
 51
360.0
  0
ARC
  5
240
100
AcDbEntity
  8
M1
  6
CONTINUOUS
370
25
 62
     7
100
AcDbCircle
 10
966.220613
 20
832.695479
 40
4.0
100
AcDbArc
 50
0.0
 51
58.130291
  0
ARC
  5
241
100
AcDbEntity
  8
M1
  6
CONTINUOUS
370
25
 62
     7
100
AcDbCircle
 10
780.720613
 20
654.934859
 40
2.0
100
AcDbArc
 50
0.0
 51
90.0
  0
ARC
  5
242
100
AcDbEntity
  8
M1
  6
CONTINUOUS
370
25
 62
     7
100
AcDbCircle
 10
777.112947
 20
614.48857
 40
4.392368
100
AcDbArc
 50
149.999786
 51
209.999165
  0
ARC
  5
243
100
AcDbEntity
  8
M1
  6
CONTINUOUS
370
25
 62
     7
100
AcDbCircle
 10
803.603303
 20
606.292464
 40
30.882708
100
AcDbArc
 50
168.797134
 51
191.202873
  0
ARC
  5
244
100
AcDbEntity
  8
M1
  6
CONTINUOUS
370
25
 62
     7
100
AcDbCircle
 10
777.112947
 20
598.096267
 40
4.392368
100
AcDbArc
 50
149.999786
 51
209.999165
  0
ARC
  5
245
100
AcDbEntity
  8
M1
  6
CONTINUOUS
370
25
 62
     7
100
AcDbCircle
 10
785.720613
 20
595.292464
 40
3.0
100
AcDbArc
 50
180.0
 51
270.0
  0
ARC
  5
246
100
AcDbEntity
  8
M1
  6
CONTINUOUS
370
25
 62
     7
100
AcDbCircle
 10
914.32834
 20
598.096267
 40
4.392216
100
AcDbArc
 50
330.000031
 51
390.000999
  0
ARC
  5
247
100
AcDbEntity
  8
M1
  6
CONTINUOUS
370
25
 62
     7
100
AcDbCircle
 10
887.837922
 20
606.292464
 40
30.882647
100
AcDbArc
 50
348.797119
 51
371.202902
  0
ARC
  5
248
100
AcDbEntity
  8
M1
  6
CONTINUOUS
370
25
 62
     7
100
AcDbCircle
 10
914.32834
 20
614.48857
 40
4.392216
100
AcDbArc
 50
330.000031
 51
390.000999
  0
ARC
  5
249
100
AcDbEntity
  8
M1
  6
CONTINUOUS
370
25
 62
     7
100
AcDbCircle
 10
905.720613
 20
595.292464
 40
3.0
100
AcDbArc
 50
270.0
 51
360.0
  0
ARC
  5
24A
100
AcDbEntity
  8
M1
  6
CONTINUOUS
370
25
 62
     7
100
AcDbCircle
 10
914.32834
 20
681.98857
 40
4.392262
100
AcDbArc
 50
329.998993
 51
390.000999
  0
ARC
  5
24B
100
AcDbEntity
  8
M1
  6
CONTINUOUS
370
25
 62
     7
100
AcDbCircle
 10
887.837922
 20
673.792464
 40
30.882647
100
AcDbArc
 50
348.797119
 51
371.202902
  0
ARC
  5
24C
100
AcDbEntity
  8
M1
  6
CONTINUOUS
370
25
 62
     7
100
AcDbCircle
 10
914.32834
 20
665.596267
 40
4.392216
100
AcDbArc
 50
330.000031
 51
390.000999
  0
ARC
  5
24D
100
AcDbEntity
  8
M1
  6
CONTINUOUS
370
25
 62
     7
100
AcDbCircle
 10
777.112947
 20
665.596267
 40
4.392368
100
AcDbArc
 50
149.999786
 51
209.999165
  0
ARC
  5
24E
100
AcDbEntity
  8
M1
  6
CONTINUOUS
370
25
 62
     7
100
AcDbCircle
 10
803.603303
 20
673.792464
 40
30.882708
100
AcDbArc
 50
168.797134
 51
191.202873
  0
ARC
  5
24F
100
AcDbEntity
  8
M1
  6
CONTINUOUS
370
25
 62
     7
100
AcDbCircle
 10
777.112947
 20
681.98857
 40
4.392368
100
AcDbArc
 50
149.999786
 51
210.000198
  0
CIRCLE
  5
250
100
AcDbEntity
  8
M1
  6
CONTINUOUS
370
25
 62
     7
100
AcDbCircle
 10
1333.747331
 20
741.292464
 40
65.0
  0
ARC
  5
251
100
AcDbEntity
  8
M1
  6
CONTINUOUS
370
13
 62
     7
100
AcDbCircle
 10
1333.747331
 20
741.292464
 40
74.999977
100
AcDbArc
 50
80.187439
 51
99.000248
  0
CIRCLE
  5
252
100
AcDbEntity
  8
M1
  6
CONTINUOUS
370
25
 62
     7
100
AcDbCircle
 10
1333.747331
 20
741.292464
 40
57.5
  0
CIRCLE
  5
253
100
AcDbEntity
  8
M1
  6
CONTINUOUS
370
25
 62
     7
100
AcDbCircle
 10
1333.747331
 20
741.292464
 40
37.5
  0
CIRCLE
  5
254
100
AcDbEntity
  8
M1
  6
CONTINUOUS
370
13
 62
     7
100
AcDbCircle
 10
1333.747331
 20
816.292464
 40
5.0
  0
CIRCLE
  5
255
100
AcDbEntity
  8
M1
  6
CONTINUOUS
370
25
 62
     7
100
AcDbCircle
 10
1333.747331
 20
816.292464
 40
4.5
  0
CIRCLE
  5
256
100
AcDbEntity
  8
M1
  6
CONTINUOUS
370
25
 62
     7
100
AcDbCircle
 10
1268.795442
 20
778.792464
 40
4.5
  0
CIRCLE
  5
257
100
AcDbEntity
  8
M1
  6
CONTINUOUS
370
13
 62
     7
100
AcDbCircle
 10
1268.795442
 20
778.792464
 40
5.0
  0
ARC
  5
258
100
AcDbEntity
  8
M1
  6
CONTINUOUS
370
13
 62
     7
100
AcDbCircle
 10
1333.747331
 20
741.292464
 40
74.999985
100
AcDbArc
 50
141.867081
 51
159.000263
  0
CIRCLE
  5
259
100
AcDbEntity
  8
M1
  6
CONTINUOUS
370
25
 62
     7
100
AcDbCircle
 10
1268.795442
 20
703.792464
 40
4.5
  0
CIRCLE
  5
25A
100
AcDbEntity
  8
M1
  6
CONTINUOUS
370
13
 62
     7
100
AcDbCircle
 10
1268.795442
 20
703.792464
 40
5.0
  0
ARC
  5
25B
100
AcDbEntity
  8
M1
  6
CONTINUOUS
370
13
 62
     7
100
AcDbCircle
 10
1333.747331
 20
741.292464
 40
74.999901
100
AcDbArc
 50
201.86702
 51
219.000233
  0
CIRCLE
  5
25C
100
AcDbEntity
  8
M1
  6
CONTINUOUS
370
25
 62
     7
100
AcDbCircle
 10
1333.747331
 20
666.292464
 40
4.5
  0
CIRCLE
  5
25D
100
AcDbEntity
  8
M1
  6
CONTINUOUS
370
13
 62
     7
100
AcDbCircle
 10
1333.747331
 20
666.292464
 40
5.0
  0
ARC
  5
25E
100
AcDbEntity
  8
M1
  6
CONTINUOUS
370
13
 62
     7
100
AcDbCircle
 10
1333.747331
 20
741.292464
 40
75.000031
100
AcDbArc
 50
261.866974
 51
279.00024
  0
CIRCLE
  5
25F
100
AcDbEntity
  8
M1
  6
CONTINUOUS
370
25
 62
     7
100
AcDbCircle
 10
1398.699235
 20
703.792464
 40
4.5
  0
CIRCLE
  5
260
100
AcDbEntity
  8
M1
  6
CONTINUOUS
370
13
 62
     7
100
AcDbCircle
 10
1398.699235
 20
703.792464
 40
5.0
  0
ARC
  5
261
100
AcDbEntity
  8
M1
  6
CONTINUOUS
370
13
 62
     7
100
AcDbCircle
 10
1333.747331
 20
741.292464
 40
74.999992
100
AcDbArc
 50
321.867065
 51
339.000252
  0
CIRCLE
  5
262
100
AcDbEntity
  8
M1
  6
CONTINUOUS
370
25
 62
     7
100
AcDbCircle
 10
1398.699235
 20
778.792464
 40
4.5
  0
CIRCLE
  5
263
100
AcDbEntity
  8
M1
  6
CONTINUOUS
370
13
 62
     7
100
AcDbCircle
 10
1398.699235
 20
778.792464
 40
5.0
  0
ARC
  5
264
100
AcDbEntity
  8
M1
  6
CONTINUOUS
370
13
 62
     7
100
AcDbCircle
 10
1333.747331
 20
741.292464
 40
75.000015
100
AcDbArc
 50
21.867062
 51
39.000219
  0
CIRCLE
  5
265
100
AcDbEntity
  8
M1
  6
CONTINUOUS
370
25
 62
     7
100
AcDbCircle
 10
1333.747331
 20
741.292464
 40
152.500015
  0
ARC
  5
266
100
AcDbEntity
  8
M1
  6
CONTINUOUS
370
25
 62
     7
100
AcDbCircle
 10
966.426118
 20
849.545272
 40
3.505455
100
AcDbArc
 50
149.998489
 51
210.001518
  0
ARC
  5
267
100
AcDbEntity
  8
M1
  6
CONTINUOUS
370
25
 62
     7
100
AcDbCircle
 10
980.189241
 20
843.792464
 40
17.268545
100
AcDbArc
 50
166.606644
 51
193.393347
  0
ARC
  5
268
100
AcDbEntity
  8
M1
  6
CONTINUOUS
370
25
 62
     7
100
AcDbCircle
 10
966.426118
 20
838.039656
 40
3.505455
100
AcDbArc
 50
149.998489
 51
209.99979
  0
ARC
  5
269
100
AcDbEntity
  8
M1
  6
CONTINUOUS
370
25
 62
     7
100
AcDbCircle
 10
891.819612
 20
899.661971
 40
3.001038
100
AcDbArc
 50
270.0
 51
360.0
  0
ARC
  5
26A
100
AcDbEntity
  8
M1
  6
CONTINUOUS
370
25
 62
     7
100
AcDbCircle
 10
891.819612
 20
899.661971
 40
5.801086
100
AcDbArc
 50
270.0
 51
360.0
  0
ARC
  5
26B
100
AcDbEntity
  8
M1
  6
CONTINUOUS
370
25
 62
     7
100
AcDbCircle
 10
883.619539
 20
919.216841
 40
11.200012
100
AcDbArc
 50
0.0
 51
60.001488
  0
ARC
  5
26C
100
AcDbEntity
  8
M1
  6
CONTINUOUS
370
25
 62
     7
100
AcDbCircle
 10
883.619539
 20
919.216841
 40
13.999774
100
AcDbArc
 50
25.84025
 51
60.001585
  0
ARC
  5
26D
100
AcDbEntity
  8
M1
  6
CONTINUOUS
370
25
 62
     7
100
AcDbCircle
 10
908.819612
 20
919.216841
 40
14.000558
100
AcDbArc
 50
119.99868
 51
180.0
  0
ARC
  5
26E
100
AcDbEntity
  8
M1
  6
CONTINUOUS
370
25
 62
     7
100
AcDbCircle
 10
908.819612
 20
919.216841
 40
11.200506
100
AcDbArc
 50
119.999084
 51
180.0
  0
ARC
  5
26F
100
AcDbEntity
  8
M1
  6
CONTINUOUS
370
25
 62
     7
100
AcDbCircle
 10
308.755281
 20
916.341964
 40
9.999703
100
AcDbArc
 50
30.00098
 51
90.0
  0
ARC
  5
270
100
AcDbEntity
  8
M1
  6
CONTINUOUS
370
25
 62
     7
100
AcDbCircle
 10
326.075227
 20
926.341964
 40
9.999809
100
AcDbArc
 50
149.999374
 51
210.000633
  0
ARC
  5
271
100
AcDbEntity
  8
M1
  6
CONTINUOUS
370
25
 62
     7
100
AcDbCircle
 10
308.755281
 20
916.341964
 40
7.999805
100
AcDbArc
 50
30.000805
 51
90.0
  0
ARC
  5
272
100
AcDbEntity
  8
M1
  6
CONTINUOUS
370
25
 62
     7
100
AcDbCircle
 10
326.075227
 20
926.341964
 40
7.999805
100
AcDbArc
 50
149.999191
 51
210.000801
  0
ARC
  5
273
100
AcDbEntity
  8
M1
  6
CONTINUOUS
370
25
 62
     7
100
AcDbCircle
 10
1446.358552
 20
916.341964
 40
9.999817
100
AcDbArc
 50
90.0
 51
149.999325
  0
ARC
  5
274
100
AcDbEntity
  8
M1
  6
CONTINUOUS
370
25
 62
     7
100
AcDbCircle
 10
1429.038728
 20
926.341964
 40
9.999784
100
AcDbArc
 50
329.999268
 51
390.000702
  0
ARC
  5
275
100
AcDbEntity
  8
M1
  6
CONTINUOUS
370
25
 62
     7
100
AcDbCircle
 10
1446.358552
 20
916.341964
 40
7.999817
100
AcDbArc
 50
90.0
 51
149.999359
  0
ARC
  5
276
100
AcDbEntity
  8
M1
  6
CONTINUOUS
370
25
 62
     7
100
AcDbCircle
 10
1429.038728
 20
926.341964
 40
7.999825
100
AcDbArc
 50
329.999268
 51
390.000713
  0
ARC
  5
277
100
AcDbEntity
  8
M1
  6
CONTINUOUS
370
25
 62
     7
100
AcDbCircle
 10
1413.515428
 20
881.455489
 40
0.999743
100
AcDbArc
 50
149.999573
 51
329.996582
  0
ARC
  5
278
100
AcDbEntity
  8
M1
  6
CONTINUOUS
370
25
 62
     7
100
AcDbCircle
 10
1415.247331
 20
880.45555
 40
0.999866
100
AcDbArc
 50
149.999603
 51
329.999573
  0
ARC
  5
279
100
AcDbEntity
  8
M1
  6
CONTINUOUS
370
25
 62
     7
100
AcDbCircle
 10
1414.625825
 20
881.319258
 40
4.999979
100
AcDbArc
 50
83.94738
 51
396.793663
  0
CIRCLE
  5
27A
100
AcDbEntity
  8
M1
  6
CONTINUOUS
370
25
 62
     7
100
AcDbCircle
 10
421.366243
 20
741.292464
 40
57.5
  0
ARC
  5
27B
100
AcDbEntity
  8
M1
  6
CONTINUOUS
370
25
 62
     7
100
AcDbCircle
 10
421.366243
 20
743.292464
 40
51.999958
100
AcDbArc
 50
102.212532
 51
437.787453
  0
CIRCLE
  5
27C
100
AcDbEntity
  8
M1
  6
CONTINUOUS
370
25
 62
     7
100
AcDbCircle
 10
427.904207
 20
792.799269
 40
1.5
  0
ARC
  5
27D
100
AcDbEntity
  8
M1
  6
CONTINUOUS
370
25
 62
     7
100
AcDbCircle
 10
425.866243
 20
791.692458
 40
2.0
100
AcDbArc
 50
180.0
 51
270.0
  0
ARC
  5
27E
100
AcDbEntity
  8
M1
  6
CONTINUOUS
370
25
 62
     7
100
AcDbCircle
 10
429.366243
 20
792.692458
 40
3.0
100
AcDbArc
 50
270.0
 51
360.0
  0
ARC
  5
27F
100
AcDbEntity
  8
M1
  6
CONTINUOUS
370
25
 62
     7
100
AcDbCircle
 10
416.866243
 20
791.692458
 40
2.0
100
AcDbArc
 50
270.0
 51
360.0
  0
ARC
  5
280
100
AcDbEntity
  8
M1
  6
CONTINUOUS
370
25
 62
     7
100
AcDbCircle
 10
413.366243
 20
792.692458
 40
3.0
100
AcDbArc
 50
180.0
 51
270.0
  0
CIRCLE
  5
281
100
AcDbEntity
  8
M1
  6
CONTINUOUS
370
25
 62
     7
100
AcDbCircle
 10
414.828279
 20
792.799269
 40
1.5
  0
ARC
  5
282
100
AcDbEntity
  8
M1
  6
CONTINUOUS
370
25
 62
     7
100
AcDbCircle
 10
1333.747331
 20
743.292464
 40
51.999958
100
AcDbArc
 50
102.212532
 51
437.787361
  0
ARC
  5
283
100
AcDbEntity
  8
M1
  6
CONTINUOUS
370
25
 62
     7
100
AcDbCircle
 10
1341.747331
 20
792.692458
 40
3.0
100
AcDbArc
 50
270.0
 51
360.0
  0
CIRCLE
  5
284
100
AcDbEntity
  8
M1
  6
CONTINUOUS
370
25
 62
     7
100
AcDbCircle
 10
1340.285432
 20
792.799269
 40
1.5
  0
ARC
  5
285
100
AcDbEntity
  8
M1
  6
CONTINUOUS
370
25
 62
     7
100
AcDbCircle
 10
1338.247331
 20
791.692458
 40
2.0
100
AcDbArc
 50
180.0
 51
270.0
  0
ARC
  5
286
100
AcDbEntity
  8
M1
  6
CONTINUOUS
370
25
 62
     7
100
AcDbCircle
 10
1329.247331
 20
791.692458
 40
2.0
100
AcDbArc
 50
270.0
 51
360.0
  0
ARC
  5
287
100
AcDbEntity
  8
M1
  6
CONTINUOUS
370
25
 62
     7
100
AcDbCircle
 10
1325.747331
 20
792.692458
 40
3.0
100
AcDbArc
 50
180.0
 51
270.0
  0
CIRCLE
  5
288
100
AcDbEntity
  8
M1
  6
CONTINUOUS
370
25
 62
     7
100
AcDbCircle
 10
1327.20923
 20
792.799269
 40
1.5
  0
LINE
  5
289
100
AcDbEntity
  8
M1
  6
CONTINUOUS
370
25
 62
     7
100
AcDbLine
 10
773.309114
 20
882.292464
 11
780.220613
 21
882.292464
  0
LINE
  5
28A
100
AcDbEntity
  8
M1
  6
CONTINUOUS
370
25
 62
     7
100
AcDbLine
 10
780.220613
 20
870.292464
 11
773.309114
 21
870.292464
  0
LINE
  5
28B
100
AcDbEntity
  8
M1
  6
CONTINUOUS
370
25
 62
     7
100
AcDbLine
 10
911.220613
 20
870.292464
 11
918.132112
 21
870.292464
  0
LINE
  5
28C
100
AcDbEntity
  8
M1
  6
CONTINUOUS
370
25
 62
     7
100
AcDbLine
 10
918.132112
 20
882.292464
 11
911.220613
 21
882.292464
  0
LINE
  5
28D
100
AcDbEntity
  8
M1
  6
CONTINUOUS
370
25
 62
     7
100
AcDbLine
 10
429.366243
 20
871.673629
 11
421.366243
 21
867.054854
  0
LINE
  5
28E
100
AcDbEntity
  8
M1
  6
CONTINUOUS
370
25
 62
     7
100
AcDbLine
 10
421.366243
 20
867.054854
 11
413.366243
 21
871.673629
  0
LINE
  5
28F
100
AcDbEntity
  8
M1
  6
CONTINUOUS
370
25
 62
     7
100
AcDbLine
 10
413.366243
 20
871.673629
 11
413.366243
 21
880.911238
  0
LINE
  5
290
100
AcDbEntity
  8
M1
  6
CONTINUOUS
370
25
 62
     7
100
AcDbLine
 10
413.366243
 20
880.911238
 11
421.366243
 21
885.530074
  0
LINE
  5
291
100
AcDbEntity
  8
M1
  6
CONTINUOUS
370
25
 62
     7
100
AcDbLine
 10
421.366243
 20
885.530074
 11
429.366243
 21
880.911238
  0
LINE
  5
292
100
AcDbEntity
  8
M1
  6
CONTINUOUS
370
25
 62
     7
100
AcDbLine
 10
429.366243
 20
880.911238
 11
429.366243
 21
871.673629
  0
LINE
  5
293
100
AcDbEntity
  8
M1
  6
CONTINUOUS
370
25
 62
     7
100
AcDbLine
 10
538.280244
 20
799.554854
 11
530.280244
 21
804.173629
  0
LINE
  5
294
100
AcDbEntity
  8
M1
  6
CONTINUOUS
370
25
 62
     7
100
AcDbLine
 10
530.280244
 20
804.173629
 11
530.280244
 21
813.411238
  0
LINE
  5
295
100
AcDbEntity
  8
M1
  6
CONTINUOUS
370
25
 62
     7
100
AcDbLine
 10
530.280244
 20
813.411238
 11
538.280244
 21
818.030074
  0
LINE
  5
296
100
AcDbEntity
  8
M1
  6
CONTINUOUS
370
25
 62
     7
100
AcDbLine
 10
538.280244
 20
818.030074
 11
546.279817
 21
813.411238
  0
LINE
  5
297
100
AcDbEntity
  8
M1
  6
CONTINUOUS
370
25
 62
     7
100
AcDbLine
 10
546.279817
 20
813.411238
 11
546.279817
 21
804.173629
  0
LINE
  5
298
100
AcDbEntity
  8
M1
  6
CONTINUOUS
370
25
 62
     7
100
AcDbLine
 10
546.279817
 20
804.173629
 11
538.280244
 21
799.554854
  0
LINE
  5
299
100
AcDbEntity
  8
M1
  6
CONTINUOUS
370
25
 62
     7
100
AcDbLine
 10
530.280244
 20
669.173659
 11
530.280244
 21
678.411269
  0
LINE
  5
29A
100
AcDbEntity
  8
M1
  6
CONTINUOUS
370
25
 62
     7
100
AcDbLine
 10
530.280244
 20
678.411269
 11
538.280244
 21
683.030074
  0
LINE
  5
29B
100
AcDbEntity
  8
M1
  6
CONTINUOUS
370
25
 62
     7
100
AcDbLine
 10
538.280244
 20
683.030074
 11
546.279817
 21
678.411269
  0
LINE
  5
29C
100
AcDbEntity
  8
M1
  6
CONTINUOUS
370
25
 62
     7
100
AcDbLine
 10
546.279817
 20
678.411269
 11
546.279817
 21
669.173659
  0
LINE
  5
29D
100
AcDbEntity
  8
M1
  6
CONTINUOUS
370
25
 62
     7
100
AcDbLine
 10
546.279817
 20
669.173659
 11
538.280244
 21
664.554854
  0
LINE
  5
29E
100
AcDbEntity
  8
M1
  6
CONTINUOUS
370
25
 62
     7
100
AcDbLine
 10
538.280244
 20
664.554854
 11
530.280244
 21
669.173659
  0
LINE
  5
29F
100
AcDbEntity
  8
M1
  6
CONTINUOUS
370
25
 62
     7
100
AcDbLine
 10
413.366243
 20
610.911269
 11
421.366243
 21
615.530074
  0
LINE
  5
2A0
100
AcDbEntity
  8
M1
  6
CONTINUOUS
370
25
 62
     7
100
AcDbLine
 10
421.366243
 20
615.530074
 11
429.366243
 21
610.911269
  0
LINE
  5
2A1
100
AcDbEntity
  8
M1
  6
CONTINUOUS
370
25
 62
     7
100
AcDbLine
 10
429.366243
 20
610.911269
 11
429.366243
 21
601.673659
  0
LINE
  5
2A2
100
AcDbEntity
  8
M1
  6
CONTINUOUS
370
25
 62
     7
100
AcDbLine
 10
429.366243
 20
601.673659
 11
421.366243
 21
597.054854
  0
LINE
  5
2A3
100
AcDbEntity
  8
M1
  6
CONTINUOUS
370
25
 62
     7
100
AcDbLine
 10
421.366243
 20
597.054854
 11
413.366243
 21
601.673659
  0
LINE
  5
2A4
100
AcDbEntity
  8
M1
  6
CONTINUOUS
370
25
 62
     7
100
AcDbLine
 10
413.366243
 20
601.673659
 11
413.366243
 21
610.911269
  0
LINE
  5
2A5
100
AcDbEntity
  8
M1
  6
CONTINUOUS
370
25
 62
     7
100
AcDbLine
 10
304.453279
 20
683.030074
 11
312.453279
 21
678.411269
  0
LINE
  5
2A6
100
AcDbEntity
  8
M1
  6
CONTINUOUS
370
25
 62
     7
100
AcDbLine
 10
312.453279
 20
678.411269
 11
312.453279
 21
669.173659
  0
LINE
  5
2A7
100
AcDbEntity
  8
M1
  6
CONTINUOUS
370
25
 62
     7
100
AcDbLine
 10
312.453279
 20
669.173659
 11
304.453279
 21
664.554854
  0
LINE
  5
2A8
100
AcDbEntity
  8
M1
  6
CONTINUOUS
370
25
 62
     7
100
AcDbLine
 10
304.453279
 20
664.554854
 11
296.453279
 21
669.173659
  0
LINE
  5
2A9
100
AcDbEntity
  8
M1
  6
CONTINUOUS
370
25
 62
     7
100
AcDbLine
 10
296.453279
 20
669.173659
 11
296.453279
 21
678.411269
  0
LINE
  5
2AA
100
AcDbEntity
  8
M1
  6
CONTINUOUS
370
25
 62
     7
100
AcDbLine
 10
296.453279
 20
678.411269
 11
304.453279
 21
683.030074
  0
LINE
  5
2AB
100
AcDbEntity
  8
M1
  6
CONTINUOUS
370
25
 62
     7
100
AcDbLine
 10
312.453279
 20
813.411238
 11
312.453279
 21
804.173629
  0
LINE
  5
2AC
100
AcDbEntity
  8
M1
  6
CONTINUOUS
370
25
 62
     7
100
AcDbLine
 10
312.453279
 20
804.173629
 11
304.453279
 21
799.554854
  0
LINE
  5
2AD
100
AcDbEntity
  8
M1
  6
CONTINUOUS
370
25
 62
     7
100
AcDbLine
 10
304.453279
 20
799.554854
 11
296.453279
 21
804.173629
  0
LINE
  5
2AE
100
AcDbEntity
  8
M1
  6
CONTINUOUS
370
25
 62
     7
100
AcDbLine
 10
296.453279
 20
804.173629
 11
296.453279
 21
813.411238
  0
LINE
  5
2AF
100
AcDbEntity
  8
M1
  6
CONTINUOUS
370
25
 62
     7
100
AcDbLine
 10
296.453279
 20
813.411238
 11
304.453279
 21
818.030074
  0
LINE
  5
2B0
100
AcDbEntity
  8
M1
  6
CONTINUOUS
370
25
 62
     7
100
AcDbLine
 10
304.453279
 20
818.030074
 11
312.453279
 21
813.411238
  0
LINE
  5
2B1
100
AcDbEntity
  8
M1
  6
CONTINUOUS
370
25
 62
     7
100
AcDbLine
 10
780.220613
 20
612.292464
 11
773.309114
 21
612.292464
  0
LINE
  5
2B2
100
AcDbEntity
  8
M1
  6
CONTINUOUS
370
25
 62
     7
100
AcDbLine
 10
773.309114
 20
600.292464
 11
780.220613
 21
600.292464
  0
LINE
  5
2B3
100
AcDbEntity
  8
M1
  6
CONTINUOUS
370
25
 62
     7
100
AcDbLine
 10
918.132112
 20
600.292464
 11
911.220613
 21
600.292464
  0
LINE
  5
2B4
100
AcDbEntity
  8
M1
  6
CONTINUOUS
370
25
 62
     7
100
AcDbLine
 10
911.220613
 20
612.292464
 11
918.132112
 21
612.292464
  0
LINE
  5
2B5
100
AcDbEntity
  8
M1
  6
CONTINUOUS
370
25
 62
     7
100
AcDbLine
 10
911.220613
 20
679.792464
 11
918.132112
 21
679.792464
  0
LINE
  5
2B6
100
AcDbEntity
  8
M1
  6
CONTINUOUS
370
25
 62
     7
100
AcDbLine
 10
918.132112
 20
667.792464
 11
911.220613
 21
667.792464
  0
LINE
  5
2B7
100
AcDbEntity
  8
M1
  6
CONTINUOUS
370
25
 62
     7
100
AcDbLine
 10
773.309114
 20
667.792464
 11
780.220613
 21
667.792464
  0
LINE
  5
2B8
100
AcDbEntity
  8
M1
  6
CONTINUOUS
370
25
 62
     7
100
AcDbLine
 10
780.220613
 20
679.792464
 11
773.309114
 21
679.792464
  0
LINE
  5
2B9
100
AcDbEntity
  8
M1
  6
CONTINUOUS
370
25
 62
     7
100
AcDbLine
 10
963.390352
 20
847.792464
 11
968.220613
 21
847.792464
  0
LINE
  5
2BA
100
AcDbEntity
  8
M1
  6
CONTINUOUS
370
25
 62
     7
100
AcDbLine
 10
968.220613
 20
839.792464
 11
963.390352
 21
839.792464
  0
TEXT
  5
2BB
100
AcDbEntity
  8
M1
100
AcDbText
 10
1428.997879
 20
317.007657
 40
12.5
  1
ＰＨＣ－２０Ｒ
 41
0.833333
  7
STANDARD
100
AcDbText
  0
TEXT
  5
2BC
100
AcDbEntity
  8
M1
100
AcDbText
 10
417.199921
 20
480.077132
 40
12.5
  1
Ｄ１
 41
0.833333
  7
STANDARD
100
AcDbText
  0
TEXT
  5
2BD
100
AcDbEntity
  8
M1
100
AcDbText
 10
870.841889
 20
487.967147
 40
12.5
  1
Ｄ２
 41
0.833333
  7
STANDARD
100
AcDbText
  0
TEXT
  5
2BE
100
AcDbEntity
  8
M1
100
AcDbText
 10
1348.15889
 20
493.884139
 40
12.5
  1
Ｄ３
 41
0.833333
  7
STANDARD
100
AcDbText
  0
TEXT
  5
2BF
100
AcDbEntity
  8
M1
100
AcDbText
 10
1409.73787
 20
292.934522
 40
12.5
  1
（ＳＤＫ６２３５）
 41
0.833333
  7
STANDARD
100
AcDbText
  0
ARC
  5
2C0
100
AcDbEntity
  8
M1
  6
CONTINUOUS
370
25
 62
     7
100
AcDbCircle
 10
933.220613
 20
661.661544
 40
5.999993
100
AcDbArc
 50
94.938133
 51
180.0
  0
ARC
  5
2C1
100
AcDbEntity
  8
M1
  6
CONTINUOUS
370
25
 62
     7
100
AcDbCircle
 10
928.720613
 20
680.311965
 40
1.5
100
AcDbArc
 50
180.0
 51
270.0
  0
ARC
  5
2C2
100
AcDbEntity
  8
M1
  6
CONTINUOUS
370
25
 62
     7
100
AcDbCircle
 10
933.220613
 20
694.697646
 40
5.999877
100
AcDbArc
 50
95.25071
 51
180.0
  0
ARC
  5
2C3
100
AcDbEntity
  8
M1
  6
CONTINUOUS
370
25
 62
     7
100
AcDbCircle
 10
928.220613
 20
631.489455
 40
1.0
100
AcDbArc
 50
180.0
 51
268.48217
  0
ARC
  5
2C4
100
AcDbEntity
  8
M1
  6
CONTINUOUS
370
25
 62
     7
100
AcDbCircle
 10
928.220613
 20
631.980452
 40
1.0
100
AcDbArc
 50
90.0
 51
180.0
  0
LINE
  5
2C5
100
AcDbEntity
  8
M1
  6
CONTINUOUS
370
25
 62
     7
100
AcDbLine
 10
970.220613
 20
588.792464
 11
970.220613
 21
666.292464
  0
LINE
  5
2C6
100
AcDbEntity
  8
M1
  6
CONTINUOUS
370
25
 62
     7
100
AcDbLine
 10
976.220613
 20
588.792464
 11
976.220613
 21
741.292464
  0
ARC
  5
2C7
100
AcDbEntity
  8
M1
  6
CONTINUOUS
370
25
 62
     7
100
AcDbCircle
 10
928.220613
 20
740.71437
 40
1.0
100
AcDbArc
 50
180.0
 51
265.350784
  0
ARC
  5
2C8
100
AcDbEntity
  8
M1
  6
CONTINUOUS
370
25
 62
     7
100
AcDbCircle
 10
928.720613
 20
680.434249
 40
1.500023
100
AcDbArc
 50
91.99369
 51
180.0
  0
ARC
  5
2C9
100
AcDbEntity
  8
M1
  6
CONTINUOUS
370
25
 62
     7
100
AcDbCircle
 10
967.220613
 20
733.526747
 40
3.0
100
AcDbArc
 50
0.0
 51
85.346138
  0
ARC
  5
2CA
100
AcDbEntity
  8
M1
  6
CONTINUOUS
370
25
 62
     7
100
AcDbCircle
 10
927.720613
 20
593.368453
 40
0.5
100
AcDbArc
 50
90.0
 51
180.0
  0
ARC
  5
2CB
100
AcDbEntity
  8
M1
  6
CONTINUOUS
370
25
 62
     7
100
AcDbCircle
 10
967.220613
 20
626.454573
 40
3.0
100
AcDbArc
 50
0.0
 51
88.480896
  0
ARC
  5
2CC
100
AcDbEntity
  8
M1
  6
CONTINUOUS
370
25
 62
     7
100
AcDbCircle
 10
967.220613
 20
635.980452
 40
3.0
100
AcDbArc
 50
270.0
 51
360.0
  0
ARC
  5
2CD
100
AcDbEntity
  8
M1
  6
CONTINUOUS
370
25
 62
     7
100
AcDbCircle
 10
967.220613
 20
604.731765
 40
3.000073
100
AcDbArc
 50
271.447906
 51
360.000008
  0
ARC
  5
2CE
100
AcDbEntity
  8
M1
  6
CONTINUOUS
370
25
 62
     7
100
AcDbCircle
 10
969.220613
 20
594.868453
 40
1.0
100
AcDbArc
 50
270.0
 51
360.0
  0
ARC
  5
2CF
100
AcDbEntity
  8
M1
  6
CONTINUOUS
370
25
 62
     7
100
AcDbCircle
 10
969.220613
 20
591.513045
 40
1.0
100
AcDbArc
 50
0.0
 51
90.0
  0
ARC
  5
2D0
100
AcDbEntity
  8
M1
  6
CONTINUOUS
370
25
 62
     7
100
AcDbCircle
 10
927.520601
 20
600.426467
 40
0.299989
100
AcDbArc
 50
91.422333
 51
180.0
  0
ARC
  5
2D1
100
AcDbEntity
  8
M1
  6
CONTINUOUS
370
25
 62
     7
100
AcDbCircle
 10
927.720613
 20
593.013045
 40
0.5
100
AcDbArc
 50
180.0
 51
270.0
  0
ARC
  5
2D2
100
AcDbEntity
  8
M1
  6
CONTINUOUS
370
25
 62
     7
100
AcDbCircle
 10
927.520601
 20
600.064345
 40
0.299988
100
AcDbArc
 50
180.0
 51
270.0
  0
ARC
  5
2D3
100
AcDbEntity
  8
M1
  6
CONTINUOUS
370
25
 62
     7
100
AcDbCircle
 10
967.220613
 20
675.811873
 40
3.0
100
AcDbArc
 50
0.0
 51
90.0
  0
ARC
  5
2D4
100
AcDbEntity
  8
M1
  6
CONTINUOUS
370
25
 62
     7
100
AcDbCircle
 10
967.220613
 20
686.277053
 40
3.000018
100
AcDbArc
 50
271.994873
 51
359.999992
  0
LINE
  5
2D5
100
AcDbEntity
  8
M1
  6
CONTINUOUS
370
25
 62
     7
100
AcDbLine
 10
927.220613
 20
694.697646
 11
927.220613
 21
680.311965
  0
LINE
  5
2D6
100
AcDbEntity
  8
M1
  6
CONTINUOUS
370
25
 62
     7
100
AcDbLine
 10
928.139558
 20
739.717757
 11
967.464021
 21
736.51686
  0
LINE
  5
2D7
100
AcDbEntity
  8
M1
  6
CONTINUOUS
370
25
 62
     7
100
AcDbLine
 10
967.220613
 20
678.811873
 11
928.720613
 21
678.811873
  0
LINE
  5
2D8
100
AcDbEntity
  8
M1
  6
CONTINUOUS
370
25
 62
     7
100
AcDbLine
 10
969.220613
 20
593.868453
 11
927.720613
 21
593.868453
  0
LINE
  5
2D9
100
AcDbEntity
  8
M1
  6
CONTINUOUS
370
25
 62
     7
100
AcDbLine
 10
967.220613
 20
632.980452
 11
928.220613
 21
632.980452
  0
LINE
  5
2DA
100
AcDbEntity
  8
M1
  6
CONTINUOUS
370
25
 62
     7
100
AcDbLine
 10
985.220613
 20
676.292464
 11
994.220613
 21
676.292464
  0
LINE
  5
2DB
100
AcDbEntity
  8
M1
  6
CONTINUOUS
370
25
 62
     7
100
AcDbLine
 10
994.220613
 20
676.292464
 11
994.220613
 21
741.292464
  0
LINE
  5
2DC
100
AcDbEntity
  8
M1
  6
CONTINUOUS
370
25
 62
     7
100
AcDbLine
 10
985.220613
 20
631.292464
 11
985.220613
 21
741.292464
  0
LINE
  5
2DD
100
AcDbEntity
  8
M1
  6
CONTINUOUS
370
25
 62
     7
100
AcDbLine
 10
927.220613
 20
741.292464
 11
927.220613
 21
740.71437
  0
LINE
  5
2DE
100
AcDbEntity
  8
M1
  6
CONTINUOUS
370
25
 62
     7
100
AcDbLine
 10
970.220613
 20
588.792464
 11
970.220613
 21
741.292464
  0
LINE
  5
2DF
100
AcDbEntity
  8
M1
  6
CONTINUOUS
370
25
 62
     7
100
AcDbLine
 10
968.220613
 20
599.764357
 11
927.520601
 21
599.764357
  0
LINE
  5
2E0
100
AcDbEntity
  8
M1
  6
CONTINUOUS
370
25
 62
     7
100
AcDbLine
 10
928.66855
 20
681.933272
 11
967.325044
 21
683.278762
  0
LINE
  5
2E1
100
AcDbEntity
  8
M1
  6
CONTINUOUS
370
25
 62
     7
100
AcDbLine
 10
932.671541
 20
700.672469
 11
970.220613
 21
704.123366
  0
LINE
  5
2E2
100
AcDbEntity
  8
M1
  6
CONTINUOUS
370
25
 62
     7
100
AcDbLine
 10
927.220613
 20
661.661544
 11
927.220613
 21
631.489455
  0
LINE
  5
2E3
100
AcDbEntity
  8
M1
  6
CONTINUOUS
370
25
 62
     7
100
AcDbLine
 10
976.220613
 20
631.292464
 11
985.220613
 21
631.292464
  0
LINE
  5
2E4
100
AcDbEntity
  8
M1
  6
CONTINUOUS
370
25
 62
     7
100
AcDbLine
 10
927.220613
 20
593.013045
 11
927.220613
 21
631.489455
  0
LINE
  5
2E5
100
AcDbEntity
  8
M1
  6
CONTINUOUS
370
25
 62
     7
100
AcDbLine
 10
927.720613
 20
592.513045
 11
969.220613
 21
592.513045
  0
LINE
  5
2E6
100
AcDbEntity
  8
M1
  6
CONTINUOUS
370
25
 62
     7
100
AcDbLine
 10
970.220613
 20
588.792464
 11
976.220613
 21
588.792464
  0
LINE
  5
2E7
100
AcDbEntity
  8
M1
  6
CONTINUOUS
370
25
 62
     7
100
AcDbLine
 10
927.51291
 20
600.726363
 11
967.296418
 21
601.73265
  0
LINE
  5
2E8
100
AcDbEntity
  8
M1
  6
CONTINUOUS
370
25
 62
     7
100
AcDbLine
 10
932.704255
 20
667.638961
 11
970.220857
 21
670.880965
  0
LINE
  5
2E9
100
AcDbEntity
  8
M1
  6
CONTINUOUS
370
25
 62
     7
100
AcDbLine
 10
928.194246
 20
630.48976
 11
967.300203
 21
629.453444
  0
ARC
  5
2EA
100
AcDbEntity
  8
M1
  6
CONTINUOUS
370
25
 62
     7
100
AcDbCircle
 10
968.220613
 20
597.764357
 40
2.0
100
AcDbArc
 50
0.0
 51
90.0
  0
ARC
  5
2EB
100
AcDbEntity
  8
M1
  6
CONTINUOUS
370
25
 62
     7
100
AcDbCircle
 10
913.720613
 20
642.498549
 40
5.000029
100
AcDbArc
 50
92.410172
 51
180.0
  0
LINE
  5
2EC
100
AcDbEntity
  8
M1
  6
CONTINUOUS
370
25
 62
     7
100
AcDbLine
 10
913.510225
 20
647.494155
 11
927.220613
 21
648.071349
  0
LINE
  5
2ED
100
AcDbEntity
  8
M1
  6
CONTINUOUS
370
25
100
AcDbLine
 10
828.720613
 20
912.792464
 11
829.808214
 21
918.960509
  0
LINE
  5
2EE
100
AcDbEntity
  8
M1
  6
CONTINUOUS
370
25
100
AcDbLine
 10
830.787568
 20
919.934935
 11
838.720628
 21
921.292464
  0
LINE
  5
2EF
100
AcDbEntity
  8
M1
  6
CONTINUOUS
370
25
100
AcDbLine
 10
848.720613
 20
912.792464
 11
847.633012
 21
918.960509
  0
LINE
  5
2F0
100
AcDbEntity
  8
M1
  6
CONTINUOUS
370
25
100
AcDbLine
 10
828.720613
 20
912.792464
 11
833.67061
 21
912.792464
  0
LINE
  5
2F1
100
AcDbEntity
  8
M1
  6
CONTINUOUS
370
25
100
AcDbLine
 10
830.391877
 20
919.792464
 11
847.049318
 21
919.792464
  0
CIRCLE
  5
2F2
100
AcDbEntity
  8
M1
  6
CONTINUOUS
370
25
100
AcDbCircle
 10
838.720628
 20
933.792464
 40
12.5
  0
ARC
  5
2F3
100
AcDbEntity
  8
M1
  6
CONTINUOUS
370
25
100
AcDbCircle
 10
838.720628
 20
933.792464
 40
20.5
100
AcDbArc
 50
301.377296
 51
598.622551
  0
LINE
  5
2F4
100
AcDbEntity
  8
M1
  6
CONTINUOUS
370
25
100
AcDbLine
 10
843.770616
 20
912.792464
 11
848.720613
 21
912.792464
  0
LINE
  5
2F5
100
AcDbEntity
  8
M1
  6
CONTINUOUS
370
25
100
AcDbLine
 10
846.653627
 20
919.934951
 11
838.720628
 21
921.292464
  0
LINE
  5
2F6
100
AcDbEntity
  8
M1
  6
CONTINUOUS
370
25
100
AcDbLine
 10
833.67061
 20
912.792464
 11
843.770616
 21
912.792464
  0
LINE
  5
2F7
100
AcDbEntity
  8
M1
  6
CONTINUOUS
370
25
100
AcDbLine
 10
849.220617
 20
910.792464
 11
828.220617
 21
910.792464
  0
LINE
  5
2F8
100
AcDbEntity
  8
M1
  6
CONTINUOUS
370
25
100
AcDbLine
 10
828.220617
 20
910.792464
 11
828.220617
 21
908.792464
  0
LINE
  5
2F9
100
AcDbEntity
  8
M1
  6
CONTINUOUS
370
25
100
AcDbLine
 10
849.220617
 20
908.792464
 11
849.220617
 21
910.792464
  0
LINE
  5
2FA
100
AcDbEntity
  8
M1
  6
CONTINUOUS
370
25
100
AcDbLine
 10
849.220618
 20
912.792464
 11
828.220618
 21
912.792464
  0
LINE
  5
2FB
100
AcDbEntity
  8
M1
  6
CONTINUOUS
370
25
100
AcDbLine
 10
828.220618
 20
912.792464
 11
828.220618
 21
910.792464
  0
ARC
  5
2FC
100
AcDbEntity
  8
M1
  6
CONTINUOUS
370
25
100
AcDbCircle
 10
850.435746
 20
914.58293
 40
2.0
100
AcDbArc
 50
121.377657
 51
190.000231
  0
ARC
  5
2FD
100
AcDbEntity
  8
M1
  6
CONTINUOUS
370
25
100
AcDbCircle
 10
827.005464
 20
914.582946
 40
2.0
100
AcDbArc
 50
349.999769
 51
418.622716
  0
ARC
  5
2FE
100
AcDbEntity
  8
M1
  6
CONTINUOUS
370
25
100
AcDbCircle
 10
830.989976
 20
918.752135
 40
1.2
100
AcDbArc
 50
99.710734
 51
170.000123
  0
ARC
  5
2FF
100
AcDbEntity
  8
M1
  6
CONTINUOUS
370
25
100
AcDbCircle
 10
846.451234
 20
918.752135
 40
1.2
100
AcDbArc
 50
9.99975
 51
80.290107
  0
LINE
  5
300
100
AcDbEntity
  8
M1
  6
CONTINUOUS
370
25
100
AcDbLine
 10
849.220618
 20
910.792464
 11
849.220618
 21
912.792464
  0
LINE
  5
301
100
AcDbEntity
  8
M1
  6
CONTINUOUS
370
25
100
AcDbLine
 10
431.866243
 20
910.792525
 11
431.866243
 21
912.792525
  0
LINE
  5
302
100
AcDbEntity
  8
M1
  6
CONTINUOUS
370
25
100
AcDbLine
 10
431.866243
 20
912.792525
 11
410.866243
 21
912.792525
  0
LINE
  5
303
100
AcDbEntity
  8
M1
  6
CONTINUOUS
370
25
100
AcDbLine
 10
410.866243
 20
912.792525
 11
410.866243
 21
910.792525
  0
LINE
  5
304
100
AcDbEntity
  8
M1
  6
CONTINUOUS
370
25
100
AcDbLine
 10
425.366258
 20
917.496962
 11
425.366258
 21
950.292495
  0
LINE
  5
305
100
AcDbEntity
  8
M1
  6
CONTINUOUS
370
25
100
AcDbLine
 10
417.366258
 20
950.29251
 11
417.366258
 21
917.496962
  0
ARC
  5
306
100
AcDbEntity
  8
M1
  6
CONTINUOUS
370
25
100
AcDbCircle
 10
421.366258
 20
950.29251
 40
4.0
100
AcDbArc
 50
0.0
 51
180.0
  0
ARC
  5
307
100
AcDbEntity
  8
M1
  6
DASHED
370
13
100
AcDbCircle
 10
421.366258
 20
950.29251
 40
4.0
100
AcDbArc
 50
180.0
 51
360.0
  0
LINE
  5
308
100
AcDbEntity
  8
M1
  6
CONTINUOUS
370
25
100
AcDbLine
 10
416.366243
 20
908.792525
 11
416.316224
 21
908.792525
  0
LINE
  5
309
100
AcDbEntity
  8
M1
  6
CONTINUOUS
370
25
100
AcDbLine
 10
411.366258
 20
912.792525
 11
431.366258
 21
912.792525
  0
LINE
  5
30A
100
AcDbEntity
  8
M1
  6
CONTINUOUS
370
25
100
AcDbLine
 10
426.416231
 20
908.792525
 11
426.366243
 21
908.792525
  0
ARC
  5
30B
100
AcDbEntity
  8
M1
  6
CONTINUOUS
370
25
100
AcDbCircle
 10
415.766252
 20
917.496962
 40
1.599999
100
AcDbArc
 50
270.0
 51
360.0
  0
ARC
  5
30C
100
AcDbEntity
  8
M1
  6
CONTINUOUS
370
25
100
AcDbCircle
 10
426.966249
 20
917.496962
 40
1.599999
100
AcDbArc
 50
180.0
 51
270.0
  0
LINE
  5
30D
100
AcDbEntity
  8
M1
  6
CONTINUOUS
370
25
100
AcDbLine
 10
431.366227
 20
912.792525
 11
430.278657
 21
918.96057
  0
LINE
  5
30E
100
AcDbEntity
  8
M1
  6
CONTINUOUS
370
25
100
AcDbLine
 10
411.366227
 20
912.792525
 11
412.453843
 21
918.96057
  0
LINE
  5
30F
100
AcDbEntity
  8
M1
  6
CONTINUOUS
370
25
100
AcDbLine
 10
413.433214
 20
919.935012
 11
417.366258
 21
920.608031
  0
LINE
  5
310
100
AcDbEntity
  8
M1
  6
CONTINUOUS
370
25
100
AcDbLine
 10
429.299272
 20
919.935012
 11
425.366258
 21
920.608031
  0
ARC
  5
311
100
AcDbEntity
  8
M1
  6
CONTINUOUS
370
25
100
AcDbCircle
 10
413.635621
 20
918.752196
 40
1.2
100
AcDbArc
 50
99.710612
 51
170.00025
  0
ARC
  5
312
100
AcDbEntity
  8
M1
  6
CONTINUOUS
370
25
100
AcDbCircle
 10
429.096879
 20
918.752196
 40
1.2
100
AcDbArc
 50
9.99975
 51
80.290107
  0
LINE
  5
313
100
AcDbEntity
  8
M1
  6
DASHED
370
13
100
AcDbLine
 10
417.366258
 20
920.608031
 11
421.366243
 21
921.292525
  0
LINE
  5
314
100
AcDbEntity
  8
M1
  6
DASHED
370
13
100
AcDbLine
 10
425.366258
 20
920.608031
 11
421.366243
 21
921.292525
  0
LINE
  5
315
100
AcDbEntity
  8
M1
  6
CONTINUOUS
370
25
100
AcDbLine
 10
431.866243
 20
908.792525
 11
431.866243
 21
910.792525
  0
LINE
  5
316
100
AcDbEntity
  8
M1
  6
CONTINUOUS
370
25
100
AcDbLine
 10
431.866243
 20
910.792525
 11
410.866243
 21
910.792525
  0
LINE
  5
317
100
AcDbEntity
  8
M1
  6
CONTINUOUS
370
25
100
AcDbLine
 10
410.866243
 20
910.792525
 11
410.866243
 21
908.792525
  0
LINE
  5
318
100
AcDbEntity
  8
M1
  6
CONTINUOUS
370
25
100
AcDbLine
 10
410.866243
 20
908.792525
 11
431.866243
 21
908.792525
  0
LINE
  5
319
100
AcDbEntity
  8
M1
  6
CONTINUOUS
370
25
100
AcDbLine
 10
1344.247331
 20
908.792487
 11
1344.247331
 21
910.792487
  0
LINE
  5
31A
100
AcDbEntity
  8
M1
  6
CONTINUOUS
370
25
100
AcDbLine
 10
1323.247331
 20
910.792487
 11
1323.247331
 21
908.792487
  0
LINE
  5
31B
100
AcDbEntity
  8
M1
  6
CONTINUOUS
370
25
100
AcDbLine
 10
1323.247331
 20
908.792487
 11
1344.247331
 21
908.792487
  0
LINE
  5
31C
100
AcDbEntity
  8
M1
  6
CONTINUOUS
370
25
100
AcDbLine
 10
1344.247331
 20
910.792487
 11
1344.247331
 21
912.792487
  0
LINE
  5
31D
100
AcDbEntity
  8
M1
  6
CONTINUOUS
370
25
100
AcDbLine
 10
1344.247331
 20
912.792487
 11
1323.247331
 21
912.792487
  0
LINE
  5
31E
100
AcDbEntity
  8
M1
  6
CONTINUOUS
370
25
100
AcDbLine
 10
1323.247331
 20
912.792487
 11
1323.247331
 21
910.792487
  0
LINE
  5
31F
100
AcDbEntity
  8
M1
  6
CONTINUOUS
370
25
100
AcDbLine
 10
1323.247331
 20
910.792487
 11
1344.247331
 21
910.792487
  0
LINE
  5
320
100
AcDbEntity
  8
M1
  6
CONTINUOUS
370
25
100
AcDbLine
 10
1337.747346
 20
917.496924
 11
1337.747346
 21
950.292456
  0
LINE
  5
321
100
AcDbEntity
  8
M1
  6
CONTINUOUS
370
25
100
AcDbLine
 10
1329.747346
 20
950.292472
 11
1329.747346
 21
917.496924
  0
ARC
  5
322
100
AcDbEntity
  8
M1
  6
CONTINUOUS
370
25
100
AcDbCircle
 10
1333.747346
 20
950.292472
 40
4.0
100
AcDbArc
 50
0.0
 51
180.0
  0
ARC
  5
323
100
AcDbEntity
  8
M1
  6
DASHED
370
13
100
AcDbCircle
 10
1333.747346
 20
950.292472
 40
4.0
100
AcDbArc
 50
180.0
 51
360.0
  0
LINE
  5
324
100
AcDbEntity
  8
M1
  6
CONTINUOUS
370
25
100
AcDbLine
 10
1323.747346
 20
912.792487
 11
1343.747346
 21
912.792487
  0
ARC
  5
325
100
AcDbEntity
  8
M1
  6
CONTINUOUS
370
25
100
AcDbCircle
 10
1328.14734
 20
917.496924
 40
1.599999
100
AcDbArc
 50
270.0
 51
360.0
  0
ARC
  5
326
100
AcDbEntity
  8
M1
  6
CONTINUOUS
370
25
100
AcDbCircle
 10
1339.347337
 20
917.496924
 40
1.599999
100
AcDbArc
 50
180.0
 51
270.0
  0
LINE
  5
327
100
AcDbEntity
  8
M1
  6
CONTINUOUS
370
25
100
AcDbLine
 10
1343.747316
 20
912.792487
 11
1342.659746
 21
918.960532
  0
LINE
  5
328
100
AcDbEntity
  8
M1
  6
CONTINUOUS
370
25
100
AcDbLine
 10
1323.747316
 20
912.792487
 11
1324.834932
 21
918.960532
  0
LINE
  5
329
100
AcDbEntity
  8
M1
  6
CONTINUOUS
370
25
100
AcDbLine
 10
1325.814302
 20
919.934973
 11
1329.747346
 21
920.607993
  0
LINE
  5
32A
100
AcDbEntity
  8
M1
  6
CONTINUOUS
370
25
100
AcDbLine
 10
1341.68036
 20
919.934973
 11
1337.747346
 21
920.607993
  0
ARC
  5
32B
100
AcDbEntity
  8
M1
  6
CONTINUOUS
370
25
100
AcDbCircle
 10
1326.01671
 20
918.752158
 40
1.2
100
AcDbArc
 50
99.710612
 51
170.00025
  0
ARC
  5
32C
100
AcDbEntity
  8
M1
  6
CONTINUOUS
370
25
100
AcDbCircle
 10
1341.477968
 20
918.752158
 40
1.2
100
AcDbArc
 50
9.99975
 51
80.290107
  0
LINE
  5
32D
100
AcDbEntity
  8
M1
  6
DASHED
370
13
100
AcDbLine
 10
1329.747346
 20
920.607993
 11
1333.747331
 21
921.292487
  0
LINE
  5
32E
100
AcDbEntity
  8
M1
  6
DASHED
370
13
100
AcDbLine
 10
1337.747346
 20
920.607993
 11
1333.747331
 21
921.292487
  0
ENDSEC
  0
SECTION
  2
OBJECTS
  0
DICTIONARY
  5
C
100
AcDbDictionary
  3
ACAD_GROUP
350
D
  3
ACAD_MLINESTYLE
350
E
  0
DICTIONARY
  5
D
102
{ACAD_REACTORS
330
C
102
}
100
AcDbDictionary
  0
DICTIONARY
  5
E
102
{ACAD_REACTORS
330
C
102
}
100
AcDbDictionary
  3
STANDARD
350
13
  0
MLINESTYLE
  5
13
102
{ACAD_REACTORS
330
E
102
}
100
AcDbMlineStyle
  2
STANDARD
 70
     0
  3

 62
     0
 51
90.0
 52
90.0
 71
     2
 49
0.5
 62
   256
  6
BYLAYER
 49
-0.5
 62
   256
  6
BYLAYER
  0
ENDSEC
  0
EOF
