  0
SECTION
  2
HEADER
  9
$ACADVER
  1
AC1015
  9
$INSBASE
 10
0.0
 20
0.0
  9
$VIEWCTR
 10
7.531722
 20
4.5
  9
$VIEWSIZE
 40
9.0
  9
$SNAPMODE
 70
     0
  9
$SNAPUNIT
 10
1.0
 20
1.0
  9
$SNAPBASE
 10
0.0
 20
0.0
  9
$SNAPANG
 50
0.0
  9
$SNAPSTYLE
 70
     0
  9
$SNAPISOPAIR
 70
     0
  9
$GRIDMODE
 70
     0
  9
$GRIDUNIT
 10
0.0
 20
0.0
  9
$ORTHOMODE
 70
     0
  9
$REGENMODE
 70
     1
  9
$FILLMODE
 70
     1
  9
$QTEXTMODE
 70
     0
  9
$DRAGMODE
 70
     2
  9
$LTSCALE
 40
1.0
  9
$OSMODE
 70
     0
  9
$ATTMODE
 70
     1
  9
$TEXTSIZE
 40
0.2
  9
$TRACEWID
 40
0.05
  9
$TEXTSTYLE
  7
STANDARD
  9
$CELTYPE
  6
BYLAYER
  9
$CECOLOR
 62
   256
  9
$DIMSCALE
 40
1.0
  9
$DIMASZ
 40
0.18
  9
$DIMEXO
 40
0.0625
  9
$DIMDLI
 40
0.38
  9
$DIMRND
 40
0.0
  9
$DIMDLE
 40
0.0
  9
$DIMEXE
 40
0.18
  9
$DIMTP
 40
0.0
  9
$DIMTM
 40
0.0
  9
$DIMTXT
 40
0.18
  9
$DIMCEN
 40
0.09
  9
$DIMTSZ
 40
0.0
  9
$DIMADEC
 70
     0
  9
$DIMALTRND
 40
0.000000
  9
$DIMAZIN
 70
     0
  9
$DIMDSEP
 70
    46
  9
$DIMATFIT
 70
     3
  9
$DIMFRAC
 70
     0
  9
$DIMLDRBLK
  1

  9
$DIMLUNIT
 70
     2
  9
$DIMLWD
 70
   13
  9
$DIMLWE
 70
   13
  9
$DIMTMOVE
 70
     0
  9
$CELWEIGHT
370
    25
  9
$LWDISPLAY
290
    1
  9
$EXTNAMES
290
    1
  9
$DIMTOL
 70
     0
  9
$DIMLIM
 70
     0
  9
$DIMTIH
 70
     1
  9
$DIMTOH
 70
     1
  9
$DIMSE1
 70
     0
  9
$DIMSE2
 70
     0
  9
$DIMTAD
 70
     0
  9
$DIMZIN
 70
     0
  9
$DIMBLK
  1

  9
$LUNITS
 70
     2
  9
$LUPREC
 70
     4
  9
$AXISMODE
 70
     0
  9
$AXISUNIT
 10
0.0
 20
0.0
  9
$SKETCHINC
 40
0.1
  9
$FILLETRAD
 40
0.0
  9
$AUNITS
 70
     0
  9
$AUPREC
 70
     0
  9
$MENU
  1
ACAD
  9
$ELEVATION
 40
0.0
  9
$THICKNESS
 40
0.0
  9
$VIEWDIR
 10
0.0
 20
0.0
 30
1.0
  9
$LIMCHECK
 70
     0
  9
$BLIPMODE
 70
     1
  9
$CHAMFERA
 40
0.0
  9
$CHAMFERB
 40
0.0
  9
$FASTZOOM
 70
     1
  9
$SKPOLY
 70
     0
  9
$TDCREATE
 40
0000000.0000000000
  9
$TDUPDATE
 40
0000000.0000000000
  9
$TDINDWG
 40
0.0000000000
  9
$TDUSRTIMER
 40
0.0000000000
  9
$USRTIMER
 70
     1
  9
$ANGBASE
 50
0.0
  9
$ANGDIR
 70
     0
  9
$PDMODE
 70
     0
  9
$PDSIZE
 40
0.0
  9
$PLINEWID
 40
0.0
  9
$COORDS
 70
     0
  9
$USERI1
 70
     0
  9
$USERI2
 70
     0
  9
$USERI3
 70
     0
  9
$USERI4
 70
     0
  9
$USERI5
 70
     0
  9
$USERR1
 40
0.0
  9
$USERR2
 40
0.0
  9
$USERR3
 40
0.0
  9
$USERR4
 40
0.0
  9
$USERR5
 40
0.0
  9
$CLAYER
  8
M0
  9
$EXTMIN
 10
0.0
 20
0.0
  9
$EXTMAX
 10
841.0
 20
594.0
  9
$LIMMIN
 10
0.0
 20
0.0
  9
$LIMMAX
 10
841.0
 20
594.0
  9
$HANDSEED
  5
2C0
  0
ENDSEC
  0
SECTION
  2
CLASSES
  0
ENDSEC
  0
SECTION
  2
TABLES
  0
TABLE
  2
VPORT
  5
8
100
AcDbSymbolTable
 70
     2
  0
VPORT
  5
14
100
AcDbSymbolTableRecord
100
AcDbViewportTableRecord
  2
*ACTIVE
 70
     0
 10
0.0
 20
0.0
 11
1.0
 21
1.0
 12
484.0
 22
297.0
 13
0.0
 23
0.0
 14
1.0
 24
1.0
 15
0.0
 25
0.0
 16
0.0
 26
0.0
 36
1.0
 17
0.0
 27
0.0
 37
0.0
 40
594.0
 41
2.0
 42
50.0
 43
0.0
 44
0.0
 50
0.0
 51
0.0
 71
     0
 72
   100
 73
     1
 74
     1
 75
     0
 76
     0
 77
     0
 78
     0
  0
ENDTAB
  0
TABLE
  2
LTYPE
  5
5
100
AcDbSymbolTable
 70
     5
  0
LTYPE
  5
15
100
AcDbSymbolTableRecord
100
AcDbLinetypeTableRecord
  2
BYBLOCK
 70
     0
  3

 72
    65
 73
     0
 40
0.0
  0
LTYPE
  5
16
100
AcDbSymbolTableRecord
100
AcDbLinetypeTableRecord
  2
BYLAYER
 70
     0
  3

 72
    65
 73
     0
 40
0.0
  0
LTYPE
  5
17
100
AcDbSymbolTableRecord
100
AcDbLinetypeTableRecord
  2
CONTINUOUS
 70
    64
  3
Solid line
 72
    65
 73
     0
 40
0.0
  0
LTYPE
  5
18
100
AcDbSymbolTableRecord
100
AcDbLinetypeTableRecord
  2
DASHED
 70
    64
  3
__ __ __ __ __ __ __ __ __ __ __ __ __ __ __ __
 72
    65
 73
     2
 40
0.75
 49
0.5
 74
     0
 49
-0.25
 74
     0
  0
LTYPE
  5
19
100
AcDbSymbolTableRecord
100
AcDbLinetypeTableRecord
  2
DASHDOT
 70
    64
  3
__ . __ . __ . __ . __ . __ . __ . __ . __ . __
 72
    65
 73
     4
 40
1.0
 49
0.5
 74
     0
 49
-0.25
 74
     0
 49
0.0
 74
     0
 49
-0.25
 74
     0
  0
LTYPE
  5
1A
100
AcDbSymbolTableRecord
100
AcDbLinetypeTableRecord
  2
DIVIDE
 70
    64
  3
____ . . ____ . . ____ . . ____ . . ____ . . __
 72
    65
 73
     6
 40
1.25
 49
0.5
 74
     0
 49
-0.25
 74
     0
 49
0.0
 74
     0
 49
-0.25
 74
     0
 49
0.0
 74
     0
 49
-0.25
 74
     0
  0
LTYPE
  5
1B
100
AcDbSymbolTableRecord
100
AcDbLinetypeTableRecord
  2
DOT
 70
    64
  3
. . . . . . . . . . . . . . . . . . . . . . . .
 72
    65
 73
     2
 40
0.25
 49
0.0
 74
     0
 49
-0.25
 74
     0
  0
ENDTAB
  0
TABLE
  2
LAYER
  5
2
100
AcDbSymbolTable
 70
   102
  0
LAYER
  5
F
100
AcDbSymbolTableRecord
100
AcDbLayerTableRecord
  2
0
 70
     0
 62
     7
  6
CONTINUOUS
370
     -3
390
F
  0
LAYER
  5
1C
100
AcDbSymbolTableRecord
100
AcDbLayerTableRecord
  2
M0
 70
     0
 62
     7
  6
CONTINUOUS
370
     -3
390
F
  0
ENDTAB
  0
TABLE
  2
STYLE
  5
3
100
AcDbSymbolTable
 70
     2
  0
STYLE
  5
10
100
AcDbSymbolTableRecord
100
AcDbTextStyleTableRecord
  2
STANDARD
 70
     0
 40
0.0
 41
1.0
 50
0.0
 71
     0
 42
0.2
  3
txt
  4
BIGFONT
  0
ENDTAB
  0
TABLE
  2
VIEW
  5
6
100
AcDbSymbolTable
 70
     0
  0
ENDTAB
  0
TABLE
  2
UCS
  5
7
100
AcDbSymbolTable
 70
     0
  0
ENDTAB
  0
TABLE
  2
APPID
  5
9
100
AcDbSymbolTable
 70
     1
  0
APPID
  5
11
100
AcDbSymbolTableRecord
100
AcDbRegAppTableRecord
  2
ACAD
 70
     0
  0
ENDTAB
  0
TABLE
  2
DIMSTYLE
  5
A
100
AcDbSymbolTable
 70
     2
100
AcDbDimStyleTable
 71
     1
  0
DIMSTYLE
105
23
100
AcDbSymbolTableRecord
100
AcDbDimStyleTableRecord
  2
STANDARD
 70
     0
  3

  4

  5

  6
_OPEN
  7
_OPEN
 40
1.0
 41
3.0
 42
0.5
 43
8.0
 44
1.5
 45
0.0
 46
0.0
 47
0.0
 48
0.0
140
3.15
141
0.09
142
0.0
143
0.03937
144
1.0
145
0.0
146
1.0
147
1.0
148
0.000000
 71
     0
 72
     0
 73
     0
 74
     0
 75
     0
 76
     0
 77
     3
 78
     8
170
     0
171
     2
172
     0
173
     1
174
     0
175
     0
176
     0
177
     0
178
     0
270
     2
271
     2
272
     4
273
     2
274
     2
340
10
275
     0
278
    46
280
     0
281
     0
282
     0
283
     1
284
     0
285
     0
286
     0
287
     3
288
     0
371
   13
372
   13
  0
DIMSTYLE
105
24
100
AcDbSymbolTableRecord
100
AcDbDimStyleTableRecord
  2
LEADSTYL
 70
     0
  3

  4

  5

  6
_OPEN
  7
_OPEN
 40
1.0
 41
3.0
 42
0.0625
 43
0.38
 44
0.18
 45
0.0
 46
0.0
 47
0.0
 48
0.0
140
3.15
141
0.09
142
0.0
143
25.4
144
1.0
145
0.0
146
1.0
147
1.0
 71
     0
 72
     0
 73
     1
 74
     1
 75
     0
 76
     0
 77
     0
 78
     0
170
     0
171
     2
172
     0
173
     1
174
     0
175
     0
176
     0
177
     0
178
     0
270
     2
271
     4
272
     4
273
     2
274
     2
340
10
275
     0
280
     0
281
     0
282
     0
283
     1
284
     0
285
     0
286
     0
287
     3
288
     0
  0
ENDTAB
  0
TABLE
  2
BLOCK_RECORD
  5
1
100
AcDbSymbolTable
 70
     6
  0
BLOCK_RECORD
  5
1D
100
AcDbSymbolTableRecord
100
AcDbBlockTableRecord
  2
*MODEL_SPACE
  0
BLOCK_RECORD
  5
20
100
AcDbSymbolTableRecord
100
AcDbBlockTableRecord
  2
*PAPER_SPACE
  0
BLOCK_RECORD
  5
25
100
AcDbSymbolTableRecord
100
AcDbBlockTableRecord
  2
_NONE
  0
BLOCK_RECORD
  5
29
100
AcDbSymbolTableRecord
100
AcDbBlockTableRecord
  2
_OPEN
  0
BLOCK_RECORD
  5
2F
100
AcDbSymbolTableRecord
100
AcDbBlockTableRecord
  2
_CLOSED
  0
BLOCK_RECORD
  5
36
100
AcDbSymbolTableRecord
100
AcDbBlockTableRecord
  2
_ORIGIN
  0
BLOCK_RECORD
  5
3B
100
AcDbSymbolTableRecord
100
AcDbBlockTableRecord
  2
_DOT
  0
BLOCK_RECORD
  5
43
100
AcDbSymbolTableRecord
100
AcDbBlockTableRecord
  2
_OBLIQUE
  0
ENDTAB
  0
ENDSEC
  0
SECTION
  2
BLOCKS
  0
BLOCK
  5
1E
100
AcDbEntity
  8
0
100
AcDbBlockBegin
  2
*MODEL_SPACE
 70
     0
 10
0.0
 20
0.0
 30
0.0
  3
*MODEL_SPACE
  1

  0
ENDBLK
  5
1F
100
AcDbEntity
  8
0
100
AcDbBlockEnd
  0
BLOCK
  5
21
100
AcDbEntity
 67
     1
  8
0
100
AcDbBlockBegin
  2
*PAPER_SPACE
 70
     0
 10
0.0
 20
0.0
 30
0.0
  3
*PAPER_SPACE
  1

  0
ENDBLK
  5
22
100
AcDbEntity
 67
     1
  8
0
100
AcDbBlockEnd
  0
BLOCK
  5
26
100
AcDbEntity
  8
0
100
AcDbBlockBegin
  2
_NONE
 70
     0
 10
0.0
 20
0.0
  0
CIRCLE
  5
27
100
AcDbEntity
  8
0
 62
     0
370
13
100
AcDbCircle
 10
0.0
 20
0.0
 40
0.25
  0
ENDBLK
  5
28
100
AcDbEntity
  8
0
100
AcDbBlockEnd
  0
BLOCK
  5
2A
100
AcDbEntity
  8
0
100
AcDbBlockBegin
  2
_OPEN
 70
     0
 10
0.0
 20
0.0
  0
LINE
  5
2B
100
AcDbEntity
  8
0
 62
     0
370
13
100
AcDbLine
 10
-0.965926
 20
0.258819
 11
0.0
 21
0.0
  0
LINE
  5
2C
100
AcDbEntity
  8
0
 62
     0
370
13
100
AcDbLine
 10
0.0
 20
0.0
 11
-0.965926
 21
-0.258819
  0
LINE
  5
2D
100
AcDbEntity
  8
0
 62
     0
370
13
100
AcDbLine
 10
0.0
 20
0.0
 11
-1.0
 21
0.0
  0
ENDBLK
  5
2E
100
AcDbEntity
  8
0
100
AcDbBlockEnd
  0
BLOCK
  5
30
100
AcDbEntity
  8
0
100
AcDbBlockBegin
  2
_CLOSED
 70
     0
 10
0.0
 20
0.0
  0
LINE
  5
31
100
AcDbEntity
  8
0
 62
     0
370
13
100
AcDbLine
 10
-0.965926
 20
0.258819
 11
0.0
 21
0.0
  0
LINE
  5
32
100
AcDbEntity
  8
0
 62
     0
370
13
100
AcDbLine
 10
0.0
 20
0.0
 11
-0.965926
 21
-0.258819
  0
LINE
  5
33
100
AcDbEntity
  8
0
 62
     0
370
13
100
AcDbLine
 10
-0.965926
 20
0.258819
 11
-0.965926
 21
-0.258819
  0
LINE
  5
34
100
AcDbEntity
  8
0
 62
     0
370
13
100
AcDbLine
 10
0.0
 20
0.0
 11
-1.0
 21
0.0
  0
ENDBLK
  5
35
100
AcDbEntity
  8
0
100
AcDbBlockEnd
  0
BLOCK
  5
37
100
AcDbEntity
  8
0
100
AcDbBlockBegin
  2
_ORIGIN
 70
     0
 10
0.0
 20
0.0
  0
CIRCLE
  5
38
100
AcDbEntity
  8
0
 62
     0
370
13
100
AcDbCircle
 10
0.0
 20
0.0
 40
0.5
  0
LINE
  5
39
100
AcDbEntity
  8
0
 62
     0
370
13
100
AcDbLine
 10
0.0
 20
0.0
 11
-1.0
 21
0.0
  0
ENDBLK
  5
3A
100
AcDbEntity
  8
0
100
AcDbBlockEnd
  0
BLOCK
  5
3C
100
AcDbEntity
  8
0
100
AcDbBlockBegin
  2
_DOT
 70
     0
 10
0.0
 20
0.0
  0
POLYLINE
  5
3D
100
AcDbEntity
  8
0
 62
     0
100
AcDb2dPolyline
 66
     1
 70
     1
 40
0.5
 41
0.5
  0
VERTEX
  5
3E
100
AcDbEntity
  8
0
 62
     0
100
AcDbVertex
100
AcDb2dVertex
 10
-0.25
 20
0.0
 42
1.0
  0
VERTEX
  5
3F
100
AcDbEntity
  8
0
 62
     0
100
AcDbVertex
100
AcDb2dVertex
 10
0.25
 20
0.0
 42
1.0
  0
SEQEND
  5
40
100
AcDbEntity
  8
0
 62
     0
  0
LINE
  5
41
100
AcDbEntity
  8
0
 62
     0
370
13
100
AcDbLine
 10
-0.5
 20
0.0
 11
-1.0
 21
0.0
  0
ENDBLK
  5
42
100
AcDbEntity
  8
0
100
AcDbBlockEnd
  0
BLOCK
  5
44
100
AcDbEntity
  8
0
100
AcDbBlockBegin
  2
_OBLIQUE
 70
     0
 10
0.0
 20
0.0
  0
LINE
  5
45
100
AcDbEntity
  8
0
 62
     0
370
13
100
AcDbLine
 10
-0.353553
 20
-0.353553
 11
0.353553
 21
0.353553
  0
ENDBLK
  5
46
100
AcDbEntity
  8
0
100
AcDbBlockEnd
  0
ENDSEC
  0
SECTION
  2
ENTITIES
  0
ARC
  5
47
100
AcDbEntity
  8
M0
  6
CONTINUOUS
370
25
100
AcDbCircle
 10
187.493737
 20
304.426851
 40
76.0
100
AcDbArc
 50
61.507958
 51
418.492042
  0
ARC
  5
48
100
AcDbEntity
  8
M0
  6
CONTINUOUS
370
25
100
AcDbCircle
 10
187.493737
 20
304.426851
 40
7.5
100
AcDbArc
 50
109.471221
 51
430.528779
  0
LINE
  5
49
100
AcDbEntity
  8
M0
  6
CONTINUOUS
370
25
100
AcDbLine
 10
433.275413
 20
380.426851
 11
391.675413
 21
380.426851
  0
LINE
  5
4A
100
AcDbEntity
  8
M0
  6
CONTINUOUS
370
25
100
AcDbLine
 10
442.275413
 20
370.426851
 11
434.775413
 21
370.426851
  0
LINE
  5
4B
100
AcDbEntity
  8
M0
  6
CONTINUOUS
370
25
100
AcDbLine
 10
434.775413
 20
370.426851
 11
434.775413
 21
368.426851
  0
LINE
  5
4C
100
AcDbEntity
  8
M0
  6
CONTINUOUS
370
25
100
AcDbLine
 10
442.275413
 20
370.426851
 11
442.275413
 21
357.426851
  0
LINE
  5
4D
100
AcDbEntity
  8
M0
  6
CONTINUOUS
370
25
100
AcDbLine
 10
436.275413
 20
368.43655
 11
436.275413
 21
356.426851
  0
LINE
  5
4E
100
AcDbEntity
  8
M0
  6
CONTINUOUS
370
25
100
AcDbLine
 10
436.275413
 20
368.426851
 11
434.775413
 21
368.426851
  0
LINE
  5
4F
100
AcDbEntity
  8
M0
  6
CONTINUOUS
370
25
100
AcDbLine
 10
437.775413
 20
356.426851
 11
436.275413
 21
356.426851
  0
LINE
  5
50
100
AcDbEntity
  8
M0
  6
CONTINUOUS
370
25
100
AcDbLine
 10
436.275413
 20
324.426851
 11
434.775413
 21
324.426851
  0
LINE
  5
51
100
AcDbEntity
  8
M0
  6
CONTINUOUS
370
25
100
AcDbLine
 10
436.275413
 20
324.426851
 11
436.275413
 21
315.426851
  0
LINE
  5
52
100
AcDbEntity
  8
M0
  6
CONTINUOUS
370
25
100
AcDbLine
 10
437.775413
 20
356.426851
 11
437.775413
 21
332.226851
  0
LINE
  5
53
100
AcDbEntity
  8
M0
  6
CONTINUOUS
370
25
100
AcDbLine
 10
442.275413
 20
357.426851
 11
446.643102
 21
339.082557
  0
LINE
  5
54
100
AcDbEntity
  8
M0
  6
CONTINUOUS
370
25
100
AcDbLine
 10
445.688665
 20
334.205404
 11
442.275413
 21
329.426851
  0
LINE
  5
55
100
AcDbEntity
  8
M0
  6
CONTINUOUS
370
25
100
AcDbLine
 10
434.775413
 20
329.426851
 11
439.760524
 21
334.079621
  0
LINE
  5
56
100
AcDbEntity
  8
M0
  6
CONTINUOUS
370
25
100
AcDbLine
 10
437.775413
 20
356.426851
 11
441.520273
 21
339.783026
  0
LINE
  5
57
100
AcDbEntity
  8
M0
  6
CONTINUOUS
370
25
100
AcDbLine
 10
442.275413
 20
329.426851
 11
442.275413
 21
304.426851
  0
LINE
  5
58
100
AcDbEntity
  8
M0
  6
CONTINUOUS
370
25
100
AcDbLine
 10
434.775413
 20
329.426851
 11
434.775413
 21
324.426851
  0
LINE
  5
59
100
AcDbEntity
  8
M0
  6
CONTINUOUS
370
25
100
AcDbLine
 10
431.775413
 20
353.901851
 11
393.175413
 21
353.901851
  0
LINE
  5
5A
100
AcDbEntity
  8
M0
  6
CONTINUOUS
370
25
100
AcDbLine
 10
434.275413
 20
379.426851
 11
434.275413
 21
368.426851
  0
LINE
  5
5B
100
AcDbEntity
  8
M0
  6
CONTINUOUS
370
25
100
AcDbLine
 10
436.275413
 20
368.426851
 11
434.275413
 21
368.426851
  0
LINE
  5
5C
100
AcDbEntity
  8
M0
  6
CONTINUOUS
370
25
100
AcDbLine
 10
434.275413
 20
379.426851
 11
433.275413
 21
380.426851
  0
LINE
  5
5D
100
AcDbEntity
  8
M0
  6
CONTINUOUS
370
25
100
AcDbLine
 10
431.775413
 20
353.901851
 11
436.275413
 21
356.926851
  0
LINE
  5
5E
100
AcDbEntity
  8
M0
  6
CONTINUOUS
370
25
100
AcDbLine
 10
388.675413
 20
368.426851
 11
388.675413
 21
356.926851
  0
LINE
  5
5F
100
AcDbEntity
  8
M0
  6
CONTINUOUS
370
25
100
AcDbLine
 10
390.675413
 20
368.426851
 11
388.675413
 21
368.426851
  0
LINE
  5
60
100
AcDbEntity
  8
M0
  6
CONTINUOUS
370
25
100
AcDbLine
 10
390.675413
 20
379.426851
 11
390.675413
 21
368.426851
  0
LINE
  5
61
100
AcDbEntity
  8
M0
  6
CONTINUOUS
370
25
100
AcDbLine
 10
393.175413
 20
353.901851
 11
388.675413
 21
356.926851
  0
LINE
  5
62
100
AcDbEntity
  8
M0
  6
CONTINUOUS
370
25
100
AcDbLine
 10
391.675413
 20
380.426851
 11
390.675413
 21
379.426851
  0
LINE
  5
63
100
AcDbEntity
  8
M0
  6
CONTINUOUS
370
25
100
AcDbLine
 10
436.275413
 20
324.426851
 11
418.275413
 21
324.426851
  0
LINE
  5
64
100
AcDbEntity
  8
M0
  6
CONTINUOUS
370
25
100
AcDbLine
 10
410.275413
 20
324.426851
 11
410.275413
 21
317.426851
  0
LINE
  5
65
100
AcDbEntity
  8
M0
  6
CONTINUOUS
370
25
100
AcDbLine
 10
416.275413
 20
332.426851
 11
413.975413
 21
332.426851
  0
LINE
  5
66
100
AcDbEntity
  8
M0
  6
CONTINUOUS
370
25
100
AcDbLine
 10
412.775413
 20
325.926851
 11
412.775413
 21
324.426851
  0
LINE
  5
67
100
AcDbEntity
  8
M0
  6
CONTINUOUS
370
25
100
AcDbLine
 10
417.275413
 20
334.426851
 11
416.275413
 21
334.426851
  0
LINE
  5
68
100
AcDbEntity
  8
M0
  6
CONTINUOUS
370
25
100
AcDbLine
 10
416.275413
 20
334.426851
 11
416.275413
 21
332.426851
  0
LINE
  5
69
100
AcDbEntity
  8
M0
  6
CONTINUOUS
370
25
100
AcDbLine
 10
417.275413
 20
334.426851
 11
417.275413
 21
325.426851
  0
LINE
  5
6A
100
AcDbEntity
  8
M0
  6
CONTINUOUS
370
25
100
AcDbLine
 10
412.775413
 20
324.426851
 11
410.275413
 21
324.426851
  0
ARC
  5
6B
100
AcDbEntity
  8
M0
  6
CONTINUOUS
370
25
100
AcDbCircle
 10
418.275413
 20
325.426851
 40
1.0
100
AcDbArc
 50
180.0
 51
270.0
  0
LINE
  5
6C
100
AcDbEntity
  8
M0
  6
CONTINUOUS
370
25
100
AcDbLine
 10
422.275413
 20
317.426851
 11
418.975413
 21
317.426851
  0
LINE
  5
6D
100
AcDbEntity
  8
M0
  6
CONTINUOUS
370
25
100
AcDbLine
 10
422.275413
 20
317.426851
 11
422.275413
 21
315.426851
  0
LINE
  5
6E
100
AcDbEntity
  8
M0
  6
CONTINUOUS
370
25
100
AcDbLine
 10
421.275413
 20
316.926851
 11
421.275413
 21
304.426851
  0
LINE
  5
6F
100
AcDbEntity
  8
M0
  6
CONTINUOUS
370
25
100
AcDbLine
 10
362.275413
 20
326.926851
 11
362.275413
 21
304.426851
  0
LINE
  5
70
100
AcDbEntity
  8
M0
  6
CONTINUOUS
370
25
100
AcDbLine
 10
421.275413
 20
311.926851
 11
362.275413
 21
311.926851
  0
LINE
  5
71
100
AcDbEntity
  8
M0
  6
CONTINUOUS
370
25
100
AcDbLine
 10
421.275413
 20
313.926851
 11
362.275413
 21
313.926851
  0
LINE
  5
72
100
AcDbEntity
  8
M0
  6
CONTINUOUS
370
25
100
AcDbLine
 10
367.275413
 20
341.926851
 11
367.275413
 21
335.426851
  0
LINE
  5
73
100
AcDbEntity
  8
M0
  6
CONTINUOUS
370
25
100
AcDbLine
 10
367.275413
 20
326.926851
 11
362.275413
 21
326.926851
  0
LINE
  5
74
100
AcDbEntity
  8
M0
  6
CONTINUOUS
370
25
100
AcDbLine
 10
399.275413
 20
324.426851
 11
367.275413
 21
324.426851
  0
LINE
  5
75
100
AcDbEntity
  8
M0
  6
CONTINUOUS
370
25
100
AcDbLine
 10
399.275413
 20
324.426851
 11
399.275413
 21
316.926851
  0
LINE
  5
76
100
AcDbEntity
  8
M0
  6
CONTINUOUS
370
25
100
AcDbLine
 10
410.775413
 20
316.926851
 11
399.275413
 21
316.926851
  0
LINE
  5
77
100
AcDbEntity
  8
M0
  6
CONTINUOUS
370
25
100
AcDbLine
 10
410.775413
 20
319.426851
 11
410.775413
 21
315.426851
  0
LINE
  5
78
100
AcDbEntity
  8
M0
  6
CONTINUOUS
370
25
100
AcDbLine
 10
421.275413
 20
315.426851
 11
410.775413
 21
315.426851
  0
LINE
  5
79
100
AcDbEntity
  8
M0
  6
CONTINUOUS
370
25
100
AcDbLine
 10
411.775413
 20
319.426851
 11
411.775413
 21
316.926851
  0
LINE
  5
7A
100
AcDbEntity
  8
M0
  6
CONTINUOUS
370
25
100
AcDbLine
 10
421.275413
 20
316.926851
 11
411.775413
 21
316.926851
  0
LINE
  5
7B
100
AcDbEntity
  8
M0
  6
CONTINUOUS
370
25
100
AcDbLine
 10
411.775413
 20
319.426851
 11
410.775413
 21
319.426851
  0
LINE
  5
7C
100
AcDbEntity
  8
M0
  6
CONTINUOUS
370
25
100
AcDbLine
 10
436.275413
 20
315.426851
 11
422.275413
 21
315.426851
  0
LINE
  5
7D
100
AcDbEntity
  8
M0
  6
CONTINUOUS
370
25
100
AcDbLine
 10
418.975413
 20
319.026851
 11
414.975413
 21
319.026851
  0
LINE
  5
7E
100
AcDbEntity
  8
M0
  6
CONTINUOUS
370
25
100
AcDbLine
 10
418.975413
 20
319.026851
 11
418.975413
 21
316.926851
  0
LINE
  5
7F
100
AcDbEntity
  8
M0
  6
CONTINUOUS
370
25
100
AcDbLine
 10
414.975413
 20
319.026851
 11
414.975413
 21
316.926851
  0
LINE
  5
80
100
AcDbEntity
  8
M0
  6
CONTINUOUS
370
25
100
AcDbLine
 10
414.975413
 20
317.426851
 11
411.775413
 21
317.426851
  0
LINE
  5
81
100
AcDbEntity
  8
M0
  6
CONTINUOUS
370
25
100
AcDbLine
 10
410.775413
 20
317.426851
 11
410.275413
 21
317.426851
  0
LINE
  5
82
100
AcDbEntity
  8
M0
  6
CONTINUOUS
370
25
100
AcDbLine
 10
418.975413
 20
319.026851
 11
414.975413
 21
316.926851
  0
LINE
  5
83
100
AcDbEntity
  8
M0
  6
CONTINUOUS
370
25
100
AcDbLine
 10
414.975413
 20
319.026851
 11
418.975413
 21
316.926851
  0
LINE
  5
84
100
AcDbEntity
  8
M0
  6
CONTINUOUS
370
25
100
AcDbLine
 10
371.275413
 20
355.426851
 11
371.275413
 21
341.926851
  0
LINE
  5
85
100
AcDbEntity
  8
M0
  6
CONTINUOUS
370
25
100
AcDbLine
 10
371.275413
 20
341.926851
 11
367.275413
 21
341.926851
  0
LINE
  5
86
100
AcDbEntity
  8
M0
  6
CONTINUOUS
370
25
100
AcDbLine
 10
390.275413
 20
370.426851
 11
382.775413
 21
370.426851
  0
LINE
  5
87
100
AcDbEntity
  8
M0
  6
CONTINUOUS
370
25
100
AcDbLine
 10
382.775413
 20
370.426851
 11
382.775413
 21
357.426848
  0
LINE
  5
88
100
AcDbEntity
  8
M0
  6
CONTINUOUS
370
25
100
AcDbLine
 10
380.775413
 20
355.426851
 11
371.275413
 21
355.426851
  0
LINE
  5
89
100
AcDbEntity
  8
M0
  6
CONTINUOUS
370
25
100
AcDbLine
 10
392.275413
 20
335.426851
 11
381.475413
 21
335.426851
  0
LINE
  5
8A
100
AcDbEntity
  8
M0
  6
CONTINUOUS
370
25
100
AcDbLine
 10
387.175413
 20
354.926851
 11
387.175413
 21
340.926851
  0
ARC
  5
8B
100
AcDbEntity
  8
M0
  6
CONTINUOUS
370
25
100
AcDbCircle
 10
380.775413
 20
357.426851
 40
2.0
100
AcDbArc
 50
270.0
 51
360.0
  0
ARC
  5
8C
100
AcDbEntity
  8
M0
  6
CONTINUOUS
370
25
100
AcDbCircle
 10
388.675413
 20
354.926851
 40
1.5
100
AcDbArc
 50
90.0
 51
180.0
  0
LINE
  5
8D
100
AcDbEntity
  8
M0
  6
CONTINUOUS
370
25
100
AcDbLine
 10
387.175413
 20
340.926851
 11
392.275413
 21
336.426851
  0
LINE
  5
8E
100
AcDbEntity
  8
M0
  6
CONTINUOUS
370
25
100
AcDbLine
 10
381.475413
 20
336.926851
 11
379.275413
 21
336.926851
  0
LINE
  5
8F
100
AcDbEntity
  8
M0
  6
CONTINUOUS
370
25
100
AcDbLine
 10
379.275413
 20
335.426851
 11
367.275413
 21
335.426851
  0
LINE
  5
90
100
AcDbEntity
  8
M0
  6
CONTINUOUS
370
25
100
AcDbLine
 10
392.275413
 20
336.426851
 11
392.275413
 21
335.426851
  0
ARC
  5
91
100
AcDbEntity
  8
M0
  6
CONTINUOUS
370
25
100
AcDbCircle
 10
390.775413
 20
333.926851
 40
1.5
100
AcDbArc
 50
0.0
 51
90.0
  0
ARC
  5
92
100
AcDbEntity
  8
M0
  6
CONTINUOUS
370
25
100
AcDbCircle
 10
382.975413
 20
333.926851
 40
1.5
100
AcDbArc
 50
90.0
 51
180.0
  0
ARC
  5
93
100
AcDbEntity
  8
M0
  6
CONTINUOUS
370
25
100
AcDbCircle
 10
390.775413
 20
325.926851
 40
1.5
100
AcDbArc
 50
270.0
 51
360.0
  0
ARC
  5
94
100
AcDbEntity
  8
M0
  6
CONTINUOUS
370
25
100
AcDbCircle
 10
382.975413
 20
325.926851
 40
1.5
100
AcDbArc
 50
180.0
 51
270.0
  0
ARC
  5
95
100
AcDbEntity
  8
M0
  6
CONTINUOUS
370
25
100
AcDbCircle
 10
377.775413
 20
325.926851
 40
1.5
100
AcDbArc
 50
270.0
 51
360.0
  0
ARC
  5
96
100
AcDbEntity
  8
M0
  6
CONTINUOUS
370
25
100
AcDbCircle
 10
368.775413
 20
325.926851
 40
1.5
100
AcDbArc
 50
180.0
 51
270.0
  0
ARC
  5
97
100
AcDbEntity
  8
M0
  6
CONTINUOUS
370
25
100
AcDbCircle
 10
368.775413
 20
333.926851
 40
1.5
100
AcDbArc
 50
90.0
 51
180.0
  0
ARC
  5
98
100
AcDbEntity
  8
M0
  6
CONTINUOUS
370
25
100
AcDbCircle
 10
377.775413
 20
333.926851
 40
1.5
100
AcDbArc
 50
0.0
 51
90.0
  0
LINE
  5
99
100
AcDbEntity
  8
M0
  6
CONTINUOUS
370
25
100
AcDbLine
 10
392.275413
 20
327.433409
 11
389.511055
 21
327.433409
  0
CIRCLE
  5
9A
100
AcDbEntity
  8
M0
  6
CONTINUOUS
370
25
100
AcDbCircle
 10
373.275413
 20
329.725709
 40
3.493029
  0
CIRCLE
  5
9B
100
AcDbEntity
  8
M0
  6
CONTINUOUS
370
25
100
AcDbCircle
 10
386.875413
 20
329.725709
 40
3.493029
  0
LINE
  5
9C
100
AcDbEntity
  8
M0
  6
CONTINUOUS
370
25
100
AcDbLine
 10
392.275413
 20
332.290902
 11
389.246285
 21
332.290902
  0
LINE
  5
9D
100
AcDbEntity
  8
M0
  6
CONTINUOUS
370
25
100
AcDbLine
 10
391.300084
 20
332.836688
 11
391.300084
 21
326.833045
  0
LINE
  5
9E
100
AcDbEntity
  8
M0
  6
CONTINUOUS
370
25
100
AcDbLine
 10
382.618537
 20
332.891267
 11
382.618537
 21
326.669309
  0
LINE
  5
9F
100
AcDbEntity
  8
M0
  6
CONTINUOUS
370
25
100
AcDbLine
 10
377.977459
 20
332.891267
 11
377.977459
 21
326.669309
  0
LINE
  5
A0
100
AcDbEntity
  8
M0
  6
CONTINUOUS
370
25
100
AcDbLine
 10
368.695302
 20
333.000424
 11
368.695302
 21
326.560152
  0
LINE
  5
A1
100
AcDbEntity
  8
M0
  6
CONTINUOUS
370
25
100
AcDbLine
 10
384.50454
 20
332.290902
 11
381.475413
 21
332.290902
  0
LINE
  5
A2
100
AcDbEntity
  8
M0
  6
CONTINUOUS
370
25
100
AcDbLine
 10
384.23977
 20
327.433409
 11
381.475413
 21
327.433409
  0
LINE
  5
A3
100
AcDbEntity
  8
M0
  6
CONTINUOUS
370
25
100
AcDbLine
 10
370.63977
 20
327.433409
 11
367.275413
 21
327.433409
  0
LINE
  5
A4
100
AcDbEntity
  8
M0
  6
CONTINUOUS
370
25
100
AcDbLine
 10
370.90454
 20
332.290902
 11
367.275413
 21
332.290902
  0
LINE
  5
A5
100
AcDbEntity
  8
M0
  6
CONTINUOUS
370
25
100
AcDbLine
 10
379.275413
 20
332.290902
 11
375.646285
 21
332.290902
  0
LINE
  5
A6
100
AcDbEntity
  8
M0
  6
CONTINUOUS
370
25
100
AcDbLine
 10
379.275413
 20
327.433409
 11
375.911055
 21
327.433409
  0
LINE
  5
A7
100
AcDbEntity
  8
M0
  6
CONTINUOUS
370
25
100
AcDbLine
 10
381.475413
 20
331.540306
 11
379.275413
 21
331.540306
  0
LINE
  5
A8
100
AcDbEntity
  8
M0
  6
CONTINUOUS
370
25
100
AcDbLine
 10
381.475413
 20
326.839421
 11
379.275413
 21
326.839421
  0
LINE
  5
A9
100
AcDbEntity
  8
M0
  6
CONTINUOUS
370
25
100
AcDbLine
 10
397.275413
 20
334.426851
 11
397.275413
 21
324.426851
  0
LINE
  5
AA
100
AcDbEntity
  8
M0
  6
CONTINUOUS
370
25
100
AcDbLine
 10
404.174085
 20
337.325523
 11
405.861199
 21
339.012637
  0
LINE
  5
AB
100
AcDbEntity
  8
M0
  6
CONTINUOUS
370
25
100
AcDbLine
 10
402.275413
 20
332.598423
 11
407.275413
 21
337.598423
  0
LINE
  5
AC
100
AcDbEntity
  8
M0
  6
CONTINUOUS
370
25
100
AcDbLine
 10
402.275413
 20
332.598423
 11
402.275413
 21
316.926851
  0
LINE
  5
AD
100
AcDbEntity
  8
M0
  6
CONTINUOUS
370
25
100
AcDbLine
 10
391.575413
 20
353.426851
 11
391.575413
 21
339.312565
  0
LINE
  5
AE
100
AcDbEntity
  8
M0
  6
CONTINUOUS
370
25
100
AcDbLine
 10
394.775413
 20
353.576851
 11
394.775413
 21
347.476851
  0
LINE
  5
AF
100
AcDbEntity
  8
M0
  6
CONTINUOUS
370
25
100
AcDbLine
 10
397.275413
 20
347.476851
 11
397.275413
 21
339.426851
  0
LINE
  5
B0
100
AcDbEntity
  8
M0
  6
CONTINUOUS
370
25
100
AcDbLine
 10
397.275413
 20
347.476851
 11
394.775413
 21
347.476851
  0
LINE
  5
B1
100
AcDbEntity
  8
M0
  6
CONTINUOUS
370
25
100
AcDbLine
 10
397.275413
 20
334.426851
 11
391.575413
 21
339.312565
  0
LINE
  5
B2
100
AcDbEntity
  8
M0
  6
CONTINUOUS
370
25
100
AcDbLine
 10
400.17868
 20
337.104237
 11
397.275413
 21
339.426851
  0
ARC
  5
B3
100
AcDbEntity
  8
M0
  6
CONTINUOUS
370
25
100
AcDbCircle
 10
402.052765
 20
339.446843
 40
3.0
100
AcDbArc
 50
231.340192
 51
315.0
  0
LINE
  5
B4
100
AcDbEntity
  8
M0
  6
CONTINUOUS
370
25
100
AcDbLine
 10
407.275413
 20
337.598423
 11
405.861199
 21
339.012637
  0
LINE
  5
B5
100
AcDbEntity
  8
M0
  6
CONTINUOUS
370
25
100
AcDbLine
 10
430.175413
 20
347.426851
 11
395.475413
 21
347.426851
  0
LINE
  5
B6
100
AcDbEntity
  8
M0
  6
CONTINUOUS
370
25
100
AcDbLine
 10
430.175413
 20
353.576851
 11
394.775413
 21
353.576851
  0
LINE
  5
B7
100
AcDbEntity
  8
M0
  6
CONTINUOUS
370
25
100
AcDbLine
 10
394.775413
 20
353.426851
 11
391.575413
 21
353.426851
  0
LINE
  5
B8
100
AcDbEntity
  8
M0
  6
CONTINUOUS
370
25
100
AcDbLine
 10
427.675413
 20
347.426851
 11
427.675413
 21
339.426851
  0
LINE
  5
B9
100
AcDbEntity
  8
M0
  6
CONTINUOUS
370
25
100
AcDbLine
 10
430.175413
 20
353.426851
 11
430.175413
 21
347.426851
  0
LINE
  5
BA
100
AcDbEntity
  8
M0
  6
CONTINUOUS
370
25
100
AcDbLine
 10
430.175413
 20
353.426851
 11
436.375413
 21
353.426851
  0
LINE
  5
BB
100
AcDbEntity
  8
M0
  6
CONTINUOUS
370
25
100
AcDbLine
 10
436.375413
 20
353.426851
 11
436.375413
 21
341.140777
  0
LINE
  5
BC
100
AcDbEntity
  8
M0
  6
CONTINUOUS
370
25
100
AcDbLine
 10
421.275413
 20
334.426851
 11
421.275413
 21
325.426851
  0
LINE
  5
BD
100
AcDbEntity
  8
M0
  6
CONTINUOUS
370
25
100
AcDbLine
 10
426.475413
 20
329.426851
 11
422.275413
 21
329.426851
  0
LINE
  5
BE
100
AcDbEntity
  8
M0
  6
CONTINUOUS
370
25
100
AcDbLine
 10
426.475413
 20
329.426851
 11
426.475413
 21
324.426851
  0
LINE
  5
BF
100
AcDbEntity
  8
M0
  6
CONTINUOUS
370
25
100
AcDbLine
 10
422.275413
 20
329.426851
 11
422.275413
 21
324.426851
  0
LINE
  5
C0
100
AcDbEntity
  8
M0
  6
CONTINUOUS
370
25
100
AcDbLine
 10
419.032913
 20
338.426851
 11
417.375413
 21
338.426851
  0
LINE
  5
C1
100
AcDbEntity
  8
M0
  6
CONTINUOUS
370
25
100
AcDbLine
 10
421.275413
 20
334.426851
 11
417.375413
 21
338.426851
  0
LINE
  5
C2
100
AcDbEntity
  8
M0
  6
CONTINUOUS
370
25
100
AcDbLine
 10
421.481051
 20
335.915939
 11
419.032913
 21
338.426851
  0
LINE
  5
C3
100
AcDbEntity
  8
M0
  6
CONTINUOUS
370
25
100
AcDbLine
 10
427.675413
 20
339.426851
 11
424.364137
 21
335.935785
  0
ARC
  5
C4
100
AcDbEntity
  8
M0
  6
CONTINUOUS
370
25
100
AcDbCircle
 10
422.913052
 20
337.312139
 40
2.0
100
AcDbArc
 50
224.274776
 51
316.514009
  0
LINE
  5
C5
100
AcDbEntity
  8
M0
  6
CONTINUOUS
370
25
100
AcDbLine
 10
435.923327
 20
339.874302
 11
427.827498
 21
329.979399
  0
ARC
  5
C6
100
AcDbEntity
  8
M0
  6
CONTINUOUS
370
25
100
AcDbCircle
 10
434.375413
 20
341.140777
 40
2.0
100
AcDbArc
 50
320.710593
 51
360.0
  0
ARC
  5
C7
100
AcDbEntity
  8
M0
  6
CONTINUOUS
370
25
100
AcDbCircle
 10
429.375413
 20
328.712924
 40
2.0
100
AcDbArc
 50
140.710593
 51
180.0
  0
ARC
  5
C8
100
AcDbEntity
  8
M0
  6
CONTINUOUS
370
25
100
AcDbCircle
 10
429.375413
 20
328.712924
 40
2.0
100
AcDbArc
 50
140.710593
 51
180.0
  0
LINE
  5
C9
100
AcDbEntity
  8
M0
  6
CONTINUOUS
370
25
100
AcDbLine
 10
427.375413
 20
325.426851
 11
426.475413
 21
325.426851
  0
LINE
  5
CA
100
AcDbEntity
  8
M0
  6
CONTINUOUS
370
25
100
AcDbLine
 10
422.275413
 20
325.426851
 11
421.275413
 21
325.426851
  0
LINE
  5
CB
100
AcDbEntity
  8
M0
  6
CONTINUOUS
370
25
100
AcDbLine
 10
426.475413
 20
329.426851
 11
422.275413
 21
324.426851
  0
LINE
  5
CC
100
AcDbEntity
  8
M0
  6
CONTINUOUS
370
25
100
AcDbLine
 10
422.275413
 20
329.426851
 11
426.475413
 21
324.426851
  0
LINE
  5
CD
100
AcDbEntity
  8
M0
  6
CONTINUOUS
370
25
100
AcDbLine
 10
427.375413
 20
328.712924
 11
427.375413
 21
325.426851
  0
LINE
  5
CE
100
AcDbEntity
  8
M0
  6
CONTINUOUS
370
25
100
AcDbLine
 10
423.475413
 20
346.926851
 11
401.475413
 21
346.926851
  0
LINE
  5
CF
100
AcDbEntity
  8
M0
  6
CONTINUOUS
370
25
100
AcDbLine
 10
424.475413
 20
345.926851
 11
424.475413
 21
345.462034
  0
LINE
  5
D0
100
AcDbEntity
  8
M0
  6
CONTINUOUS
370
25
100
AcDbLine
 10
410.975413
 20
337.124075
 11
410.975413
 21
325.926851
  0
LINE
  5
D1
100
AcDbEntity
  8
M0
  6
CONTINUOUS
370
25
100
AcDbLine
 10
413.975413
 20
337.124075
 11
413.975413
 21
325.926851
  0
LINE
  5
D2
100
AcDbEntity
  8
M0
  6
CONTINUOUS
370
25
100
AcDbLine
 10
424.030113
 20
344.629984
 11
414.643362
 21
338.37215
  0
LINE
  5
D3
100
AcDbEntity
  8
M0
  6
CONTINUOUS
370
25
100
AcDbLine
 10
410.307463
 20
338.37215
 11
400.920712
 21
344.629984
  0
LINE
  5
D4
100
AcDbEntity
  8
M0
  6
CONTINUOUS
370
25
100
AcDbLine
 10
413.975413
 20
325.926851
 11
410.975413
 21
325.926851
  0
ARC
  5
D5
100
AcDbEntity
  8
M0
  6
CONTINUOUS
370
25
100
AcDbCircle
 10
415.475413
 20
337.124075
 40
1.5
100
AcDbArc
 50
123.690068
 51
180.0
  0
ARC
  5
D6
100
AcDbEntity
  8
M0
  6
CONTINUOUS
370
25
100
AcDbCircle
 10
409.475413
 20
337.124075
 40
1.5
100
AcDbArc
 50
0.0
 51
56.309932
  0
ARC
  5
D7
100
AcDbEntity
  8
M0
  6
CONTINUOUS
370
25
100
AcDbCircle
 10
423.475413
 20
345.926851
 40
1.0
100
AcDbArc
 50
0.0
 51
90.0
  0
ARC
  5
D8
100
AcDbEntity
  8
M0
  6
CONTINUOUS
370
25
100
AcDbCircle
 10
423.475413
 20
345.462034
 40
1.0
100
AcDbArc
 50
303.690068
 51
360.0
  0
ARC
  5
D9
100
AcDbEntity
  8
M0
  6
CONTINUOUS
370
25
100
AcDbCircle
 10
401.475413
 20
345.926851
 40
1.0
100
AcDbArc
 50
90.0
 51
180.0
  0
ARC
  5
DA
100
AcDbEntity
  8
M0
  6
CONTINUOUS
370
25
100
AcDbCircle
 10
401.475413
 20
345.462034
 40
1.0
100
AcDbArc
 50
180.0
 51
236.309932
  0
LINE
  5
DB
100
AcDbEntity
  8
M0
  6
CONTINUOUS
370
25
100
AcDbLine
 10
400.475413
 20
345.926851
 11
400.475413
 21
345.462034
  0
LINE
  5
DC
100
AcDbEntity
  8
M0
  6
CONTINUOUS
370
25
100
AcDbLine
 10
388.746902
 20
348.426851
 11
367.091614
 21
348.426851
  0
LINE
  5
DD
100
AcDbEntity
  8
M0
  6
CONTINUOUS
370
25
100
AcDbLine
 10
443.775413
 20
370.026851
 11
443.775413
 21
357.826851
  0
LINE
  5
DE
100
AcDbEntity
  8
M0
  6
CONTINUOUS
370
25
100
AcDbLine
 10
381.275413
 20
370.026851
 11
381.275413
 21
357.826851
  0
LINE
  5
DF
100
AcDbEntity
  8
M0
  6
CONTINUOUS
370
25
100
AcDbLine
 10
443.775413
 20
370.026851
 11
442.275413
 21
370.026851
  0
LINE
  5
E0
100
AcDbEntity
  8
M0
  6
CONTINUOUS
370
25
100
AcDbLine
 10
443.775413
 20
357.826851
 11
442.275413
 21
357.826851
  0
LINE
  5
E1
100
AcDbEntity
  8
M0
  6
CONTINUOUS
370
25
100
AcDbLine
 10
382.775413
 20
357.826851
 11
381.275413
 21
357.826851
  0
LINE
  5
E2
100
AcDbEntity
  8
M0
  6
CONTINUOUS
370
25
100
AcDbLine
 10
382.775413
 20
370.026851
 11
381.275413
 21
370.026851
  0
LINE
  5
E3
100
AcDbEntity
  8
M0
  6
CONTINUOUS
370
25
100
AcDbLine
 10
443.775413
 20
363.285845
 11
442.275413
 21
362.177484
  0
LINE
  5
E4
100
AcDbEntity
  8
M0
  6
CONTINUOUS
370
25
100
AcDbLine
 10
381.275413
 20
363.926851
 11
382.775413
 21
362.506342
  0
LINE
  5
E5
100
AcDbEntity
  8
M0
  6
CONTINUOUS
370
25
100
AcDbLine
 10
443.775413
 20
365.280895
 11
442.275413
 21
364.172534
  0
LINE
  5
E6
100
AcDbEntity
  8
M0
  6
CONTINUOUS
370
25
100
AcDbLine
 10
381.275413
 20
366.483767
 11
382.775413
 21
365.063258
  0
ARC
  5
E7
100
AcDbEntity
  8
M0
  6
CONTINUOUS
370
25
100
AcDbCircle
 10
445.00191
 20
368.313602
 40
2.773503
100
AcDbArc
 50
329.999999
 51
390.000001
  0
ARC
  5
E8
100
AcDbEntity
  8
M0
  6
CONTINUOUS
370
25
100
AcDbCircle
 10
435.479141
 20
363.926851
 40
12.296272
100
AcDbArc
 50
345.878651
 51
374.121349
  0
ARC
  5
E9
100
AcDbEntity
  8
M0
  6
CONTINUOUS
370
25
100
AcDbCircle
 10
445.00191
 20
359.540099
 40
2.773503
100
AcDbArc
 50
329.999999
 51
390.000001
  0
LINE
  5
EA
100
AcDbEntity
  8
M0
  6
CONTINUOUS
370
25
100
AcDbLine
 10
447.775413
 20
368.313602
 11
447.775413
 21
359.540099
  0
ARC
  5
EB
100
AcDbEntity
  8
M0
  6
CONTINUOUS
370
25
100
AcDbCircle
 10
380.048915
 20
368.313603
 40
2.773503
100
AcDbArc
 50
149.999999
 51
210.000001
  0
ARC
  5
EC
100
AcDbEntity
  8
M0
  6
CONTINUOUS
370
25
100
AcDbCircle
 10
389.571685
 20
363.926851
 40
12.296272
100
AcDbArc
 50
165.878651
 51
194.121349
  0
ARC
  5
ED
100
AcDbEntity
  8
M0
  6
CONTINUOUS
370
25
100
AcDbCircle
 10
380.048915
 20
359.5401
 40
2.773503
100
AcDbArc
 50
149.999999
 51
210.000001
  0
LINE
  5
EE
100
AcDbEntity
  8
M0
  6
CONTINUOUS
370
25
100
AcDbLine
 10
377.275413
 20
368.313603
 11
377.275413
 21
359.5401
  0
LINE
  5
EF
100
AcDbEntity
  8
M0
  6
CONTINUOUS
370
25
100
AcDbLine
 10
443.675413
 20
325.226851
 11
443.675413
 21
317.626851
  0
LINE
  5
F0
100
AcDbEntity
  8
M0
  6
CONTINUOUS
370
25
100
AcDbLine
 10
443.675413
 20
325.226851
 11
442.275413
 21
325.226851
  0
LINE
  5
F1
100
AcDbEntity
  8
M0
  6
CONTINUOUS
370
25
100
AcDbLine
 10
443.675413
 20
317.626851
 11
442.275413
 21
317.626851
  0
LINE
  5
F2
100
AcDbEntity
  8
M0
  6
CONTINUOUS
370
25
100
AcDbLine
 10
443.675413
 20
321.426851
 11
442.275413
 21
320.144998
  0
LINE
  5
F3
100
AcDbEntity
  8
M0
  6
CONTINUOUS
370
25
100
AcDbLine
 10
443.675413
 20
322.708703
 11
442.275413
 21
321.426851
  0
ARC
  5
F4
100
AcDbEntity
  8
M0
  6
CONTINUOUS
370
25
100
AcDbCircle
 10
444.433961
 20
324.447577
 40
2.041452
100
AcDbArc
 50
329.999999
 51
390.000001
  0
ARC
  5
F5
100
AcDbEntity
  8
M0
  6
CONTINUOUS
370
25
100
AcDbCircle
 10
439.026119
 20
321.426851
 40
7.449293
100
AcDbArc
 50
344.426052
 51
375.573948
  0
ARC
  5
F6
100
AcDbEntity
  8
M0
  6
CONTINUOUS
370
25
100
AcDbCircle
 10
444.433961
 20
318.406125
 40
2.041452
100
AcDbArc
 50
329.999999
 51
390.000001
  0
LINE
  5
F7
100
AcDbEntity
  8
M0
  6
CONTINUOUS
370
25
100
AcDbLine
 10
446.475413
 20
324.447577
 11
446.475413
 21
318.406125
  0
LINE
  5
F8
100
AcDbEntity
  8
M0
  6
CONTINUOUS
370
25
100
AcDbLine
 10
377.275413
 20
240.540099
 11
377.275413
 21
249.313602
  0
ARC
  5
F9
100
AcDbEntity
  8
M0
  6
CONTINUOUS
370
25
100
AcDbCircle
 10
380.048915
 20
249.313602
 40
2.773503
100
AcDbArc
 50
149.999999
 51
210.000001
  0
ARC
  5
FA
100
AcDbEntity
  8
M0
  6
CONTINUOUS
370
25
100
AcDbCircle
 10
389.571685
 20
244.926851
 40
12.296272
100
AcDbArc
 50
165.878651
 51
194.121349
  0
ARC
  5
FB
100
AcDbEntity
  8
M0
  6
CONTINUOUS
370
25
100
AcDbCircle
 10
380.048915
 20
240.540099
 40
2.773503
100
AcDbArc
 50
149.999999
 51
210.000001
  0
LINE
  5
FC
100
AcDbEntity
  8
M0
  6
CONTINUOUS
370
25
100
AcDbLine
 10
381.275413
 20
242.369935
 11
382.775413
 21
243.790444
  0
LINE
  5
FD
100
AcDbEntity
  8
M0
  6
CONTINUOUS
370
25
100
AcDbLine
 10
381.275413
 20
244.926851
 11
382.775413
 21
246.347359
  0
LINE
  5
FE
100
AcDbEntity
  8
M0
  6
CONTINUOUS
370
25
100
AcDbLine
 10
382.775413
 20
238.826851
 11
381.275413
 21
238.826851
  0
LINE
  5
FF
100
AcDbEntity
  8
M0
  6
CONTINUOUS
370
25
100
AcDbLine
 10
382.775413
 20
251.026851
 11
381.275413
 21
251.026851
  0
LINE
  5
100
100
AcDbEntity
  8
M0
  6
CONTINUOUS
370
25
100
AcDbLine
 10
381.275413
 20
238.826851
 11
381.275413
 21
251.026851
  0
ARC
  5
101
100
AcDbEntity
  8
M0
  6
CONTINUOUS
370
25
100
AcDbCircle
 10
380.775413
 20
251.426851
 40
2.0
100
AcDbArc
 50
0.0
 51
90.0
  0
LINE
  5
102
100
AcDbEntity
  8
M0
  6
CONTINUOUS
370
25
100
AcDbLine
 10
380.775413
 20
253.426851
 11
371.275413
 21
253.426851
  0
LINE
  5
103
100
AcDbEntity
  8
M0
  6
CONTINUOUS
370
25
100
AcDbLine
 10
382.775413
 20
238.426851
 11
382.775413
 21
304.426851
  0
LINE
  5
104
100
AcDbEntity
  8
M0
  6
CONTINUOUS
370
25
100
AcDbLine
 10
371.275413
 20
253.426851
 11
371.275413
 21
269.781689
  0
LINE
  5
105
100
AcDbEntity
  8
M0
  6
CONTINUOUS
370
25
100
AcDbLine
 10
367.275413
 20
281.926851
 11
362.275413
 21
281.926851
  0
LINE
  5
106
100
AcDbEntity
  8
M0
  6
CONTINUOUS
370
25
100
AcDbLine
 10
367.275413
 20
266.926851
 11
367.275413
 21
304.426851
  0
LINE
  5
107
100
AcDbEntity
  8
M0
  6
CONTINUOUS
370
25
100
AcDbLine
 10
362.275413
 20
281.926851
 11
362.275413
 21
304.426851
  0
LINE
  5
108
100
AcDbEntity
  8
M0
  6
CONTINUOUS
370
25
100
AcDbLine
 10
390.675413
 20
238.426851
 11
382.775413
 21
238.426851
  0
LINE
  5
109
100
AcDbEntity
  8
M0
  6
CONTINUOUS
370
25
100
AcDbLine
 10
391.675413
 20
228.426851
 11
390.675413
 21
229.426851
  0
LINE
  5
10A
100
AcDbEntity
  8
M0
  6
CONTINUOUS
370
25
100
AcDbLine
 10
390.675413
 20
229.426851
 11
390.675413
 21
304.426851
  0
LINE
  5
10B
100
AcDbEntity
  8
M0
  6
CONTINUOUS
370
25
100
AcDbLine
 10
434.275413
 20
229.426851
 11
433.275413
 21
228.426851
  0
LINE
  5
10C
100
AcDbEntity
  8
M0
  6
CONTINUOUS
370
25
100
AcDbLine
 10
434.275413
 20
229.426851
 11
434.275413
 21
304.426851
  0
LINE
  5
10D
100
AcDbEntity
  8
M0
  6
CONTINUOUS
370
25
100
AcDbLine
 10
442.275413
 20
238.426851
 11
434.275413
 21
238.426851
  0
LINE
  5
10E
100
AcDbEntity
  8
M0
  6
CONTINUOUS
370
25
100
AcDbLine
 10
433.275413
 20
228.426851
 11
391.675413
 21
228.426851
  0
LINE
  5
10F
100
AcDbEntity
  8
M0
  6
CONTINUOUS
370
25
100
AcDbLine
 10
442.275413
 20
279.426851
 11
442.275413
 21
304.426851
  0
LINE
  5
110
100
AcDbEntity
  8
M0
  6
CONTINUOUS
370
25
100
AcDbLine
 10
442.275413
 20
251.426851
 11
447.275413
 21
272.426851
  0
LINE
  5
111
100
AcDbEntity
  8
M0
  6
CONTINUOUS
370
25
100
AcDbLine
 10
442.275413
 20
238.426851
 11
442.275413
 21
304.426851
  0
ARC
  5
112
100
AcDbEntity
  8
M0
  6
CONTINUOUS
370
25
100
AcDbCircle
 10
435.666615
 20
338.465953
 40
6.0
100
AcDbArc
 50
313.025066
 51
372.680383
  0
LINE
  5
113
100
AcDbEntity
  8
M0
  6
CONTINUOUS
370
25
100
AcDbLine
 10
369.797715
 20
270.020028
 11
380.25311
 21
268.333674
  0
ARC
  5
114
100
AcDbEntity
  8
M0
  6
CONTINUOUS
370
25
100
AcDbCircle
 10
370.275413
 20
272.981751
 40
3.0
100
AcDbArc
 50
180.0
 51
260.837653
  0
ARC
  5
115
100
AcDbEntity
  8
M0
  6
CONTINUOUS
370
25
100
AcDbCircle
 10
379.775413
 20
265.37195
 40
3.0
100
AcDbArc
 50
0.0
 51
80.83771
  0
LINE
  5
116
100
AcDbEntity
  8
M0
  6
CONTINUOUS
370
25
100
AcDbLine
 10
381.275413
 20
268.576851
 11
381.275413
 21
280.776851
  0
LINE
  5
117
100
AcDbEntity
  8
M0
  6
CONTINUOUS
370
25
100
AcDbLine
 10
382.775413
 20
280.776851
 11
381.275413
 21
280.776851
  0
LINE
  5
118
100
AcDbEntity
  8
M0
  6
CONTINUOUS
370
25
100
AcDbLine
 10
382.775413
 20
268.576851
 11
381.275413
 21
268.576851
  0
LINE
  5
119
100
AcDbEntity
  8
M0
  6
CONTINUOUS
370
25
100
AcDbLine
 10
381.275413
 20
274.676851
 11
382.775413
 21
276.097359
  0
LINE
  5
11A
100
AcDbEntity
  8
M0
  6
CONTINUOUS
370
25
100
AcDbLine
 10
381.275413
 20
272.119935
 11
382.775413
 21
273.540444
  0
ARC
  5
11B
100
AcDbEntity
  8
M0
  6
CONTINUOUS
370
25
100
AcDbCircle
 10
380.048915
 20
270.290099
 40
2.773503
100
AcDbArc
 50
149.999999
 51
210.000001
  0
ARC
  5
11C
100
AcDbEntity
  8
M0
  6
CONTINUOUS
370
25
100
AcDbCircle
 10
389.571685
 20
274.676851
 40
12.296272
100
AcDbArc
 50
165.878651
 51
194.121349
  0
ARC
  5
11D
100
AcDbEntity
  8
M0
  6
CONTINUOUS
370
25
100
AcDbCircle
 10
380.048915
 20
279.063602
 40
2.773503
100
AcDbArc
 50
149.999999
 51
210.000001
  0
LINE
  5
11E
100
AcDbEntity
  8
M0
  6
CONTINUOUS
370
25
100
AcDbLine
 10
377.275413
 20
270.290099
 11
377.275413
 21
279.063602
  0
LINE
  5
11F
100
AcDbEntity
  8
M0
  6
CONTINUOUS
370
25
100
AcDbLine
 10
356.048494
 20
304.426851
 11
365.463505
 21
304.426851
  0
LINE
  5
120
100
AcDbEntity
  8
M0
  6
CONTINUOUS
370
25
100
AcDbLine
 10
184.993737
 20
313.926851
 11
189.993737
 21
313.926851
  0
LINE
  5
121
100
AcDbEntity
  8
M0
  6
CONTINUOUS
370
25
100
AcDbLine
 10
189.993737
 20
313.926851
 11
189.993737
 21
311.497918
  0
ARC
  5
122
100
AcDbEntity
  8
M0
  6
CONTINUOUS
370
25
100
AcDbCircle
 10
187.493737
 20
304.426851
 40
51.0
100
AcDbArc
 50
42.024699
 51
77.975301
  0
ARC
  5
123
100
AcDbEntity
  8
M0
  6
CONTINUOUS
370
25
100
AcDbCircle
 10
187.493737
 20
304.426851
 40
34.0
100
AcDbArc
 50
45.68035
 51
74.31965
  0
ARC
  5
124
100
AcDbEntity
  8
M0
  6
CONTINUOUS
370
25
100
AcDbCircle
 10
187.493737
 20
304.426851
 40
36.5
100
AcDbArc
 50
44.664854
 51
75.335146
  0
CIRCLE
  5
125
100
AcDbEntity
  8
M0
  6
CONTINUOUS
370
25
100
AcDbCircle
 10
187.493737
 20
304.426851
 40
31.0
  0
CIRCLE
  5
126
100
AcDbEntity
  8
M0
  6
CONTINUOUS
370
25
100
AcDbCircle
 10
187.493737
 20
304.426851
 40
22.5
  0
ARC
  5
127
100
AcDbEntity
  8
M0
  6
CONTINUOUS
370
25
100
AcDbCircle
 10
187.493737
 20
304.426851
 40
44.0
100
AcDbArc
 50
143.872616
 51
156.127384
  0
CIRCLE
  5
128
100
AcDbEntity
  8
M0
  6
CONTINUOUS
370
25
100
AcDbCircle
 10
135.965226
 20
334.176851
 40
5.0
  0
LINE
  5
129
100
AcDbEntity
  8
M0
  6
CONTINUOUS
370
25
100
AcDbLine
 10
194.493737
 20
351.373629
 11
194.493737
 21
340.049877
  0
LINE
  5
12A
100
AcDbEntity
  8
M0
  6
CONTINUOUS
370
25
100
AcDbLine
 10
180.493737
 20
351.373629
 11
180.493737
 21
340.049877
  0
ARC
  5
12B
100
AcDbEntity
  8
M0
  6
CONTINUOUS
370
25
100
AcDbCircle
 10
149.38862
 20
326.426851
 40
7.0
100
AcDbArc
 50
55.437561
 51
244.562439
  0
LINE
  5
12C
100
AcDbEntity
  8
M0
  6
CONTINUOUS
370
25
100
AcDbLine
 10
224.65084
 20
333.962418
 11
214.844183
 21
328.300542
  0
ARC
  5
12D
100
AcDbEntity
  8
M0
  6
CONTINUOUS
370
25
100
AcDbCircle
 10
197.493737
 20
351.373629
 40
3.0
100
AcDbArc
 50
77.975301
 51
180.0
  0
ARC
  5
12E
100
AcDbEntity
  8
M0
  6
CONTINUOUS
370
25
100
AcDbCircle
 10
223.15084
 20
336.560494
 40
3.0
100
AcDbArc
 50
300.0
 51
402.024699
  0
ARC
  5
12F
100
AcDbEntity
  8
M0
  6
CONTINUOUS
370
25
100
AcDbCircle
 10
197.493737
 20
342.640068
 40
3.0
100
AcDbArc
 50
180.0
 51
255.335146
  0
ARC
  5
130
100
AcDbEntity
  8
M0
  6
CONTINUOUS
370
25
100
AcDbCircle
 10
197.493737
 20
340.049877
 40
3.0
100
AcDbArc
 50
180.0
 51
254.31965
  0
ARC
  5
131
100
AcDbEntity
  8
M0
  6
CONTINUOUS
370
25
100
AcDbCircle
 10
215.587355
 20
332.193713
 40
3.0
100
AcDbArc
 50
224.664854
 51
300.0
  0
ARC
  5
132
100
AcDbEntity
  8
M0
  6
CONTINUOUS
370
25
100
AcDbCircle
 10
213.344183
 20
330.898618
 40
3.0
100
AcDbArc
 50
225.68035
 51
300.0
  0
LINE
  5
133
100
AcDbEntity
  8
M0
  6
CONTINUOUS
370
25
100
AcDbLine
 10
150.336635
 20
333.962418
 11
160.143292
 21
328.300542
  0
ARC
  5
134
100
AcDbEntity
  8
M0
  6
CONTINUOUS
370
25
100
AcDbCircle
 10
187.493737
 20
304.426851
 40
51.0
100
AcDbArc
 50
102.024699
 51
137.975301
  0
ARC
  5
135
100
AcDbEntity
  8
M0
  6
CONTINUOUS
370
25
100
AcDbCircle
 10
187.493737
 20
304.426851
 40
36.5
100
AcDbArc
 50
104.664854
 51
135.335146
  0
ARC
  5
136
100
AcDbEntity
  8
M0
  6
CONTINUOUS
370
25
100
AcDbCircle
 10
187.493737
 20
304.426851
 40
34.0
100
AcDbArc
 50
105.68035
 51
134.31965
  0
ARC
  5
137
100
AcDbEntity
  8
M0
  6
CONTINUOUS
370
25
100
AcDbCircle
 10
177.493737
 20
351.373629
 40
3.0
100
AcDbArc
 50
0.0
 51
102.024699
  0
ARC
  5
138
100
AcDbEntity
  8
M0
  6
CONTINUOUS
370
25
100
AcDbCircle
 10
177.493737
 20
342.640068
 40
3.0
100
AcDbArc
 50
284.664854
 51
360.0
  0
ARC
  5
139
100
AcDbEntity
  8
M0
  6
CONTINUOUS
370
25
100
AcDbCircle
 10
177.493737
 20
340.049877
 40
3.0
100
AcDbArc
 50
285.68035
 51
360.0
  0
ARC
  5
13A
100
AcDbEntity
  8
M0
  6
CONTINUOUS
370
25
100
AcDbCircle
 10
151.836635
 20
336.560494
 40
3.0
100
AcDbArc
 50
137.975301
 51
240.0
  0
ARC
  5
13B
100
AcDbEntity
  8
M0
  6
CONTINUOUS
370
25
100
AcDbCircle
 10
159.40012
 20
332.193713
 40
3.0
100
AcDbArc
 50
240.0
 51
315.335146
  0
ARC
  5
13C
100
AcDbEntity
  8
M0
  6
CONTINUOUS
370
25
100
AcDbCircle
 10
161.643292
 20
330.898618
 40
3.0
100
AcDbArc
 50
240.0
 51
314.31965
  0
ARC
  5
13D
100
AcDbEntity
  8
M0
  6
CONTINUOUS
370
25
100
AcDbCircle
 10
187.493737
 20
304.426851
 40
37.5
100
AcDbArc
 50
139.241682
 51
160.758318
  0
CIRCLE
  5
13E
100
AcDbEntity
  8
M0
  6
CONTINUOUS
370
25
100
AcDbCircle
 10
149.38862
 20
326.426851
 40
3.0
  0
CIRCLE
  5
13F
100
AcDbEntity
  8
M0
  6
CONTINUOUS
370
25
100
AcDbCircle
 10
149.38862
 20
326.426851
 40
2.75
  0
LINE
  5
140
100
AcDbEntity
  8
M0
  6
CONTINUOUS
370
25
100
AcDbLine
 10
145.826266
 20
328.483577
 11
153.618568
 21
323.984689
  0
ARC
  5
141
100
AcDbEntity
  8
M0
  6
CONTINUOUS
370
25
100
AcDbCircle
 10
187.493737
 20
348.426851
 40
7.0
100
AcDbArc
 50
355.437561
 51
544.562439
  0
ARC
  5
142
100
AcDbEntity
  8
M0
  6
CONTINUOUS
370
25
100
AcDbCircle
 10
187.493737
 20
304.426851
 40
37.5
100
AcDbArc
 50
79.241682
 51
100.758318
  0
ARC
  5
143
100
AcDbEntity
  8
M0
  6
CONTINUOUS
370
25
100
AcDbCircle
 10
187.493737
 20
304.426851
 40
44.0
100
AcDbArc
 50
83.872616
 51
96.127384
  0
CIRCLE
  5
144
100
AcDbEntity
  8
M0
  6
CONTINUOUS
370
25
100
AcDbCircle
 10
187.493737
 20
348.426851
 40
2.75
  0
CIRCLE
  5
145
100
AcDbEntity
  8
M0
  6
CONTINUOUS
370
25
100
AcDbCircle
 10
187.493737
 20
348.426851
 40
3.0
  0
CIRCLE
  5
146
100
AcDbEntity
  8
M0
  6
CONTINUOUS
370
25
100
AcDbCircle
 10
187.493737
 20
363.926851
 40
5.0
  0
LINE
  5
147
100
AcDbEntity
  8
M0
  6
CONTINUOUS
370
25
100
AcDbLine
 10
187.493737
 20
352.540303
 11
187.493737
 21
343.542527
  0
LINE
  5
148
100
AcDbEntity
  8
M0
  6
CONTINUOUS
370
25
100
AcDbLine
 10
145.826266
 20
280.370124
 11
153.618568
 21
284.869012
  0
CIRCLE
  5
149
100
AcDbEntity
  8
M0
  6
CONTINUOUS
370
25
100
AcDbCircle
 10
135.965226
 20
274.676851
 40
5.0
  0
CIRCLE
  5
14A
100
AcDbEntity
  8
M0
  6
CONTINUOUS
370
25
100
AcDbCircle
 10
149.38862
 20
282.426851
 40
3.0
  0
CIRCLE
  5
14B
100
AcDbEntity
  8
M0
  6
CONTINUOUS
370
25
100
AcDbCircle
 10
149.38862
 20
282.426851
 40
2.75
  0
ARC
  5
14C
100
AcDbEntity
  8
M0
  6
CONTINUOUS
370
25
100
AcDbCircle
 10
187.493737
 20
304.426851
 40
44.0
100
AcDbArc
 50
203.872616
 51
216.127384
  0
ARC
  5
14D
100
AcDbEntity
  8
M0
  6
CONTINUOUS
370
25
100
AcDbCircle
 10
187.493737
 20
304.426851
 40
37.5
100
AcDbArc
 50
199.241682
 51
220.758318
  0
ARC
  5
14E
100
AcDbEntity
  8
M0
  6
CONTINUOUS
370
25
100
AcDbCircle
 10
149.38862
 20
282.426851
 40
7.0
100
AcDbArc
 50
115.437561
 51
304.562439
  0
LINE
  5
14F
100
AcDbEntity
  8
M0
  6
CONTINUOUS
370
25
100
AcDbLine
 10
187.493737
 20
256.313398
 11
187.493737
 21
265.311174
  0
CIRCLE
  5
150
100
AcDbEntity
  8
M0
  6
CONTINUOUS
370
25
100
AcDbCircle
 10
187.493737
 20
260.426851
 40
2.75
  0
CIRCLE
  5
151
100
AcDbEntity
  8
M0
  6
CONTINUOUS
370
25
100
AcDbCircle
 10
187.493737
 20
260.426851
 40
3.0
  0
ARC
  5
152
100
AcDbEntity
  8
M0
  6
CONTINUOUS
370
25
100
AcDbCircle
 10
187.493737
 20
304.426851
 40
37.5
100
AcDbArc
 50
259.241682
 51
280.758318
  0
ARC
  5
153
100
AcDbEntity
  8
M0
  6
CONTINUOUS
370
25
100
AcDbCircle
 10
177.493737
 20
268.803824
 40
3.0
100
AcDbArc
 50
0.0
 51
74.31965
  0
ARC
  5
154
100
AcDbEntity
  8
M0
  6
CONTINUOUS
370
25
100
AcDbCircle
 10
177.493737
 20
266.213633
 40
3.0
100
AcDbArc
 50
0.0
 51
75.335146
  0
ARC
  5
155
100
AcDbEntity
  8
M0
  6
CONTINUOUS
370
25
100
AcDbCircle
 10
177.493737
 20
257.480072
 40
3.0
100
AcDbArc
 50
257.975301
 51
360.0
  0
ARC
  5
156
100
AcDbEntity
  8
M0
  6
CONTINUOUS
370
25
100
AcDbCircle
 10
161.643292
 20
277.955083
 40
3.0
100
AcDbArc
 50
45.68035
 51
120.0
  0
ARC
  5
157
100
AcDbEntity
  8
M0
  6
CONTINUOUS
370
25
100
AcDbCircle
 10
159.40012
 20
276.659988
 40
3.0
100
AcDbArc
 50
44.664854
 51
120.0
  0
ARC
  5
158
100
AcDbEntity
  8
M0
  6
CONTINUOUS
370
25
100
AcDbCircle
 10
151.836635
 20
272.293207
 40
3.0
100
AcDbArc
 50
120.0
 51
222.024699
  0
ARC
  5
159
100
AcDbEntity
  8
M0
  6
CONTINUOUS
370
25
100
AcDbCircle
 10
187.493737
 20
304.426851
 40
34.0
100
AcDbArc
 50
225.68035
 51
254.31965
  0
ARC
  5
15A
100
AcDbEntity
  8
M0
  6
CONTINUOUS
370
25
100
AcDbCircle
 10
187.493737
 20
304.426851
 40
36.5
100
AcDbArc
 50
224.664854
 51
255.335146
  0
ARC
  5
15B
100
AcDbEntity
  8
M0
  6
CONTINUOUS
370
25
100
AcDbCircle
 10
187.493737
 20
304.426851
 40
51.0
100
AcDbArc
 50
222.024699
 51
257.975301
  0
LINE
  5
15C
100
AcDbEntity
  8
M0
  6
CONTINUOUS
370
25
100
AcDbLine
 10
180.493737
 20
257.480072
 11
180.493737
 21
268.803824
  0
ARC
  5
15D
100
AcDbEntity
  8
M0
  6
CONTINUOUS
370
25
100
AcDbCircle
 10
151.643292
 20
313.57811
 40
3.0
100
AcDbArc
 50
345.68035
 51
420.0
  0
ARC
  5
15E
100
AcDbEntity
  8
M0
  6
CONTINUOUS
370
25
100
AcDbCircle
 10
149.40012
 20
314.873205
 40
3.0
100
AcDbArc
 50
344.664854
 51
420.0
  0
ARC
  5
15F
100
AcDbEntity
  8
M0
  6
CONTINUOUS
370
25
100
AcDbCircle
 10
151.643292
 20
295.275591
 40
3.0
100
AcDbArc
 50
300.0
 51
374.31965
  0
ARC
  5
160
100
AcDbEntity
  8
M0
  6
CONTINUOUS
370
25
100
AcDbCircle
 10
149.40012
 20
293.980496
 40
3.0
100
AcDbArc
 50
300.0
 51
375.335146
  0
ARC
  5
161
100
AcDbEntity
  8
M0
  6
CONTINUOUS
370
25
100
AcDbCircle
 10
141.836635
 20
319.239986
 40
3.0
100
AcDbArc
 50
60.0
 51
162.024699
  0
ARC
  5
162
100
AcDbEntity
  8
M0
  6
CONTINUOUS
370
25
100
AcDbCircle
 10
141.836635
 20
289.613715
 40
3.0
100
AcDbArc
 50
197.975301
 51
300.0
  0
LINE
  5
163
100
AcDbEntity
  8
M0
  6
CONTINUOUS
370
25
100
AcDbLine
 10
143.336635
 20
321.838062
 11
153.143292
 21
316.176186
  0
ARC
  5
164
100
AcDbEntity
  8
M0
  6
CONTINUOUS
370
25
100
AcDbCircle
 10
187.493737
 20
260.426851
 40
7.0
100
AcDbArc
 50
175.437561
 51
364.562439
  0
LINE
  5
165
100
AcDbEntity
  8
M0
  6
CONTINUOUS
370
25
100
AcDbLine
 10
150.336635
 20
274.891284
 11
160.143292
 21
280.55316
  0
LINE
  5
166
100
AcDbEntity
  8
M0
  6
CONTINUOUS
370
25
100
AcDbLine
 10
143.336635
 20
287.015639
 11
153.143292
 21
292.677515
  0
CIRCLE
  5
167
100
AcDbEntity
  8
M0
  6
CONTINUOUS
370
25
100
AcDbCircle
 10
187.493737
 20
244.926851
 40
5.0
  0
ARC
  5
168
100
AcDbEntity
  8
M0
  6
CONTINUOUS
370
25
100
AcDbCircle
 10
187.493737
 20
304.426851
 40
44.0
100
AcDbArc
 50
263.872616
 51
276.127384
  0
ARC
  5
169
100
AcDbEntity
  8
M0
  6
CONTINUOUS
370
25
100
AcDbCircle
 10
187.493737
 20
304.426851
 40
36.5
100
AcDbArc
 50
164.664854
 51
195.335146
  0
ARC
  5
16A
100
AcDbEntity
  8
M0
  6
CONTINUOUS
370
25
100
AcDbCircle
 10
187.493737
 20
304.426851
 40
34.0
100
AcDbArc
 50
165.68035
 51
194.31965
  0
ARC
  5
16B
100
AcDbEntity
  8
M0
  6
CONTINUOUS
370
25
100
AcDbCircle
 10
187.493737
 20
304.426851
 40
51.0
100
AcDbArc
 50
162.024699
 51
197.975301
  0
LINE
  5
16C
100
AcDbEntity
  8
M0
  6
CONTINUOUS
370
25
100
AcDbLine
 10
229.161209
 20
280.370124
 11
221.368907
 21
284.869012
  0
CIRCLE
  5
16D
100
AcDbEntity
  8
M0
  6
CONTINUOUS
370
25
100
AcDbCircle
 10
239.022249
 20
274.676851
 40
5.0
  0
CIRCLE
  5
16E
100
AcDbEntity
  8
M0
  6
CONTINUOUS
370
25
100
AcDbCircle
 10
225.598855
 20
282.426851
 40
3.0
  0
CIRCLE
  5
16F
100
AcDbEntity
  8
M0
  6
CONTINUOUS
370
25
100
AcDbCircle
 10
225.598855
 20
282.426851
 40
2.75
  0
ARC
  5
170
100
AcDbEntity
  8
M0
  6
CONTINUOUS
370
25
100
AcDbCircle
 10
187.493737
 20
304.426851
 40
44.0
100
AcDbArc
 50
323.872616
 51
336.127384
  0
ARC
  5
171
100
AcDbEntity
  8
M0
  6
CONTINUOUS
370
25
100
AcDbCircle
 10
187.493737
 20
304.426851
 40
37.5
100
AcDbArc
 50
319.241682
 51
340.758318
  0
ARC
  5
172
100
AcDbEntity
  8
M0
  6
CONTINUOUS
370
25
100
AcDbCircle
 10
225.598855
 20
282.426851
 40
7.0
100
AcDbArc
 50
235.437561
 51
424.562439
  0
LINE
  5
173
100
AcDbEntity
  8
M0
  6
CONTINUOUS
370
25
100
AcDbLine
 10
229.161209
 20
328.483577
 11
221.368907
 21
323.984689
  0
CIRCLE
  5
174
100
AcDbEntity
  8
M0
  6
CONTINUOUS
370
25
100
AcDbCircle
 10
225.598855
 20
326.426851
 40
2.75
  0
CIRCLE
  5
175
100
AcDbEntity
  8
M0
  6
CONTINUOUS
370
25
100
AcDbCircle
 10
225.598855
 20
326.426851
 40
3.0
  0
ARC
  5
176
100
AcDbEntity
  8
M0
  6
CONTINUOUS
370
25
100
AcDbCircle
 10
187.493737
 20
304.426851
 40
37.5
100
AcDbArc
 50
19.241682
 51
40.758318
  0
ARC
  5
177
100
AcDbEntity
  8
M0
  6
CONTINUOUS
370
25
100
AcDbCircle
 10
223.344183
 20
313.57811
 40
3.0
100
AcDbArc
 50
120.0
 51
194.31965
  0
ARC
  5
178
100
AcDbEntity
  8
M0
  6
CONTINUOUS
370
25
100
AcDbCircle
 10
225.587355
 20
314.873205
 40
3.0
100
AcDbArc
 50
120.0
 51
195.335146
  0
ARC
  5
179
100
AcDbEntity
  8
M0
  6
CONTINUOUS
370
25
100
AcDbCircle
 10
233.15084
 20
319.239986
 40
3.0
100
AcDbArc
 50
17.975301
 51
120.0
  0
ARC
  5
17A
100
AcDbEntity
  8
M0
  6
CONTINUOUS
370
25
100
AcDbCircle
 10
223.344183
 20
295.275591
 40
3.0
100
AcDbArc
 50
165.68035
 51
240.0
  0
ARC
  5
17B
100
AcDbEntity
  8
M0
  6
CONTINUOUS
370
25
100
AcDbCircle
 10
225.587355
 20
293.980496
 40
3.0
100
AcDbArc
 50
164.664854
 51
240.0
  0
ARC
  5
17C
100
AcDbEntity
  8
M0
  6
CONTINUOUS
370
25
100
AcDbCircle
 10
233.15084
 20
289.613715
 40
3.0
100
AcDbArc
 50
240.0
 51
342.024699
  0
ARC
  5
17D
100
AcDbEntity
  8
M0
  6
CONTINUOUS
370
25
100
AcDbCircle
 10
187.493737
 20
304.426851
 40
34.0
100
AcDbArc
 50
345.68035
 51
374.31965
  0
ARC
  5
17E
100
AcDbEntity
  8
M0
  6
CONTINUOUS
370
25
100
AcDbCircle
 10
187.493737
 20
304.426851
 40
36.5
100
AcDbArc
 50
344.664854
 51
375.335146
  0
ARC
  5
17F
100
AcDbEntity
  8
M0
  6
CONTINUOUS
370
25
100
AcDbCircle
 10
187.493737
 20
304.426851
 40
51.0
100
AcDbArc
 50
342.024699
 51
377.975301
  0
LINE
  5
180
100
AcDbEntity
  8
M0
  6
CONTINUOUS
370
25
100
AcDbLine
 10
231.65084
 20
321.838062
 11
221.844183
 21
316.176186
  0
ARC
  5
181
100
AcDbEntity
  8
M0
  6
CONTINUOUS
370
25
100
AcDbCircle
 10
197.493737
 20
268.803824
 40
3.0
100
AcDbArc
 50
105.68035
 51
180.0
  0
ARC
  5
182
100
AcDbEntity
  8
M0
  6
CONTINUOUS
370
25
100
AcDbCircle
 10
197.493737
 20
266.213633
 40
3.0
100
AcDbArc
 50
104.664854
 51
180.0
  0
ARC
  5
183
100
AcDbEntity
  8
M0
  6
CONTINUOUS
370
25
100
AcDbCircle
 10
213.344183
 20
277.955083
 40
3.0
100
AcDbArc
 50
60.0
 51
134.31965
  0
ARC
  5
184
100
AcDbEntity
  8
M0
  6
CONTINUOUS
370
25
100
AcDbCircle
 10
215.587355
 20
276.659988
 40
3.0
100
AcDbArc
 50
60.0
 51
135.335146
  0
ARC
  5
185
100
AcDbEntity
  8
M0
  6
CONTINUOUS
370
25
100
AcDbCircle
 10
197.493737
 20
257.480072
 40
3.0
100
AcDbArc
 50
180.0
 51
282.024699
  0
ARC
  5
186
100
AcDbEntity
  8
M0
  6
CONTINUOUS
370
25
100
AcDbCircle
 10
223.15084
 20
272.293207
 40
3.0
100
AcDbArc
 50
317.975301
 51
420.0
  0
LINE
  5
187
100
AcDbEntity
  8
M0
  6
CONTINUOUS
370
25
100
AcDbLine
 10
194.493737
 20
257.480072
 11
194.493737
 21
268.803824
  0
ARC
  5
188
100
AcDbEntity
  8
M0
  6
CONTINUOUS
370
25
100
AcDbCircle
 10
225.598855
 20
326.426851
 40
7.0
100
AcDbArc
 50
295.437561
 51
484.562439
  0
LINE
  5
189
100
AcDbEntity
  8
M0
  6
CONTINUOUS
370
25
100
AcDbLine
 10
231.65084
 20
287.015639
 11
221.844183
 21
292.677515
  0
LINE
  5
18A
100
AcDbEntity
  8
M0
  6
CONTINUOUS
370
25
100
AcDbLine
 10
224.65084
 20
274.891284
 11
214.844183
 21
280.55316
  0
CIRCLE
  5
18B
100
AcDbEntity
  8
M0
  6
CONTINUOUS
370
25
100
AcDbCircle
 10
239.022249
 20
334.176851
 40
5.0
  0
ARC
  5
18C
100
AcDbEntity
  8
M0
  6
CONTINUOUS
370
25
100
AcDbCircle
 10
187.493737
 20
304.426851
 40
44.0
100
AcDbArc
 50
23.872616
 51
36.127384
  0
ARC
  5
18D
100
AcDbEntity
  8
M0
  6
CONTINUOUS
370
25
100
AcDbCircle
 10
187.493737
 20
304.426851
 40
36.5
100
AcDbArc
 50
284.664854
 51
315.335146
  0
ARC
  5
18E
100
AcDbEntity
  8
M0
  6
CONTINUOUS
370
25
100
AcDbCircle
 10
187.493737
 20
304.426851
 40
34.0
100
AcDbArc
 50
285.68035
 51
314.31965
  0
ARC
  5
18F
100
AcDbEntity
  8
M0
  6
CONTINUOUS
370
25
100
AcDbCircle
 10
187.493737
 20
304.426851
 40
51.0
100
AcDbArc
 50
282.024699
 51
317.975301
  0
CIRCLE
  5
190
100
AcDbEntity
  8
M0
  6
CONTINUOUS
370
25
100
AcDbCircle
 10
187.493737
 20
304.426851
 40
66.0
  0
LINE
  5
191
100
AcDbEntity
  8
M0
  6
CONTINUOUS
370
25
100
AcDbLine
 10
390.275413
 20
370.426851
 11
390.275413
 21
368.426851
  0
CIRCLE
  5
192
100
AcDbEntity
  8
M0
  6
CONTINUOUS
370
25
100
AcDbCircle
 10
607.966457
 20
304.426851
 40
66.0
  0
CIRCLE
  5
193
100
AcDbEntity
  8
M0
  6
CONTINUOUS
370
25
100
AcDbCircle
 10
607.966457
 20
304.426851
 40
76.0
  0
CIRCLE
  5
194
100
AcDbEntity
  8
M0
  6
CONTINUOUS
370
25
100
AcDbCircle
 10
607.966457
 20
304.426851
 40
53.0
  0
ARC
  5
195
100
AcDbEntity
  8
M0
  6
CONTINUOUS
370
25
100
AcDbCircle
 10
607.966457
 20
304.426851
 40
32.0
100
AcDbArc
 50
107.457603
 51
132.542397
  0
CIRCLE
  5
196
100
AcDbEntity
  8
M0
  6
CONTINUOUS
370
25
100
AcDbCircle
 10
607.966457
 20
304.426851
 40
11.0
  0
ARC
  5
197
100
AcDbEntity
  8
M0
  6
CONTINUOUS
370
25
100
AcDbCircle
 10
607.966457
 20
304.426851
 40
25.0
100
AcDbArc
 50
113.578178
 51
126.421822
  0
LINE
  5
198
100
AcDbEntity
  8
M0
  6
CONTINUOUS
370
25
100
AcDbLine
 10
447.275413
 20
272.426851
 11
447.275413
 21
304.426851
  0
CIRCLE
  5
199
100
AcDbEntity
  8
M0
  6
CONTINUOUS
370
25
100
AcDbCircle
 10
607.966457
 20
363.926851
 40
5.0
  0
LINE
  5
19A
100
AcDbEntity
  8
M0
  6
CONTINUOUS
370
25
100
AcDbLine
 10
614.966457
 20
333.045027
 11
614.966457
 21
331.922305
  0
LINE
  5
19B
100
AcDbEntity
  8
M0
  6
CONTINUOUS
370
25
100
AcDbLine
 10
600.966457
 20
333.045027
 11
600.966457
 21
331.922305
  0
LINE
  5
19C
100
AcDbEntity
  8
M0
  6
CONTINUOUS
370
25
100
AcDbLine
 10
586.68239
 20
324.798116
 11
587.654696
 21
324.236755
  0
LINE
  5
19D
100
AcDbEntity
  8
M0
  6
CONTINUOUS
370
25
100
AcDbLine
 10
629.250525
 20
324.798116
 11
628.278219
 21
324.236755
  0
ARC
  5
19E
100
AcDbEntity
  8
M0
  6
CONTINUOUS
370
25
100
AcDbCircle
 10
607.966457
 20
304.426851
 40
25.0
100
AcDbArc
 50
53.578178
 51
66.421822
  0
ARC
  5
19F
100
AcDbEntity
  8
M0
  6
CONTINUOUS
370
25
100
AcDbCircle
 10
607.966457
 20
304.426851
 40
32.0
100
AcDbArc
 50
47.457603
 51
72.542397
  0
ARC
  5
1A0
100
AcDbEntity
  8
M0
  6
CONTINUOUS
370
25
100
AcDbCircle
 10
587.68239
 20
326.530167
 40
2.0
100
AcDbArc
 50
132.542397
 51
240.0
  0
ARC
  5
1A1
100
AcDbEntity
  8
M0
  6
CONTINUOUS
370
25
100
AcDbCircle
 10
598.966457
 20
333.045027
 40
2.0
100
AcDbArc
 50
0.0
 51
107.457603
  0
ARC
  5
1A2
100
AcDbEntity
  8
M0
  6
CONTINUOUS
370
25
100
AcDbCircle
 10
616.966457
 20
333.045027
 40
2.0
100
AcDbArc
 50
72.542397
 51
180.0
  0
ARC
  5
1A3
100
AcDbEntity
  8
M0
  6
CONTINUOUS
370
25
100
AcDbCircle
 10
628.250525
 20
326.530167
 40
2.0
100
AcDbArc
 50
300.0
 51
407.457603
  0
ARC
  5
1A4
100
AcDbEntity
  8
M0
  6
CONTINUOUS
370
25
100
AcDbCircle
 10
590.154696
 20
328.566883
 40
5.0
100
AcDbArc
 50
240.0
 51
306.421822
  0
ARC
  5
1A5
100
AcDbEntity
  8
M0
  6
CONTINUOUS
370
25
100
AcDbCircle
 10
595.966457
 20
331.922305
 40
5.0
100
AcDbArc
 50
293.578178
 51
360.0
  0
ARC
  5
1A6
100
AcDbEntity
  8
M0
  6
CONTINUOUS
370
25
100
AcDbCircle
 10
619.966457
 20
331.922305
 40
5.0
100
AcDbArc
 50
180.0
 51
246.421822
  0
ARC
  5
1A7
100
AcDbEntity
  8
M0
  6
CONTINUOUS
370
25
100
AcDbCircle
 10
625.778219
 20
328.566883
 40
5.0
100
AcDbArc
 50
233.578178
 51
300.0
  0
LINE
  5
1A8
100
AcDbEntity
  8
M0
  6
CONTINUOUS
370
25
100
AcDbLine
 10
605.466457
 20
313.926851
 11
605.466457
 21
311.497918
  0
LINE
  5
1A9
100
AcDbEntity
  8
M0
  6
CONTINUOUS
370
25
100
AcDbLine
 10
610.466457
 20
313.926851
 11
610.466457
 21
311.497918
  0
LINE
  5
1AA
100
AcDbEntity
  8
M0
  6
CONTINUOUS
370
25
100
AcDbLine
 10
605.466457
 20
313.926851
 11
610.466457
 21
313.926851
  0
ARC
  5
1AB
100
AcDbEntity
  8
M0
  6
CONTINUOUS
370
25
100
AcDbCircle
 10
607.966457
 20
304.426851
 40
7.5
100
AcDbArc
 50
109.471221
 51
430.528779
  0
CIRCLE
  5
1AC
100
AcDbEntity
  8
M0
  6
CONTINUOUS
370
25
100
AcDbCircle
 10
607.966457
 20
321.426851
 40
3.5
  0
CIRCLE
  5
1AD
100
AcDbEntity
  8
M0
  6
CONTINUOUS
370
25
100
AcDbCircle
 10
607.966457
 20
304.426851
 40
25.0
  0
CIRCLE
  5
1AE
100
AcDbEntity
  8
M0
  6
CONTINUOUS
370
25
100
AcDbCircle
 10
556.437946
 20
334.176851
 40
5.0
  0
CIRCLE
  5
1AF
100
AcDbEntity
  8
M0
  6
CONTINUOUS
370
25
100
AcDbCircle
 10
556.437946
 20
274.676851
 40
5.0
  0
CIRCLE
  5
1B0
100
AcDbEntity
  8
M0
  6
CONTINUOUS
370
25
100
AcDbCircle
 10
607.966457
 20
244.926851
 40
5.0
  0
CIRCLE
  5
1B1
100
AcDbEntity
  8
M0
  6
CONTINUOUS
370
25
100
AcDbCircle
 10
659.494969
 20
274.676851
 40
5.0
  0
CIRCLE
  5
1B2
100
AcDbEntity
  8
M0
  6
CONTINUOUS
370
25
100
AcDbCircle
 10
659.494969
 20
334.176851
 40
5.0
  0
CIRCLE
  5
1B3
100
AcDbEntity
  8
M0
  6
CONTINUOUS
370
25
100
AcDbCircle
 10
593.244025
 20
312.926851
 40
3.5
  0
CIRCLE
  5
1B4
100
AcDbEntity
  8
M0
  6
CONTINUOUS
370
25
100
AcDbCircle
 10
593.244025
 20
295.926851
 40
3.5
  0
CIRCLE
  5
1B5
100
AcDbEntity
  8
M0
  6
CONTINUOUS
370
25
100
AcDbCircle
 10
607.966457
 20
287.426851
 40
3.5
  0
CIRCLE
  5
1B6
100
AcDbEntity
  8
M0
  6
CONTINUOUS
370
25
100
AcDbCircle
 10
622.688889
 20
295.926851
 40
3.5
  0
CIRCLE
  5
1B7
100
AcDbEntity
  8
M0
  6
CONTINUOUS
370
25
100
AcDbCircle
 10
622.688889
 20
312.926851
 40
3.5
  0
ARC
  5
1B8
100
AcDbEntity
  8
M0
  6
CONTINUOUS
370
25
100
AcDbCircle
 10
590.154696
 20
280.286819
 40
5.0
100
AcDbArc
 50
53.578178
 51
120.0
  0
ARC
  5
1B9
100
AcDbEntity
  8
M0
  6
CONTINUOUS
370
25
100
AcDbCircle
 10
595.966457
 20
276.931396
 40
5.0
100
AcDbArc
 50
0.0
 51
66.421822
  0
ARC
  5
1BA
100
AcDbEntity
  8
M0
  6
CONTINUOUS
370
25
100
AcDbCircle
 10
587.68239
 20
282.323534
 40
2.0
100
AcDbArc
 50
120.0
 51
227.457603
  0
ARC
  5
1BB
100
AcDbEntity
  8
M0
  6
CONTINUOUS
370
25
100
AcDbCircle
 10
598.966457
 20
275.808675
 40
2.0
100
AcDbArc
 50
252.542397
 51
360.0
  0
LINE
  5
1BC
100
AcDbEntity
  8
M0
  6
CONTINUOUS
370
25
100
AcDbLine
 10
600.966457
 20
275.808675
 11
600.966457
 21
276.931396
  0
LINE
  5
1BD
100
AcDbEntity
  8
M0
  6
CONTINUOUS
370
25
100
AcDbLine
 10
586.68239
 20
284.055585
 11
587.654696
 21
284.616946
  0
ARC
  5
1BE
100
AcDbEntity
  8
M0
  6
CONTINUOUS
370
25
100
AcDbCircle
 10
607.966457
 20
304.426851
 40
25.0
100
AcDbArc
 50
233.578178
 51
246.421822
  0
ARC
  5
1BF
100
AcDbEntity
  8
M0
  6
CONTINUOUS
370
25
100
AcDbCircle
 10
607.966457
 20
304.426851
 40
32.0
100
AcDbArc
 50
227.457603
 51
252.542397
  0
ARC
  5
1C0
100
AcDbEntity
  8
M0
  6
CONTINUOUS
370
25
100
AcDbCircle
 10
578.154696
 20
307.782273
 40
5.0
100
AcDbArc
 50
353.578178
 51
420.0
  0
ARC
  5
1C1
100
AcDbEntity
  8
M0
  6
CONTINUOUS
370
25
100
AcDbCircle
 10
578.154696
 20
301.071428
 40
5.0
100
AcDbArc
 50
300.0
 51
366.421822
  0
ARC
  5
1C2
100
AcDbEntity
  8
M0
  6
CONTINUOUS
370
25
100
AcDbCircle
 10
578.68239
 20
310.94171
 40
2.0
100
AcDbArc
 50
60.0
 51
167.457603
  0
ARC
  5
1C3
100
AcDbEntity
  8
M0
  6
CONTINUOUS
370
25
100
AcDbCircle
 10
578.68239
 20
297.911991
 40
2.0
100
AcDbArc
 50
192.542397
 51
300.0
  0
ARC
  5
1C4
100
AcDbEntity
  8
M0
  6
CONTINUOUS
370
25
100
AcDbCircle
 10
607.966457
 20
304.426851
 40
32.0
100
AcDbArc
 50
167.457603
 51
192.542397
  0
ARC
  5
1C5
100
AcDbEntity
  8
M0
  6
CONTINUOUS
370
25
100
AcDbCircle
 10
607.966457
 20
304.426851
 40
25.0
100
AcDbArc
 50
173.578178
 51
186.421822
  0
LINE
  5
1C6
100
AcDbEntity
  8
M0
  6
CONTINUOUS
370
25
100
AcDbLine
 10
579.68239
 20
312.673761
 11
580.654696
 21
312.1124
  0
LINE
  5
1C7
100
AcDbEntity
  8
M0
  6
CONTINUOUS
370
25
100
AcDbLine
 10
579.68239
 20
296.17994
 11
580.654696
 21
296.741301
  0
ARC
  5
1C8
100
AcDbEntity
  8
M0
  6
CONTINUOUS
370
25
100
AcDbCircle
 10
637.778219
 20
301.071428
 40
5.0
100
AcDbArc
 50
173.578178
 51
240.0
  0
ARC
  5
1C9
100
AcDbEntity
  8
M0
  6
CONTINUOUS
370
25
100
AcDbCircle
 10
637.778219
 20
307.782273
 40
5.0
100
AcDbArc
 50
120.0
 51
186.421822
  0
ARC
  5
1CA
100
AcDbEntity
  8
M0
  6
CONTINUOUS
370
25
100
AcDbCircle
 10
637.250525
 20
297.911991
 40
2.0
100
AcDbArc
 50
240.0
 51
347.457603
  0
ARC
  5
1CB
100
AcDbEntity
  8
M0
  6
CONTINUOUS
370
25
100
AcDbCircle
 10
637.250525
 20
310.94171
 40
2.0
100
AcDbArc
 50
12.542397
 51
120.0
  0
LINE
  5
1CC
100
AcDbEntity
  8
M0
  6
CONTINUOUS
370
25
100
AcDbLine
 10
636.250525
 20
312.673761
 11
635.278219
 21
312.1124
  0
LINE
  5
1CD
100
AcDbEntity
  8
M0
  6
CONTINUOUS
370
25
100
AcDbLine
 10
636.250525
 20
296.17994
 11
635.278219
 21
296.741301
  0
ARC
  5
1CE
100
AcDbEntity
  8
M0
  6
CONTINUOUS
370
25
100
AcDbCircle
 10
607.966457
 20
304.426851
 40
25.0
100
AcDbArc
 50
353.578178
 51
366.421822
  0
ARC
  5
1CF
100
AcDbEntity
  8
M0
  6
CONTINUOUS
370
25
100
AcDbCircle
 10
607.966457
 20
304.426851
 40
32.0
100
AcDbArc
 50
347.457603
 51
372.542397
  0
ARC
  5
1D0
100
AcDbEntity
  8
M0
  6
CONTINUOUS
370
25
100
AcDbCircle
 10
619.966457
 20
276.931396
 40
5.0
100
AcDbArc
 50
113.578178
 51
180.0
  0
ARC
  5
1D1
100
AcDbEntity
  8
M0
  6
CONTINUOUS
370
25
100
AcDbCircle
 10
625.778219
 20
280.286819
 40
5.0
100
AcDbArc
 50
60.0
 51
126.421822
  0
ARC
  5
1D2
100
AcDbEntity
  8
M0
  6
CONTINUOUS
370
25
100
AcDbCircle
 10
616.966457
 20
275.808675
 40
2.0
100
AcDbArc
 50
180.0
 51
287.457603
  0
ARC
  5
1D3
100
AcDbEntity
  8
M0
  6
CONTINUOUS
370
25
100
AcDbCircle
 10
628.250525
 20
282.323534
 40
2.0
100
AcDbArc
 50
312.542397
 51
420.0
  0
ARC
  5
1D4
100
AcDbEntity
  8
M0
  6
CONTINUOUS
370
25
100
AcDbCircle
 10
607.966457
 20
304.426851
 40
32.0
100
AcDbArc
 50
287.457603
 51
312.542397
  0
ARC
  5
1D5
100
AcDbEntity
  8
M0
  6
CONTINUOUS
370
25
100
AcDbCircle
 10
607.966457
 20
304.426851
 40
25.0
100
AcDbArc
 50
293.578178
 51
306.421822
  0
LINE
  5
1D6
100
AcDbEntity
  8
M0
  6
CONTINUOUS
370
25
100
AcDbLine
 10
614.966457
 20
275.808675
 11
614.966457
 21
276.931396
  0
LINE
  5
1D7
100
AcDbEntity
  8
M0
  6
CONTINUOUS
370
25
100
AcDbLine
 10
629.250525
 20
284.055585
 11
628.278219
 21
284.616946
  0
ARC
  5
1D8
100
AcDbEntity
  8
M0
  6
CONTINUOUS
370
25
100
AcDbCircle
 10
440.806264
 20
337.692833
 40
6.0
100
AcDbArc
 50
324.462322
 51
373.392498
  0
LINE
  5
1D9
100
AcDbEntity
  8
M0
  6
CONTINUOUS
370
25
100
AcDbLine
 10
371.275413
 20
266.926851
 11
367.275413
 21
266.926851
  0
LINE
  5
1DA
100
AcDbEntity
  8
M0
  6
CONTINUOUS
370
25
100
AcDbLine
 10
447.775413
 20
240.540099
 11
447.775413
 21
249.313602
  0
ARC
  5
1DB
100
AcDbEntity
  8
M0
  6
CONTINUOUS
370
25
100
AcDbCircle
 10
445.00191
 20
249.313602
 40
2.773503
100
AcDbArc
 50
329.999999
 51
390.000001
  0
ARC
  5
1DC
100
AcDbEntity
  8
M0
  6
CONTINUOUS
370
25
100
AcDbCircle
 10
435.479141
 20
244.926851
 40
12.296272
100
AcDbArc
 50
345.878651
 51
374.121349
  0
ARC
  5
1DD
100
AcDbEntity
  8
M0
  6
CONTINUOUS
370
25
100
AcDbCircle
 10
445.00191
 20
240.540099
 40
2.773503
100
AcDbArc
 50
329.999999
 51
390.000001
  0
LINE
  5
1DE
100
AcDbEntity
  8
M0
  6
CONTINUOUS
370
25
100
AcDbLine
 10
443.775413
 20
246.921901
 11
442.275413
 21
245.81354
  0
LINE
  5
1DF
100
AcDbEntity
  8
M0
  6
CONTINUOUS
370
25
100
AcDbLine
 10
443.775413
 20
244.926851
 11
442.275413
 21
243.818489
  0
LINE
  5
1E0
100
AcDbEntity
  8
M0
  6
CONTINUOUS
370
25
100
AcDbLine
 10
443.775413
 20
251.026851
 11
442.275413
 21
251.026851
  0
LINE
  5
1E1
100
AcDbEntity
  8
M0
  6
CONTINUOUS
370
25
100
AcDbLine
 10
447.403834
 20
250.700353
 11
443.775413
 21
250.700353
  0
LINE
  5
1E2
100
AcDbEntity
  8
M0
  6
CONTINUOUS
370
25
100
AcDbLine
 10
443.775413
 20
251.026851
 11
443.775413
 21
238.826851
  0
LINE
  5
1E3
100
AcDbEntity
  8
M0
  6
CONTINUOUS
370
25
100
AcDbLine
 10
443.775413
 20
238.826851
 11
442.275413
 21
238.826851
  0
LINE
  5
1E4
100
AcDbEntity
  8
M0
  6
CONTINUOUS
370
25
100
AcDbLine
 10
371.275413
 20
351.426851
 11
381.275413
 21
351.426851
  0
LINE
  5
1E5
100
AcDbEntity
  8
M0
  6
CONTINUOUS
370
25
100
AcDbLine
 10
371.275413
 20
350.426851
 11
383.618841
 21
350.426851
  0
LINE
  5
1E6
100
AcDbEntity
  8
M0
  6
CONTINUOUS
370
25
100
AcDbLine
 10
371.275413
 20
346.426851
 11
383.618841
 21
346.426851
  0
LINE
  5
1E7
100
AcDbEntity
  8
M0
  6
CONTINUOUS
370
25
100
AcDbLine
 10
381.275413
 20
351.426851
 11
381.275413
 21
345.426851
  0
LINE
  5
1E8
100
AcDbEntity
  8
M0
  6
CONTINUOUS
370
25
100
AcDbLine
 10
383.618841
 20
350.426851
 11
383.618841
 21
346.426851
  0
LINE
  5
1E9
100
AcDbEntity
  8
M0
  6
CONTINUOUS
370
25
100
AcDbLine
 10
381.275413
 20
351.426851
 11
383.007463
 21
350.426851
  0
LINE
  5
1EA
100
AcDbEntity
  8
M0
  6
CONTINUOUS
370
25
100
AcDbLine
 10
371.275413
 20
345.426851
 11
381.275413
 21
345.426851
  0
LINE
  5
1EB
100
AcDbEntity
  8
M0
  6
CONTINUOUS
370
25
100
AcDbLine
 10
381.275413
 20
345.426851
 11
383.007463
 21
346.426851
  0
LINE
  5
1EC
100
AcDbEntity
  8
M0
  6
CONTINUOUS
370
25
100
AcDbLine
 10
436.275413
 20
315.426851
 11
442.275413
 21
315.426851
  0
LINE
  5
1ED
100
AcDbEntity
  8
M0
  6
CONTINUOUS
370
25
100
AcDbLine
 10
184.993737
 20
313.926851
 11
184.993737
 21
311.497918
  0
LINE
  5
1EE
100
AcDbEntity
  8
M0
  6
CONTINUOUS
370
25
100
AcDbLine
 10
182.875676
 20
304.426851
 11
191.852205
 21
304.426851
  0
LINE
  5
1EF
100
AcDbEntity
  8
M0
  6
CONTINUOUS
370
25
100
AcDbLine
 10
187.493737
 20
308.907665
 11
187.493737
 21
300.421118
  0
LINE
  5
1F0
100
AcDbEntity
  8
M0
  6
CONTINUOUS
370
25
100
AcDbLine
 10
445.227938
 20
304.426851
 11
453.829728
 21
304.426851
  0
LINE
  5
1F1
100
AcDbEntity
  8
M0
  6
CONTINUOUS
370
25
100
AcDbLine
 10
383.618841
 20
346.426851
 11
384.773542
 21
348.426851
  0
LINE
  5
1F2
100
AcDbEntity
  8
M0
  6
CONTINUOUS
370
25
100
AcDbLine
 10
383.618841
 20
350.426851
 11
384.773542
 21
348.426851
  0
LINE
  5
1F3
100
AcDbEntity
  8
M0
  6
CONTINUOUS
370
25
100
AcDbLine
 10
604.312766
 20
304.426851
 11
611.867886
 21
304.426851
  0
LINE
  5
1F4
100
AcDbEntity
  8
M0
  6
CONTINUOUS
370
25
100
AcDbLine
 10
607.966457
 20
308.422436
 11
607.966457
 21
300.670798
  0
LINE
  5
1F5
100
AcDbEntity
  8
M0
  6
CONTINUOUS
370
25
100
AcDbLine
 10
384.077413
 20
387.704851
 11
384.077413
 21
378.150851
  0
LINE
  5
1F6
100
AcDbEntity
  8
M0
  6
CONTINUOUS
370
25
100
AcDbLine
 10
381.277413
 20
385.832851
 11
381.277413
 21
378.110851
  0
LINE
  5
1F7
100
AcDbEntity
  8
M0
  6
CONTINUOUS
370
25
100
AcDbLine
 10
381.277413
 20
385.832851
 11
384.077413
 21
387.704851
  0
LINE
  5
1F8
100
AcDbEntity
  8
M0
  6
CONTINUOUS
370
25
100
AcDbLine
 10
384.077413
 20
391.377851
 11
381.277413
 21
389.334851
  0
LINE
  5
1F9
100
AcDbEntity
  8
M0
  6
CONTINUOUS
370
25
100
AcDbLine
 10
381.277413
 20
389.334851
 11
381.276993
 21
398.890851
  0
LINE
  5
1FA
100
AcDbEntity
  8
M0
  6
CONTINUOUS
370
25
100
AcDbLine
 10
384.077105
 20
398.890851
 11
384.077413
 21
391.377851
  0
LINE
  5
1FB
100
AcDbEntity
  8
M0
  6
CONTINUOUS
370
25
100
AcDbLine
 10
387.076413
 20
375.226851
 11
390.675413
 21
375.225851
  0
LINE
  5
1FC
100
AcDbEntity
  8
M0
  6
CONTINUOUS
370
25
100
AcDbLine
 10
390.675413
 20
372.426851
 11
387.076413
 21
372.426851
  0
LINE
  5
1FD
100
AcDbEntity
  8
M0
  6
CONTINUOUS
370
25
100
AcDbLine
 10
377.077413
 20
411.014851
 11
375.677413
 21
408.589851
  0
LINE
  5
1FE
100
AcDbEntity
  8
M0
  6
CONTINUOUS
370
25
100
AcDbLine
 10
388.277359
 20
411.014944
 11
389.677413
 21
408.589851
  0
ARC
  5
1FF
100
AcDbEntity
  8
M0
  6
CONTINUOUS
370
25
100
AcDbCircle
 10
386.988212
 20
378.137029
 40
5.710859
100
AcDbArc
 50
180.262642
 51
270.884932
  0
ARC
  5
200
100
AcDbEntity
  8
M0
  6
CONTINUOUS
370
25
100
AcDbCircle
 10
387.151863
 20
378.304198
 40
3.078272
100
AcDbArc
 50
182.855432
 51
268.595507
  0
ARC
  5
201
100
AcDbEntity
  8
M0
  6
CONTINUOUS
370
25
100
AcDbCircle
 10
397.71134
 20
396.545188
 40
17.273501
100
AcDbArc
 50
123.103518
 51
150.520888
  0
ARC
  5
202
100
AcDbEntity
  8
M0
  6
CONTINUOUS
370
25
100
AcDbCircle
 10
370.706719
 20
399.254172
 40
10.576516
100
AcDbArc
 50
358.031405
 51
421.967355
  0
ARC
  5
203
100
AcDbEntity
  8
M0
  6
CONTINUOUS
370
25
100
AcDbCircle
 10
370.312452
 20
398.990503
 40
13.765014
100
AcDbArc
 50
359.15178
 51
420.637667
  0
ARC
  5
204
100
AcDbEntity
  8
M0
  6
CONTINUOUS
370
25
100
AcDbCircle
 10
395.446576
 20
398.826987
 40
11.36965
100
AcDbArc
 50
120.580066
 51
179.049553
  0
LINE
  5
205
100
AcDbEntity
  8
M0
  6
CONTINUOUS
370
25
100
AcDbLine
 10
376.455463
 20
409.937544
 11
373.629441
 21
411.656546
  0
LINE
  5
206
100
AcDbEntity
  8
M0
  6
CONTINUOUS
370
25
100
AcDbLine
 10
388.976306
 20
409.804268
 11
391.988833
 21
411.434393
  0
LINE
  5
207
100
AcDbEntity
  8
M0
  6
CONTINUOUS
370
25
100
AcDbLine
 10
397.275413
 20
329.300373
 11
392.275413
 21
329.300373
  0
LINE
  5
208
100
AcDbEntity
  8
M0
  6
CONTINUOUS
370
25
100
AcDbLine
 10
379.275413
 20
336.926851
 11
379.275413
 21
324.426851
  0
LINE
  5
209
100
AcDbEntity
  8
M0
  6
CONTINUOUS
370
25
100
AcDbLine
 10
381.475413
 20
336.926851
 11
381.475413
 21
324.426851
  0
LINE
  5
20A
100
AcDbEntity
  8
M0
  6
CONTINUOUS
370
25
100
AcDbLine
 10
367.275413
 20
333.926851
 11
367.275413
 21
324.426851
  0
LINE
  5
20B
100
AcDbEntity
  8
M0
  6
CONTINUOUS
370
25
100
AcDbLine
 10
392.275413
 20
333.926851
 11
392.275413
 21
324.426851
  0
TEXT
  5
20C
100
AcDbEntity
  8
M0
100
AcDbText
 10
597.8905
 20
168.24984
 40
9.6
  1
ＰＨＢ－１．２
 41
1.0
  7
STANDARD
100
AcDbText
  0
TEXT
  5
20D
100
AcDbEntity
  8
M0
100
AcDbText
 10
594.304502
 20
149.529641
 40
8.4
  1
（ＳＤＫ６３４２）
 41
1.0
  7
STANDARD
100
AcDbText
  0
LINE
  5
20E
100
AcDbEntity
  8
M0
  6
CONTINUOUS
370
25
100
AcDbLine
 10
443.775413
 20
363.926851
 11
443.775413
 21
369.700353
  0
LINE
  5
20F
100
AcDbEntity
  8
M0
  6
CONTINUOUS
370
25
100
AcDbLine
 10
443.775413
 20
369.700353
 11
447.403834
 21
369.700353
  0
LINE
  5
210
100
AcDbEntity
  8
M0
  6
CONTINUOUS
370
25
100
AcDbLine
 10
447.403834
 20
358.153348
 11
443.775413
 21
358.153348
  0
LINE
  5
211
100
AcDbEntity
  8
M0
  6
CONTINUOUS
370
25
100
AcDbLine
 10
443.775413
 20
358.153348
 11
443.775413
 21
363.926851
  0
LINE
  5
212
100
AcDbEntity
  8
M0
  6
CONTINUOUS
370
25
100
AcDbLine
 10
447.403834
 20
366.926851
 11
443.775413
 21
366.926851
  0
LINE
  5
213
100
AcDbEntity
  8
M0
  6
CONTINUOUS
370
25
100
AcDbLine
 10
443.775413
 20
360.926851
 11
447.403834
 21
360.926851
  0
LINE
  5
214
100
AcDbEntity
  8
M0
  6
CONTINUOUS
370
25
100
AcDbLine
 10
381.275413
 20
363.926851
 11
381.275413
 21
369.700354
  0
LINE
  5
215
100
AcDbEntity
  8
M0
  6
CONTINUOUS
370
25
100
AcDbLine
 10
381.275413
 20
369.700354
 11
377.646992
 21
369.700354
  0
LINE
  5
216
100
AcDbEntity
  8
M0
  6
CONTINUOUS
370
25
100
AcDbLine
 10
377.646992
 20
358.153348
 11
381.275413
 21
358.153348
  0
LINE
  5
217
100
AcDbEntity
  8
M0
  6
CONTINUOUS
370
25
100
AcDbLine
 10
381.275413
 20
358.153348
 11
381.275413
 21
363.926851
  0
LINE
  5
218
100
AcDbEntity
  8
M0
  6
CONTINUOUS
370
25
100
AcDbLine
 10
377.646992
 20
366.926851
 11
381.275413
 21
366.926851
  0
LINE
  5
219
100
AcDbEntity
  8
M0
  6
CONTINUOUS
370
25
100
AcDbLine
 10
381.275413
 20
360.926851
 11
377.646992
 21
360.926851
  0
LINE
  5
21A
100
AcDbEntity
  8
M0
  6
CONTINUOUS
370
25
100
AcDbLine
 10
443.675413
 20
321.426851
 11
443.675413
 21
325.468302
  0
LINE
  5
21B
100
AcDbEntity
  8
M0
  6
CONTINUOUS
370
25
100
AcDbLine
 10
443.675413
 20
325.468302
 11
446.20191
 21
325.468302
  0
LINE
  5
21C
100
AcDbEntity
  8
M0
  6
CONTINUOUS
370
25
100
AcDbLine
 10
446.20191
 20
317.385399
 11
443.675413
 21
317.385399
  0
LINE
  5
21D
100
AcDbEntity
  8
M0
  6
CONTINUOUS
370
25
100
AcDbLine
 10
443.675413
 20
317.385399
 11
443.675413
 21
321.426851
  0
LINE
  5
21E
100
AcDbEntity
  8
M0
  6
CONTINUOUS
370
25
100
AcDbLine
 10
446.20191
 20
323.426851
 11
443.675413
 21
323.426851
  0
LINE
  5
21F
100
AcDbEntity
  8
M0
  6
CONTINUOUS
370
25
100
AcDbLine
 10
443.675413
 20
319.426851
 11
446.20191
 21
319.426851
  0
LINE
  5
220
100
AcDbEntity
  8
M0
  6
CONTINUOUS
370
25
100
AcDbLine
 10
381.275413
 20
247.926851
 11
377.646992
 21
247.926851
  0
LINE
  5
221
100
AcDbEntity
  8
M0
  6
CONTINUOUS
370
25
100
AcDbLine
 10
377.646992
 20
241.926851
 11
381.275413
 21
241.926851
  0
LINE
  5
222
100
AcDbEntity
  8
M0
  6
CONTINUOUS
370
25
100
AcDbLine
 10
377.646992
 20
250.700353
 11
381.275413
 21
250.700353
  0
LINE
  5
223
100
AcDbEntity
  8
M0
  6
CONTINUOUS
370
25
100
AcDbLine
 10
381.275413
 20
250.700353
 11
381.275413
 21
244.926851
  0
LINE
  5
224
100
AcDbEntity
  8
M0
  6
CONTINUOUS
370
25
100
AcDbLine
 10
381.275413
 20
244.926851
 11
381.275413
 21
239.153348
  0
LINE
  5
225
100
AcDbEntity
  8
M0
  6
CONTINUOUS
370
25
100
AcDbLine
 10
381.275413
 20
239.153348
 11
377.646992
 21
239.153348
  0
LINE
  5
226
100
AcDbEntity
  8
M0
  6
CONTINUOUS
370
25
100
AcDbLine
 10
381.275413
 20
274.676851
 11
381.275413
 21
268.903348
  0
LINE
  5
227
100
AcDbEntity
  8
M0
  6
CONTINUOUS
370
25
100
AcDbLine
 10
381.275413
 20
268.903348
 11
377.646992
 21
268.903348
  0
LINE
  5
228
100
AcDbEntity
  8
M0
  6
CONTINUOUS
370
25
100
AcDbLine
 10
377.646992
 20
280.450353
 11
381.275413
 21
280.450353
  0
LINE
  5
229
100
AcDbEntity
  8
M0
  6
CONTINUOUS
370
25
100
AcDbLine
 10
381.275413
 20
280.450353
 11
381.275413
 21
274.676851
  0
LINE
  5
22A
100
AcDbEntity
  8
M0
  6
CONTINUOUS
370
25
100
AcDbLine
 10
377.646992
 20
271.676851
 11
381.275413
 21
271.676851
  0
LINE
  5
22B
100
AcDbEntity
  8
M0
  6
CONTINUOUS
370
25
100
AcDbLine
 10
381.275413
 20
277.676851
 11
377.646992
 21
277.676851
  0
LINE
  5
22C
100
AcDbEntity
  8
M0
  6
CONTINUOUS
370
25
100
AcDbLine
 10
135.965226
 20
328.403348
 11
140.965226
 21
331.290099
  0
LINE
  5
22D
100
AcDbEntity
  8
M0
  6
CONTINUOUS
370
25
100
AcDbLine
 10
140.965226
 20
331.290099
 11
140.965226
 21
337.063602
  0
LINE
  5
22E
100
AcDbEntity
  8
M0
  6
CONTINUOUS
370
25
100
AcDbLine
 10
140.965226
 20
337.063602
 11
135.965226
 21
339.950353
  0
LINE
  5
22F
100
AcDbEntity
  8
M0
  6
CONTINUOUS
370
25
100
AcDbLine
 10
135.965226
 20
339.950353
 11
130.965226
 21
337.063602
  0
LINE
  5
230
100
AcDbEntity
  8
M0
  6
CONTINUOUS
370
25
100
AcDbLine
 10
130.965226
 20
337.063602
 11
130.965226
 21
331.290099
  0
LINE
  5
231
100
AcDbEntity
  8
M0
  6
CONTINUOUS
370
25
100
AcDbLine
 10
130.965226
 20
331.290099
 11
135.965226
 21
328.403348
  0
LINE
  5
232
100
AcDbEntity
  8
M0
  6
CONTINUOUS
370
25
100
AcDbLine
 10
182.493737
 20
361.040099
 11
187.493737
 21
358.153348
  0
LINE
  5
233
100
AcDbEntity
  8
M0
  6
CONTINUOUS
370
25
100
AcDbLine
 10
187.493737
 20
358.153348
 11
192.493737
 21
361.040099
  0
LINE
  5
234
100
AcDbEntity
  8
M0
  6
CONTINUOUS
370
25
100
AcDbLine
 10
192.493737
 20
361.040099
 11
192.493737
 21
366.813602
  0
LINE
  5
235
100
AcDbEntity
  8
M0
  6
CONTINUOUS
370
25
100
AcDbLine
 10
192.493737
 20
366.813602
 11
187.493737
 21
369.700353
  0
LINE
  5
236
100
AcDbEntity
  8
M0
  6
CONTINUOUS
370
25
100
AcDbLine
 10
187.493737
 20
369.700353
 11
182.493737
 21
366.813602
  0
LINE
  5
237
100
AcDbEntity
  8
M0
  6
CONTINUOUS
370
25
100
AcDbLine
 10
182.493737
 20
366.813602
 11
182.493737
 21
361.040099
  0
LINE
  5
238
100
AcDbEntity
  8
M0
  6
CONTINUOUS
370
25
100
AcDbLine
 10
140.965226
 20
271.790099
 11
140.965226
 21
277.563602
  0
LINE
  5
239
100
AcDbEntity
  8
M0
  6
CONTINUOUS
370
25
100
AcDbLine
 10
140.965226
 20
277.563602
 11
135.965226
 21
280.450353
  0
LINE
  5
23A
100
AcDbEntity
  8
M0
  6
CONTINUOUS
370
25
100
AcDbLine
 10
135.965226
 20
280.450353
 11
130.965226
 21
277.563602
  0
LINE
  5
23B
100
AcDbEntity
  8
M0
  6
CONTINUOUS
370
25
100
AcDbLine
 10
130.965226
 20
277.563602
 11
130.965226
 21
271.790099
  0
LINE
  5
23C
100
AcDbEntity
  8
M0
  6
CONTINUOUS
370
25
100
AcDbLine
 10
130.965226
 20
271.790099
 11
135.965226
 21
268.903348
  0
LINE
  5
23D
100
AcDbEntity
  8
M0
  6
CONTINUOUS
370
25
100
AcDbLine
 10
135.965226
 20
268.903348
 11
140.965226
 21
271.790099
  0
LINE
  5
23E
100
AcDbEntity
  8
M0
  6
CONTINUOUS
370
25
100
AcDbLine
 10
192.493737
 20
247.813602
 11
187.493737
 21
250.700353
  0
LINE
  5
23F
100
AcDbEntity
  8
M0
  6
CONTINUOUS
370
25
100
AcDbLine
 10
187.493737
 20
250.700353
 11
182.493737
 21
247.813602
  0
LINE
  5
240
100
AcDbEntity
  8
M0
  6
CONTINUOUS
370
25
100
AcDbLine
 10
182.493737
 20
247.813602
 11
182.493737
 21
242.040099
  0
LINE
  5
241
100
AcDbEntity
  8
M0
  6
CONTINUOUS
370
25
100
AcDbLine
 10
182.493737
 20
242.040099
 11
187.493737
 21
239.153348
  0
LINE
  5
242
100
AcDbEntity
  8
M0
  6
CONTINUOUS
370
25
100
AcDbLine
 10
187.493737
 20
239.153348
 11
192.493737
 21
242.040099
  0
LINE
  5
243
100
AcDbEntity
  8
M0
  6
CONTINUOUS
370
25
100
AcDbLine
 10
192.493737
 20
242.040099
 11
192.493737
 21
247.813602
  0
LINE
  5
244
100
AcDbEntity
  8
M0
  6
CONTINUOUS
370
25
100
AcDbLine
 10
239.022249
 20
280.450353
 11
234.022249
 21
277.563602
  0
LINE
  5
245
100
AcDbEntity
  8
M0
  6
CONTINUOUS
370
25
100
AcDbLine
 10
234.022249
 20
277.563602
 11
234.022249
 21
271.790099
  0
LINE
  5
246
100
AcDbEntity
  8
M0
  6
CONTINUOUS
370
25
100
AcDbLine
 10
234.022249
 20
271.790099
 11
239.022249
 21
268.903348
  0
LINE
  5
247
100
AcDbEntity
  8
M0
  6
CONTINUOUS
370
25
100
AcDbLine
 10
239.022249
 20
268.903348
 11
244.022249
 21
271.790099
  0
LINE
  5
248
100
AcDbEntity
  8
M0
  6
CONTINUOUS
370
25
100
AcDbLine
 10
244.022249
 20
271.790099
 11
244.022249
 21
277.563602
  0
LINE
  5
249
100
AcDbEntity
  8
M0
  6
CONTINUOUS
370
25
100
AcDbLine
 10
244.022249
 20
277.563602
 11
239.022249
 21
280.450353
  0
LINE
  5
24A
100
AcDbEntity
  8
M0
  6
CONTINUOUS
370
25
100
AcDbLine
 10
234.022249
 20
337.063602
 11
234.022249
 21
331.290099
  0
LINE
  5
24B
100
AcDbEntity
  8
M0
  6
CONTINUOUS
370
25
100
AcDbLine
 10
234.022249
 20
331.290099
 11
239.022249
 21
328.403348
  0
LINE
  5
24C
100
AcDbEntity
  8
M0
  6
CONTINUOUS
370
25
100
AcDbLine
 10
239.022249
 20
328.403348
 11
244.022249
 21
331.290099
  0
LINE
  5
24D
100
AcDbEntity
  8
M0
  6
CONTINUOUS
370
25
100
AcDbLine
 10
244.022249
 20
331.290099
 11
244.022249
 21
337.063602
  0
LINE
  5
24E
100
AcDbEntity
  8
M0
  6
CONTINUOUS
370
25
100
AcDbLine
 10
244.022249
 20
337.063602
 11
239.022249
 21
339.950353
  0
LINE
  5
24F
100
AcDbEntity
  8
M0
  6
CONTINUOUS
370
25
100
AcDbLine
 10
239.022249
 20
339.950353
 11
234.022249
 21
337.063602
  0
LINE
  5
250
100
AcDbEntity
  8
M0
  6
CONTINUOUS
370
25
100
AcDbLine
 10
602.966457
 20
361.040099
 11
607.966457
 21
358.153348
  0
LINE
  5
251
100
AcDbEntity
  8
M0
  6
CONTINUOUS
370
25
100
AcDbLine
 10
607.966457
 20
358.153348
 11
612.966457
 21
361.040099
  0
LINE
  5
252
100
AcDbEntity
  8
M0
  6
CONTINUOUS
370
25
100
AcDbLine
 10
612.966457
 20
361.040099
 11
612.966457
 21
366.813602
  0
LINE
  5
253
100
AcDbEntity
  8
M0
  6
CONTINUOUS
370
25
100
AcDbLine
 10
612.966457
 20
366.813602
 11
607.966457
 21
369.700353
  0
LINE
  5
254
100
AcDbEntity
  8
M0
  6
CONTINUOUS
370
25
100
AcDbLine
 10
607.966457
 20
369.700353
 11
602.966457
 21
366.813602
  0
LINE
  5
255
100
AcDbEntity
  8
M0
  6
CONTINUOUS
370
25
100
AcDbLine
 10
602.966457
 20
366.813602
 11
602.966457
 21
361.040099
  0
LINE
  5
256
100
AcDbEntity
  8
M0
  6
CONTINUOUS
370
25
100
AcDbLine
 10
604.466457
 20
319.406125
 11
607.966457
 21
317.385399
  0
LINE
  5
257
100
AcDbEntity
  8
M0
  6
CONTINUOUS
370
25
100
AcDbLine
 10
607.966457
 20
317.385399
 11
611.466457
 21
319.406125
  0
LINE
  5
258
100
AcDbEntity
  8
M0
  6
CONTINUOUS
370
25
100
AcDbLine
 10
611.466457
 20
319.406125
 11
611.466457
 21
323.447577
  0
LINE
  5
259
100
AcDbEntity
  8
M0
  6
CONTINUOUS
370
25
100
AcDbLine
 10
611.466457
 20
323.447577
 11
607.966457
 21
325.468302
  0
LINE
  5
25A
100
AcDbEntity
  8
M0
  6
CONTINUOUS
370
25
100
AcDbLine
 10
607.966457
 20
325.468302
 11
604.466457
 21
323.447577
  0
LINE
  5
25B
100
AcDbEntity
  8
M0
  6
CONTINUOUS
370
25
100
AcDbLine
 10
604.466457
 20
323.447577
 11
604.466457
 21
319.406125
  0
LINE
  5
25C
100
AcDbEntity
  8
M0
  6
CONTINUOUS
370
25
100
AcDbLine
 10
556.437946
 20
328.403348
 11
561.437946
 21
331.290099
  0
LINE
  5
25D
100
AcDbEntity
  8
M0
  6
CONTINUOUS
370
25
100
AcDbLine
 10
561.437946
 20
331.290099
 11
561.437946
 21
337.063602
  0
LINE
  5
25E
100
AcDbEntity
  8
M0
  6
CONTINUOUS
370
25
100
AcDbLine
 10
561.437946
 20
337.063602
 11
556.437946
 21
339.950353
  0
LINE
  5
25F
100
AcDbEntity
  8
M0
  6
CONTINUOUS
370
25
100
AcDbLine
 10
556.437946
 20
339.950353
 11
551.437946
 21
337.063602
  0
LINE
  5
260
100
AcDbEntity
  8
M0
  6
CONTINUOUS
370
25
100
AcDbLine
 10
551.437946
 20
337.063602
 11
551.437946
 21
331.290099
  0
LINE
  5
261
100
AcDbEntity
  8
M0
  6
CONTINUOUS
370
25
100
AcDbLine
 10
551.437946
 20
331.290099
 11
556.437946
 21
328.403348
  0
LINE
  5
262
100
AcDbEntity
  8
M0
  6
CONTINUOUS
370
25
100
AcDbLine
 10
561.437946
 20
271.790099
 11
561.437946
 21
277.563602
  0
LINE
  5
263
100
AcDbEntity
  8
M0
  6
CONTINUOUS
370
25
100
AcDbLine
 10
561.437946
 20
277.563602
 11
556.437946
 21
280.450353
  0
LINE
  5
264
100
AcDbEntity
  8
M0
  6
CONTINUOUS
370
25
100
AcDbLine
 10
556.437946
 20
280.450353
 11
551.437946
 21
277.563602
  0
LINE
  5
265
100
AcDbEntity
  8
M0
  6
CONTINUOUS
370
25
100
AcDbLine
 10
551.437946
 20
277.563602
 11
551.437946
 21
271.790099
  0
LINE
  5
266
100
AcDbEntity
  8
M0
  6
CONTINUOUS
370
25
100
AcDbLine
 10
551.437946
 20
271.790099
 11
556.437946
 21
268.903348
  0
LINE
  5
267
100
AcDbEntity
  8
M0
  6
CONTINUOUS
370
25
100
AcDbLine
 10
556.437946
 20
268.903348
 11
561.437946
 21
271.790099
  0
LINE
  5
268
100
AcDbEntity
  8
M0
  6
CONTINUOUS
370
25
100
AcDbLine
 10
612.966457
 20
247.813602
 11
607.966457
 21
250.700353
  0
LINE
  5
269
100
AcDbEntity
  8
M0
  6
CONTINUOUS
370
25
100
AcDbLine
 10
607.966457
 20
250.700353
 11
602.966457
 21
247.813602
  0
LINE
  5
26A
100
AcDbEntity
  8
M0
  6
CONTINUOUS
370
25
100
AcDbLine
 10
602.966457
 20
247.813602
 11
602.966457
 21
242.040099
  0
LINE
  5
26B
100
AcDbEntity
  8
M0
  6
CONTINUOUS
370
25
100
AcDbLine
 10
602.966457
 20
242.040099
 11
607.966457
 21
239.153348
  0
LINE
  5
26C
100
AcDbEntity
  8
M0
  6
CONTINUOUS
370
25
100
AcDbLine
 10
607.966457
 20
239.153348
 11
612.966457
 21
242.040099
  0
LINE
  5
26D
100
AcDbEntity
  8
M0
  6
CONTINUOUS
370
25
100
AcDbLine
 10
612.966457
 20
242.040099
 11
612.966457
 21
247.813602
  0
LINE
  5
26E
100
AcDbEntity
  8
M0
  6
CONTINUOUS
370
25
100
AcDbLine
 10
659.494969
 20
280.450353
 11
654.494969
 21
277.563602
  0
LINE
  5
26F
100
AcDbEntity
  8
M0
  6
CONTINUOUS
370
25
100
AcDbLine
 10
654.494969
 20
277.563602
 11
654.494969
 21
271.790099
  0
LINE
  5
270
100
AcDbEntity
  8
M0
  6
CONTINUOUS
370
25
100
AcDbLine
 10
654.494969
 20
271.790099
 11
659.494969
 21
268.903348
  0
LINE
  5
271
100
AcDbEntity
  8
M0
  6
CONTINUOUS
370
25
100
AcDbLine
 10
659.494969
 20
268.903348
 11
664.494969
 21
271.790099
  0
LINE
  5
272
100
AcDbEntity
  8
M0
  6
CONTINUOUS
370
25
100
AcDbLine
 10
664.494969
 20
271.790099
 11
664.494969
 21
277.563602
  0
LINE
  5
273
100
AcDbEntity
  8
M0
  6
CONTINUOUS
370
25
100
AcDbLine
 10
664.494969
 20
277.563602
 11
659.494969
 21
280.450353
  0
LINE
  5
274
100
AcDbEntity
  8
M0
  6
CONTINUOUS
370
25
100
AcDbLine
 10
654.494969
 20
337.063602
 11
654.494969
 21
331.290099
  0
LINE
  5
275
100
AcDbEntity
  8
M0
  6
CONTINUOUS
370
25
100
AcDbLine
 10
654.494969
 20
331.290099
 11
659.494969
 21
328.403348
  0
LINE
  5
276
100
AcDbEntity
  8
M0
  6
CONTINUOUS
370
25
100
AcDbLine
 10
659.494969
 20
328.403348
 11
664.494969
 21
331.290099
  0
LINE
  5
277
100
AcDbEntity
  8
M0
  6
CONTINUOUS
370
25
100
AcDbLine
 10
664.494969
 20
331.290099
 11
664.494969
 21
337.063602
  0
LINE
  5
278
100
AcDbEntity
  8
M0
  6
CONTINUOUS
370
25
100
AcDbLine
 10
664.494969
 20
337.063602
 11
659.494969
 21
339.950353
  0
LINE
  5
279
100
AcDbEntity
  8
M0
  6
CONTINUOUS
370
25
100
AcDbLine
 10
659.494969
 20
339.950353
 11
654.494969
 21
337.063602
  0
LINE
  5
27A
100
AcDbEntity
  8
M0
  6
CONTINUOUS
370
25
100
AcDbLine
 10
593.244025
 20
308.885399
 11
596.744025
 21
310.906125
  0
LINE
  5
27B
100
AcDbEntity
  8
M0
  6
CONTINUOUS
370
25
100
AcDbLine
 10
596.744025
 20
310.906125
 11
596.744025
 21
314.947577
  0
LINE
  5
27C
100
AcDbEntity
  8
M0
  6
CONTINUOUS
370
25
100
AcDbLine
 10
596.744025
 20
314.947577
 11
593.244025
 21
316.968302
  0
LINE
  5
27D
100
AcDbEntity
  8
M0
  6
CONTINUOUS
370
25
100
AcDbLine
 10
593.244025
 20
316.968302
 11
589.744025
 21
314.947577
  0
LINE
  5
27E
100
AcDbEntity
  8
M0
  6
CONTINUOUS
370
25
100
AcDbLine
 10
589.744025
 20
314.947577
 11
589.744025
 21
310.906125
  0
LINE
  5
27F
100
AcDbEntity
  8
M0
  6
CONTINUOUS
370
25
100
AcDbLine
 10
589.744025
 20
310.906125
 11
593.244025
 21
308.885399
  0
LINE
  5
280
100
AcDbEntity
  8
M0
  6
CONTINUOUS
370
25
100
AcDbLine
 10
596.744025
 20
293.906125
 11
596.744025
 21
297.947577
  0
LINE
  5
281
100
AcDbEntity
  8
M0
  6
CONTINUOUS
370
25
100
AcDbLine
 10
596.744025
 20
297.947577
 11
593.244025
 21
299.968302
  0
LINE
  5
282
100
AcDbEntity
  8
M0
  6
CONTINUOUS
370
25
100
AcDbLine
 10
593.244025
 20
299.968302
 11
589.744025
 21
297.947577
  0
LINE
  5
283
100
AcDbEntity
  8
M0
  6
CONTINUOUS
370
25
100
AcDbLine
 10
589.744025
 20
297.947577
 11
589.744025
 21
293.906125
  0
LINE
  5
284
100
AcDbEntity
  8
M0
  6
CONTINUOUS
370
25
100
AcDbLine
 10
589.744025
 20
293.906125
 11
593.244025
 21
291.885399
  0
LINE
  5
285
100
AcDbEntity
  8
M0
  6
CONTINUOUS
370
25
100
AcDbLine
 10
593.244025
 20
291.885399
 11
596.744025
 21
293.906125
  0
LINE
  5
286
100
AcDbEntity
  8
M0
  6
CONTINUOUS
370
25
100
AcDbLine
 10
611.466457
 20
289.447577
 11
607.966457
 21
291.468302
  0
LINE
  5
287
100
AcDbEntity
  8
M0
  6
CONTINUOUS
370
25
100
AcDbLine
 10
607.966457
 20
291.468302
 11
604.466457
 21
289.447577
  0
LINE
  5
288
100
AcDbEntity
  8
M0
  6
CONTINUOUS
370
25
100
AcDbLine
 10
604.466457
 20
289.447577
 11
604.466457
 21
285.406125
  0
LINE
  5
289
100
AcDbEntity
  8
M0
  6
CONTINUOUS
370
25
100
AcDbLine
 10
604.466457
 20
285.406125
 11
607.966457
 21
283.385399
  0
LINE
  5
28A
100
AcDbEntity
  8
M0
  6
CONTINUOUS
370
25
100
AcDbLine
 10
607.966457
 20
283.385399
 11
611.466457
 21
285.406125
  0
LINE
  5
28B
100
AcDbEntity
  8
M0
  6
CONTINUOUS
370
25
100
AcDbLine
 10
611.466457
 20
285.406125
 11
611.466457
 21
289.447577
  0
LINE
  5
28C
100
AcDbEntity
  8
M0
  6
CONTINUOUS
370
25
100
AcDbLine
 10
622.688889
 20
299.968302
 11
619.188889
 21
297.947577
  0
LINE
  5
28D
100
AcDbEntity
  8
M0
  6
CONTINUOUS
370
25
100
AcDbLine
 10
619.188889
 20
297.947577
 11
619.188889
 21
293.906125
  0
LINE
  5
28E
100
AcDbEntity
  8
M0
  6
CONTINUOUS
370
25
100
AcDbLine
 10
619.188889
 20
293.906125
 11
622.688889
 21
291.885399
  0
LINE
  5
28F
100
AcDbEntity
  8
M0
  6
CONTINUOUS
370
25
100
AcDbLine
 10
622.688889
 20
291.885399
 11
626.188889
 21
293.906125
  0
LINE
  5
290
100
AcDbEntity
  8
M0
  6
CONTINUOUS
370
25
100
AcDbLine
 10
626.188889
 20
293.906125
 11
626.188889
 21
297.947577
  0
LINE
  5
291
100
AcDbEntity
  8
M0
  6
CONTINUOUS
370
25
100
AcDbLine
 10
626.188889
 20
297.947577
 11
622.688889
 21
299.968302
  0
LINE
  5
292
100
AcDbEntity
  8
M0
  6
CONTINUOUS
370
25
100
AcDbLine
 10
619.188889
 20
314.947577
 11
619.188889
 21
310.906125
  0
LINE
  5
293
100
AcDbEntity
  8
M0
  6
CONTINUOUS
370
25
100
AcDbLine
 10
619.188889
 20
310.906125
 11
622.688889
 21
308.885399
  0
LINE
  5
294
100
AcDbEntity
  8
M0
  6
CONTINUOUS
370
25
100
AcDbLine
 10
622.688889
 20
308.885399
 11
626.188889
 21
310.906125
  0
LINE
  5
295
100
AcDbEntity
  8
M0
  6
CONTINUOUS
370
25
100
AcDbLine
 10
626.188889
 20
310.906125
 11
626.188889
 21
314.947577
  0
LINE
  5
296
100
AcDbEntity
  8
M0
  6
CONTINUOUS
370
25
100
AcDbLine
 10
626.188889
 20
314.947577
 11
622.688889
 21
316.968302
  0
LINE
  5
297
100
AcDbEntity
  8
M0
  6
CONTINUOUS
370
25
100
AcDbLine
 10
622.688889
 20
316.968302
 11
619.188889
 21
314.947577
  0
LINE
  5
298
100
AcDbEntity
  8
M0
  6
CONTINUOUS
370
25
100
AcDbLine
 10
443.775413
 20
247.926851
 11
447.403834
 21
247.926851
  0
LINE
  5
299
100
AcDbEntity
  8
M0
  6
CONTINUOUS
370
25
100
AcDbLine
 10
447.403834
 20
241.926851
 11
443.775413
 21
241.926851
  0
LINE
  5
29A
100
AcDbEntity
  8
M0
  6
CONTINUOUS
370
25
100
AcDbLine
 10
443.775413
 20
244.926851
 11
443.775413
 21
239.153348
  0
LINE
  5
29B
100
AcDbEntity
  8
M0
  6
CONTINUOUS
370
25
100
AcDbLine
 10
443.775413
 20
239.153348
 11
447.403834
 21
239.153348
  0
LINE
  5
29C
100
AcDbEntity
  8
M0
  6
CONTINUOUS
370
25
100
AcDbLine
 10
239.012737
 20
393.659851
 11
222.366737
 21
364.828851
  0
LINE
  5
29D
100
AcDbEntity
  8
M0
  6
CONTINUOUS
370
25
100
AcDbLine
 10
240.924737
 20
392.971851
 11
237.101737
 21
394.348851
  0
LINE
  5
29E
100
AcDbEntity
  8
M0
  6
CONTINUOUS
370
25
100
AcDbLine
 10
242.394737
 20
395.516851
 11
238.471737
 21
396.721851
  0
LINE
  5
29F
100
AcDbEntity
  8
M0
  6
CONTINUOUS
370
25
100
AcDbLine
 10
238.471737
 20
396.721851
 11
241.527737
 21
402.014851
  0
LINE
  5
2A0
100
AcDbEntity
  8
M0
  6
CONTINUOUS
370
25
100
AcDbLine
 10
242.394737
 20
395.516851
 11
244.991737
 21
400.014851
  0
LINE
  5
2A1
100
AcDbEntity
  8
M0
  6
CONTINUOUS
370
25
100
AcDbLine
 10
243.259737
 20
401.014851
 11
240.432737
 21
396.119851
  0
LINE
  5
2A2
100
AcDbEntity
  8
M0
  6
CONTINUOUS
370
25
100
AcDbLine
 10
251.919737
 20
405.014851
 11
256.919737
 21
405.014851
  0
LINE
  5
2A3
100
AcDbEntity
  8
M0
  6
CONTINUOUS
370
25
100
AcDbLine
 10
242.393737
 20
410.514851
 11
239.893737
 21
414.844851
  0
LINE
  5
2A4
100
AcDbEntity
  8
M0
  6
CONTINUOUS
370
25
100
AcDbLine
 10
251.919737
 20
406.014851
 11
251.919737
 21
404.014851
  0
LINE
  5
2A5
100
AcDbEntity
  8
M0
  6
CONTINUOUS
370
25
100
AcDbLine
 10
243.259737
 20
411.014851
 11
241.527737
 21
410.014851
  0
ARC
  5
2A6
100
AcDbEntity
  8
M0
  6
CONTINUOUS
370
25
100
AcDbCircle
 10
234.599737
 20
406.014851
 40
7.999824
100
AcDbArc
 50
329.999272
 51
390.000728
  0
ARC
  5
2A7
100
AcDbEntity
  8
M0
  6
CONTINUOUS
370
25
100
AcDbCircle
 10
251.919737
 20
396.014851
 40
8.0
100
AcDbArc
 50
90.0
 51
149.999272
  0
ARC
  5
2A8
100
AcDbEntity
  8
M0
  6
CONTINUOUS
370
25
100
AcDbCircle
 10
234.599737
 20
406.014851
 40
9.99978
100
AcDbArc
 50
329.999272
 51
390.000728
  0
ARC
  5
2A9
100
AcDbEntity
  8
M0
  6
CONTINUOUS
370
25
100
AcDbCircle
 10
251.919737
 20
396.014851
 40
10.0
100
AcDbArc
 50
90.0
 51
149.999272
  0
LINE
  5
2AA
100
AcDbEntity
  8
M0
  6
CONTINUOUS
370
25
100
AcDbLine
 10
224.119737
 20
363.864851
 11
240.924737
 21
392.971851
  0
LINE
  5
2AB
100
AcDbEntity
  8
M0
  6
CONTINUOUS
370
25
100
AcDbLine
 10
220.622737
 20
365.808851
 11
237.101737
 21
394.348851
  0
ARC
  5
2AC
100
AcDbEntity
  8
M0
  6
CONTINUOUS
370
25
100
AcDbCircle
 10
223.253737
 20
364.364851
 40
0.99985
100
AcDbArc
 50
151.179164
 51
331.179164
  0
ARC
  5
2AD
100
AcDbEntity
  8
M0
  6
CONTINUOUS
370
25
100
AcDbCircle
 10
221.500737
 20
365.328851
 40
1.000332
100
AcDbArc
 50
151.128982
 51
331.179164
  0
ARC
  5
2AE
100
AcDbEntity
  8
M0
  6
CONTINUOUS
370
25
100
AcDbCircle
 10
222.993737
 20
365.914851
 40
4.0
100
AcDbArc
 50
90.0
 51
390.000728
  0
LINE
  5
2AF
100
AcDbEntity
  8
M0
  6
CONTINUOUS
370
25
100
AcDbLine
 10
556.446457
 20
393.659851
 11
569.965457
 21
370.244851
  0
LINE
  5
2B0
100
AcDbEntity
  8
M0
  6
CONTINUOUS
370
25
100
AcDbLine
 10
554.535457
 20
392.971851
 11
558.358457
 21
394.348851
  0
LINE
  5
2B1
100
AcDbEntity
  8
M0
  6
CONTINUOUS
370
25
100
AcDbLine
 10
553.065457
 20
395.516851
 11
556.988457
 21
396.722851
  0
LINE
  5
2B2
100
AcDbEntity
  8
M0
  6
CONTINUOUS
370
25
100
AcDbLine
 10
556.988457
 20
396.722851
 11
553.932457
 21
402.014851
  0
LINE
  5
2B3
100
AcDbEntity
  8
M0
  6
CONTINUOUS
370
25
100
AcDbLine
 10
553.065457
 20
395.516851
 11
550.468457
 21
400.014851
  0
LINE
  5
2B4
100
AcDbEntity
  8
M0
  6
CONTINUOUS
370
25
100
AcDbLine
 10
552.200187
 20
401.015319
 11
555.026457
 21
396.119851
  0
LINE
  5
2B5
100
AcDbEntity
  8
M0
  6
CONTINUOUS
370
25
100
AcDbLine
 10
543.540457
 20
405.014851
 11
538.540457
 21
405.014851
  0
LINE
  5
2B6
100
AcDbEntity
  8
M0
  6
CONTINUOUS
370
25
100
AcDbLine
 10
553.066457
 20
410.514851
 11
555.566457
 21
414.844851
  0
LINE
  5
2B7
100
AcDbEntity
  8
M0
  6
CONTINUOUS
370
25
100
AcDbLine
 10
543.540457
 20
406.014851
 11
543.540457
 21
404.014851
  0
LINE
  5
2B8
100
AcDbEntity
  8
M0
  6
CONTINUOUS
370
25
100
AcDbLine
 10
552.200457
 20
411.014851
 11
553.932457
 21
410.014851
  0
ARC
  5
2B9
100
AcDbEntity
  8
M0
  6
CONTINUOUS
370
25
100
AcDbCircle
 10
560.860457
 20
406.014851
 40
7.999824
100
AcDbArc
 50
149.999272
 51
210.000728
  0
ARC
  5
2BA
100
AcDbEntity
  8
M0
  6
CONTINUOUS
370
25
100
AcDbCircle
 10
543.540457
 20
396.015851
 40
7.999324
100
AcDbArc
 50
29.994525
 51
90.0
  0
ARC
  5
2BB
100
AcDbEntity
  8
M0
  6
CONTINUOUS
370
25
100
AcDbCircle
 10
560.860457
 20
406.014851
 40
9.99978
100
AcDbArc
 50
149.999272
 51
210.000728
  0
ARC
  5
2BC
100
AcDbEntity
  8
M0
  6
CONTINUOUS
370
25
100
AcDbCircle
 10
543.540457
 20
396.015851
 40
9.99928
100
AcDbArc
 50
29.995765
 51
90.0
  0
LINE
  5
2BD
100
AcDbEntity
  8
M0
  6
CONTINUOUS
370
25
100
AcDbLine
 10
568.246457
 20
369.221851
 11
554.535457
 21
392.971851
  0
LINE
  5
2BE
100
AcDbEntity
  8
M0
  6
CONTINUOUS
370
25
100
AcDbLine
 10
571.711457
 20
371.221851
 11
558.358457
 21
394.348851
  0
ENDSEC
  0
SECTION
  2
OBJECTS
  0
DICTIONARY
  5
C
100
AcDbDictionary
  3
ACAD_GROUP
350
D
  3
ACAD_MLINESTYLE
350
E
  0
DICTIONARY
  5
D
102
{ACAD_REACTORS
330
C
102
}
100
AcDbDictionary
  0
DICTIONARY
  5
E
102
{ACAD_REACTORS
330
C
102
}
100
AcDbDictionary
  3
STANDARD
350
13
  0
MLINESTYLE
  5
13
102
{ACAD_REACTORS
330
E
102
}
100
AcDbMlineStyle
  2
STANDARD
 70
     0
  3

 62
     0
 51
90.0
 52
90.0
 71
     2
 49
0.5
 62
   256
  6
BYLAYER
 49
-0.5
 62
   256
  6
BYLAYER
  0
ENDSEC
  0
EOF
