  0
SECTION
  2
HEADER
  9
$ACADVER
  1
AC1015
  9
$INSBASE
 10
0.0
 20
0.0
  9
$VIEWCTR
 10
7.531722
 20
4.5
  9
$VIEWSIZE
 40
9.0
  9
$SNAPMODE
 70
     0
  9
$SNAPUNIT
 10
1.0
 20
1.0
  9
$SNAPBASE
 10
0.0
 20
0.0
  9
$SNAPANG
 50
0.0
  9
$SNAPSTYLE
 70
     0
  9
$SNAPISOPAIR
 70
     0
  9
$GRIDMODE
 70
     0
  9
$GRIDUNIT
 10
0.0
 20
0.0
  9
$ORTHOMODE
 70
     0
  9
$REGENMODE
 70
     1
  9
$FILLMODE
 70
     1
  9
$QTEXTMODE
 70
     0
  9
$DRAGMODE
 70
     2
  9
$LTSCALE
 40
1.0
  9
$OSMODE
 70
     0
  9
$ATTMODE
 70
     1
  9
$TEXTSIZE
 40
0.2
  9
$TRACEWID
 40
0.05
  9
$TEXTSTYLE
  7
STANDARD
  9
$CELTYPE
  6
BYLAYER
  9
$CECOLOR
 62
   256
  9
$DIMSCALE
 40
1.0
  9
$DIMASZ
 40
0.18
  9
$DIMEXO
 40
0.0625
  9
$DIMDLI
 40
0.38
  9
$DIMRND
 40
0.0
  9
$DIMDLE
 40
0.0
  9
$DIMEXE
 40
0.18
  9
$DIMTP
 40
0.0
  9
$DIMTM
 40
0.0
  9
$DIMTXT
 40
0.18
  9
$DIMCEN
 40
0.09
  9
$DIMTSZ
 40
0.0
  9
$DIMADEC
 70
     0
  9
$DIMALTRND
 40
0.000000
  9
$DIMAZIN
 70
     0
  9
$DIMDSEP
 70
    46
  9
$DIMATFIT
 70
     3
  9
$DIMFRAC
 70
     0
  9
$DIMLDRBLK
  1

  9
$DIMLUNIT
 70
     2
  9
$DIMLWD
 70
   13
  9
$DIMLWE
 70
   13
  9
$DIMTMOVE
 70
     0
  9
$CELWEIGHT
370
    25
  9
$LWDISPLAY
290
    1
  9
$EXTNAMES
290
    1
  9
$DIMTOL
 70
     0
  9
$DIMLIM
 70
     0
  9
$DIMTIH
 70
     1
  9
$DIMTOH
 70
     1
  9
$DIMSE1
 70
     0
  9
$DIMSE2
 70
     0
  9
$DIMTAD
 70
     0
  9
$DIMZIN
 70
     0
  9
$DIMBLK
  1

  9
$LUNITS
 70
     2
  9
$LUPREC
 70
     4
  9
$AXISMODE
 70
     0
  9
$AXISUNIT
 10
0.0
 20
0.0
  9
$SKETCHINC
 40
0.1
  9
$FILLETRAD
 40
0.0
  9
$AUNITS
 70
     0
  9
$AUPREC
 70
     0
  9
$MENU
  1
ACAD
  9
$ELEVATION
 40
0.0
  9
$THICKNESS
 40
0.0
  9
$VIEWDIR
 10
0.0
 20
0.0
 30
1.0
  9
$LIMCHECK
 70
     0
  9
$BLIPMODE
 70
     1
  9
$CHAMFERA
 40
0.0
  9
$CHAMFERB
 40
0.0
  9
$FASTZOOM
 70
     1
  9
$SKPOLY
 70
     0
  9
$TDCREATE
 40
0000000.0000000000
  9
$TDUPDATE
 40
0000000.0000000000
  9
$TDINDWG
 40
0.0000000000
  9
$TDUSRTIMER
 40
0.0000000000
  9
$USRTIMER
 70
     1
  9
$ANGBASE
 50
0.0
  9
$ANGDIR
 70
     0
  9
$PDMODE
 70
     0
  9
$PDSIZE
 40
0.0
  9
$PLINEWID
 40
0.0
  9
$COORDS
 70
     0
  9
$USERI1
 70
     0
  9
$USERI2
 70
     0
  9
$USERI3
 70
     0
  9
$USERI4
 70
     0
  9
$USERI5
 70
     0
  9
$USERR1
 40
0.0
  9
$USERR2
 40
0.0
  9
$USERR3
 40
0.0
  9
$USERR4
 40
0.0
  9
$USERR5
 40
0.0
  9
$CLAYER
  8
M1
  9
$EXTMIN
 10
0.0
 20
0.0
  9
$EXTMAX
 10
841.0
 20
594.0
  9
$LIMMIN
 10
0.0
 20
0.0
  9
$LIMMAX
 10
841.0
 20
594.0
  9
$HANDSEED
  5
2FB
  0
ENDSEC
  0
SECTION
  2
CLASSES
  0
ENDSEC
  0
SECTION
  2
TABLES
  0
TABLE
  2
VPORT
  5
8
100
AcDbSymbolTable
 70
     2
  0
VPORT
  5
14
100
AcDbSymbolTableRecord
100
AcDbViewportTableRecord
  2
*ACTIVE
 70
     0
 10
0.0
 20
0.0
 11
1.0
 21
1.0
 12
484.0
 22
297.0
 13
0.0
 23
0.0
 14
1.0
 24
1.0
 15
0.0
 25
0.0
 16
0.0
 26
0.0
 36
1.0
 17
0.0
 27
0.0
 37
0.0
 40
594.0
 41
2.0
 42
50.0
 43
0.0
 44
0.0
 50
0.0
 51
0.0
 71
     0
 72
   100
 73
     1
 74
     1
 75
     0
 76
     0
 77
     0
 78
     0
  0
ENDTAB
  0
TABLE
  2
LTYPE
  5
5
100
AcDbSymbolTable
 70
     5
  0
LTYPE
  5
15
100
AcDbSymbolTableRecord
100
AcDbLinetypeTableRecord
  2
BYBLOCK
 70
     0
  3

 72
    65
 73
     0
 40
0.0
  0
LTYPE
  5
16
100
AcDbSymbolTableRecord
100
AcDbLinetypeTableRecord
  2
BYLAYER
 70
     0
  3

 72
    65
 73
     0
 40
0.0
  0
LTYPE
  5
17
100
AcDbSymbolTableRecord
100
AcDbLinetypeTableRecord
  2
CONTINUOUS
 70
    64
  3
Solid line
 72
    65
 73
     0
 40
0.0
  0
LTYPE
  5
18
100
AcDbSymbolTableRecord
100
AcDbLinetypeTableRecord
  2
DASHED
 70
    64
  3
__ __ __ __ __ __ __ __ __ __ __ __ __ __ __ __
 72
    65
 73
     2
 40
0.75
 49
0.5
 74
     0
 49
-0.25
 74
     0
  0
LTYPE
  5
19
100
AcDbSymbolTableRecord
100
AcDbLinetypeTableRecord
  2
DASHDOT
 70
    64
  3
__ . __ . __ . __ . __ . __ . __ . __ . __ . __
 72
    65
 73
     4
 40
1.0
 49
0.5
 74
     0
 49
-0.25
 74
     0
 49
0.0
 74
     0
 49
-0.25
 74
     0
  0
LTYPE
  5
1A
100
AcDbSymbolTableRecord
100
AcDbLinetypeTableRecord
  2
DIVIDE
 70
    64
  3
____ . . ____ . . ____ . . ____ . . ____ . . __
 72
    65
 73
     6
 40
1.25
 49
0.5
 74
     0
 49
-0.25
 74
     0
 49
0.0
 74
     0
 49
-0.25
 74
     0
 49
0.0
 74
     0
 49
-0.25
 74
     0
  0
LTYPE
  5
1B
100
AcDbSymbolTableRecord
100
AcDbLinetypeTableRecord
  2
DOT
 70
    64
  3
. . . . . . . . . . . . . . . . . . . . . . . .
 72
    65
 73
     2
 40
0.25
 49
0.0
 74
     0
 49
-0.25
 74
     0
  0
ENDTAB
  0
TABLE
  2
LAYER
  5
2
100
AcDbSymbolTable
 70
   102
  0
LAYER
  5
F
100
AcDbSymbolTableRecord
100
AcDbLayerTableRecord
  2
0
 70
     0
 62
     7
  6
CONTINUOUS
370
     -3
390
F
  0
LAYER
  5
1C
100
AcDbSymbolTableRecord
100
AcDbLayerTableRecord
  2
M1
 70
     0
 62
     7
  6
CONTINUOUS
370
     -3
390
F
  0
ENDTAB
  0
TABLE
  2
STYLE
  5
3
100
AcDbSymbolTable
 70
     2
  0
STYLE
  5
10
100
AcDbSymbolTableRecord
100
AcDbTextStyleTableRecord
  2
STANDARD
 70
     0
 40
0.0
 41
1.0
 50
0.0
 71
     0
 42
0.2
  3
txt
  4
BIGFONT
  0
ENDTAB
  0
TABLE
  2
VIEW
  5
6
100
AcDbSymbolTable
 70
     0
  0
ENDTAB
  0
TABLE
  2
UCS
  5
7
100
AcDbSymbolTable
 70
     0
  0
ENDTAB
  0
TABLE
  2
APPID
  5
9
100
AcDbSymbolTable
 70
     1
  0
APPID
  5
11
100
AcDbSymbolTableRecord
100
AcDbRegAppTableRecord
  2
ACAD
 70
     0
  0
ENDTAB
  0
TABLE
  2
DIMSTYLE
  5
A
100
AcDbSymbolTable
 70
     2
100
AcDbDimStyleTable
 71
     1
  0
DIMSTYLE
105
23
100
AcDbSymbolTableRecord
100
AcDbDimStyleTableRecord
  2
STANDARD
 70
     0
  3

  4

  5

  6
_OPEN
  7
_OPEN
 40
1.0
 41
3.0
 42
0.5
 43
8.0
 44
1.5
 45
0.0
 46
0.0
 47
0.0
 48
0.0
140
3.15
141
0.09
142
0.0
143
0.03937
144
1.0
145
0.0
146
1.0
147
1.0
148
0.000000
 71
     0
 72
     0
 73
     0
 74
     0
 75
     0
 76
     0
 77
     3
 78
     8
170
     0
171
     2
172
     0
173
     1
174
     0
175
     0
176
     0
177
     0
178
     0
270
     2
271
     2
272
     4
273
     2
274
     2
340
10
275
     0
278
    46
280
     0
281
     0
282
     0
283
     1
284
     0
285
     0
286
     0
287
     3
288
     0
371
   13
372
   13
  0
DIMSTYLE
105
24
100
AcDbSymbolTableRecord
100
AcDbDimStyleTableRecord
  2
LEADSTYL
 70
     0
  3

  4

  5

  6
_OPEN
  7
_OPEN
 40
1.0
 41
3.0
 42
0.0625
 43
0.38
 44
0.18
 45
0.0
 46
0.0
 47
0.0
 48
0.0
140
3.15
141
0.09
142
0.0
143
25.4
144
1.0
145
0.0
146
1.0
147
1.0
 71
     0
 72
     0
 73
     1
 74
     1
 75
     0
 76
     0
 77
     0
 78
     0
170
     0
171
     2
172
     0
173
     1
174
     0
175
     0
176
     0
177
     0
178
     0
270
     2
271
     4
272
     4
273
     2
274
     2
340
10
275
     0
280
     0
281
     0
282
     0
283
     1
284
     0
285
     0
286
     0
287
     3
288
     0
  0
ENDTAB
  0
TABLE
  2
BLOCK_RECORD
  5
1
100
AcDbSymbolTable
 70
     6
  0
BLOCK_RECORD
  5
1D
100
AcDbSymbolTableRecord
100
AcDbBlockTableRecord
  2
*MODEL_SPACE
  0
BLOCK_RECORD
  5
20
100
AcDbSymbolTableRecord
100
AcDbBlockTableRecord
  2
*PAPER_SPACE
  0
BLOCK_RECORD
  5
25
100
AcDbSymbolTableRecord
100
AcDbBlockTableRecord
  2
_NONE
  0
BLOCK_RECORD
  5
29
100
AcDbSymbolTableRecord
100
AcDbBlockTableRecord
  2
_OPEN
  0
BLOCK_RECORD
  5
2F
100
AcDbSymbolTableRecord
100
AcDbBlockTableRecord
  2
_CLOSED
  0
BLOCK_RECORD
  5
36
100
AcDbSymbolTableRecord
100
AcDbBlockTableRecord
  2
_ORIGIN
  0
BLOCK_RECORD
  5
3B
100
AcDbSymbolTableRecord
100
AcDbBlockTableRecord
  2
_DOT
  0
BLOCK_RECORD
  5
43
100
AcDbSymbolTableRecord
100
AcDbBlockTableRecord
  2
_OBLIQUE
  0
ENDTAB
  0
ENDSEC
  0
SECTION
  2
BLOCKS
  0
BLOCK
  5
1E
100
AcDbEntity
  8
0
100
AcDbBlockBegin
  2
*MODEL_SPACE
 70
     0
 10
0.0
 20
0.0
 30
0.0
  3
*MODEL_SPACE
  1

  0
ENDBLK
  5
1F
100
AcDbEntity
  8
0
100
AcDbBlockEnd
  0
BLOCK
  5
21
100
AcDbEntity
 67
     1
  8
0
100
AcDbBlockBegin
  2
*PAPER_SPACE
 70
     0
 10
0.0
 20
0.0
 30
0.0
  3
*PAPER_SPACE
  1

  0
ENDBLK
  5
22
100
AcDbEntity
 67
     1
  8
0
100
AcDbBlockEnd
  0
BLOCK
  5
26
100
AcDbEntity
  8
0
100
AcDbBlockBegin
  2
_NONE
 70
     0
 10
0.0
 20
0.0
  0
CIRCLE
  5
27
100
AcDbEntity
  8
0
 62
     0
370
13
100
AcDbCircle
 10
0.0
 20
0.0
 40
0.25
  0
ENDBLK
  5
28
100
AcDbEntity
  8
0
100
AcDbBlockEnd
  0
BLOCK
  5
2A
100
AcDbEntity
  8
0
100
AcDbBlockBegin
  2
_OPEN
 70
     0
 10
0.0
 20
0.0
  0
LINE
  5
2B
100
AcDbEntity
  8
0
 62
     0
370
13
100
AcDbLine
 10
-0.965926
 20
0.258819
 11
0.0
 21
0.0
  0
LINE
  5
2C
100
AcDbEntity
  8
0
 62
     0
370
13
100
AcDbLine
 10
0.0
 20
0.0
 11
-0.965926
 21
-0.258819
  0
LINE
  5
2D
100
AcDbEntity
  8
0
 62
     0
370
13
100
AcDbLine
 10
0.0
 20
0.0
 11
-1.0
 21
0.0
  0
ENDBLK
  5
2E
100
AcDbEntity
  8
0
100
AcDbBlockEnd
  0
BLOCK
  5
30
100
AcDbEntity
  8
0
100
AcDbBlockBegin
  2
_CLOSED
 70
     0
 10
0.0
 20
0.0
  0
LINE
  5
31
100
AcDbEntity
  8
0
 62
     0
370
13
100
AcDbLine
 10
-0.965926
 20
0.258819
 11
0.0
 21
0.0
  0
LINE
  5
32
100
AcDbEntity
  8
0
 62
     0
370
13
100
AcDbLine
 10
0.0
 20
0.0
 11
-0.965926
 21
-0.258819
  0
LINE
  5
33
100
AcDbEntity
  8
0
 62
     0
370
13
100
AcDbLine
 10
-0.965926
 20
0.258819
 11
-0.965926
 21
-0.258819
  0
LINE
  5
34
100
AcDbEntity
  8
0
 62
     0
370
13
100
AcDbLine
 10
0.0
 20
0.0
 11
-1.0
 21
0.0
  0
ENDBLK
  5
35
100
AcDbEntity
  8
0
100
AcDbBlockEnd
  0
BLOCK
  5
37
100
AcDbEntity
  8
0
100
AcDbBlockBegin
  2
_ORIGIN
 70
     0
 10
0.0
 20
0.0
  0
CIRCLE
  5
38
100
AcDbEntity
  8
0
 62
     0
370
13
100
AcDbCircle
 10
0.0
 20
0.0
 40
0.5
  0
LINE
  5
39
100
AcDbEntity
  8
0
 62
     0
370
13
100
AcDbLine
 10
0.0
 20
0.0
 11
-1.0
 21
0.0
  0
ENDBLK
  5
3A
100
AcDbEntity
  8
0
100
AcDbBlockEnd
  0
BLOCK
  5
3C
100
AcDbEntity
  8
0
100
AcDbBlockBegin
  2
_DOT
 70
     0
 10
0.0
 20
0.0
  0
POLYLINE
  5
3D
100
AcDbEntity
  8
0
 62
     0
100
AcDb2dPolyline
 66
     1
 70
     1
 40
0.5
 41
0.5
  0
VERTEX
  5
3E
100
AcDbEntity
  8
0
 62
     0
100
AcDbVertex
100
AcDb2dVertex
 10
-0.25
 20
0.0
 42
1.0
  0
VERTEX
  5
3F
100
AcDbEntity
  8
0
 62
     0
100
AcDbVertex
100
AcDb2dVertex
 10
0.25
 20
0.0
 42
1.0
  0
SEQEND
  5
40
100
AcDbEntity
  8
0
 62
     0
  0
LINE
  5
41
100
AcDbEntity
  8
0
 62
     0
370
13
100
AcDbLine
 10
-0.5
 20
0.0
 11
-1.0
 21
0.0
  0
ENDBLK
  5
42
100
AcDbEntity
  8
0
100
AcDbBlockEnd
  0
BLOCK
  5
44
100
AcDbEntity
  8
0
100
AcDbBlockBegin
  2
_OBLIQUE
 70
     0
 10
0.0
 20
0.0
  0
LINE
  5
45
100
AcDbEntity
  8
0
 62
     0
370
13
100
AcDbLine
 10
-0.353553
 20
-0.353553
 11
0.353553
 21
0.353553
  0
ENDBLK
  5
46
100
AcDbEntity
  8
0
100
AcDbBlockEnd
  0
ENDSEC
  0
SECTION
  2
ENTITIES
  0
LINE
  5
47
100
AcDbEntity
  8
M1
  6
CONTINUOUS
370
25
100
AcDbLine
 10
412.378669
 20
309.073656
 11
415.378699
 21
312.073686
  0
LINE
  5
48
100
AcDbEntity
  8
M1
  6
CONTINUOUS
370
25
100
AcDbLine
 10
412.378944
 20
312.073503
 11
415.378944
 21
309.073503
  0
LINE
  5
49
100
AcDbEntity
  8
M1
  6
CONTINUOUS
370
25
100
AcDbLine
 10
415.627814
 20
317.073472
 11
419.827827
 21
323.073442
  0
LINE
  5
4A
100
AcDbEntity
  8
M1
  6
CONTINUOUS
370
25
100
AcDbLine
 10
415.627753
 20
323.073472
 11
419.827796
 21
317.073442
  0
LINE
  5
4B
100
AcDbEntity
  8
M1
  6
CONTINUOUS
370
25
100
AcDbLine
 10
454.625129
 20
290.074449
 11
440.459651
 21
290.074449
  0
LINE
  5
4C
100
AcDbEntity
  8
M1
  6
CONTINUOUS
370
25
100
AcDbLine
 10
329.976875
 20
290.074449
 11
329.976875
 21
325.074449
  0
LINE
  5
4D
100
AcDbEntity
  8
M1
  6
CONTINUOUS
370
25
100
AcDbLine
 10
329.977912
 20
325.074449
 11
334.977912
 21
325.074449
  0
LINE
  5
4E
100
AcDbEntity
  8
M1
  6
CONTINUOUS
370
25
100
AcDbLine
 10
417.576911
 20
309.074449
 11
417.576911
 21
290.074449
  0
LINE
  5
4F
100
AcDbEntity
  8
M1
  6
CONTINUOUS
370
25
100
AcDbLine
 10
334.977912
 20
321.574449
 11
334.977912
 21
325.074449
  0
LINE
  5
50
100
AcDbEntity
  8
M1
  6
CONTINUOUS
370
25
100
AcDbLine
 10
377.977912
 20
318.574449
 11
377.977912
 21
323.574449
  0
LINE
  5
51
100
AcDbEntity
  8
M1
  6
CONTINUOUS
370
25
100
AcDbLine
 10
390.227912
 20
309.774431
 11
390.227912
 21
320.074449
  0
LINE
  5
52
100
AcDbEntity
  8
M1
  6
CONTINUOUS
370
25
100
AcDbLine
 10
375.777839
 20
318.574449
 11
375.777839
 21
320.074449
  0
LINE
  5
53
100
AcDbEntity
  8
M1
  6
CONTINUOUS
370
25
100
AcDbLine
 10
393.727912
 20
308.574449
 11
393.727912
 21
309.774431
  0
LINE
  5
54
100
AcDbEntity
  8
M1
  6
CONTINUOUS
370
25
100
AcDbLine
 10
402.977912
 20
309.124437
 11
402.977912
 21
309.774431
  0
LINE
  5
55
100
AcDbEntity
  8
M1
  6
CONTINUOUS
370
25
100
AcDbLine
 10
399.727912
 20
308.574449
 11
399.727912
 21
309.774431
  0
LINE
  5
56
100
AcDbEntity
  8
M1
  6
CONTINUOUS
370
25
100
AcDbLine
 10
375.777839
 20
320.074449
 11
336.477912
 21
320.074449
  0
LINE
  5
57
100
AcDbEntity
  8
M1
  6
CONTINUOUS
370
25
100
AcDbLine
 10
377.977912
 20
318.574449
 11
375.777839
 21
318.574449
  0
LINE
  5
58
100
AcDbEntity
  8
M1
  6
CONTINUOUS
370
25
100
AcDbLine
 10
390.227912
 20
320.074449
 11
377.977912
 21
320.074449
  0
LINE
  5
59
100
AcDbEntity
  8
M1
  6
CONTINUOUS
370
25
100
AcDbLine
 10
393.727912
 20
309.774431
 11
390.227912
 21
309.774431
  0
LINE
  5
5A
100
AcDbEntity
  8
M1
  6
CONTINUOUS
370
25
100
AcDbLine
 10
399.727912
 20
308.574449
 11
393.727912
 21
308.574449
  0
LINE
  5
5B
100
AcDbEntity
  8
M1
  6
CONTINUOUS
370
25
100
AcDbLine
 10
402.977912
 20
309.774431
 11
399.727912
 21
309.774431
  0
LINE
  5
5C
100
AcDbEntity
  8
M1
  6
CONTINUOUS
370
25
100
AcDbLine
 10
406.977912
 20
309.124437
 11
402.977912
 21
309.124437
  0
LINE
  5
5D
100
AcDbEntity
  8
M1
  6
CONTINUOUS
370
25
100
AcDbLine
 10
417.576911
 20
309.074449
 11
406.977912
 21
309.074449
  0
LINE
  5
5E
100
AcDbEntity
  8
M1
  6
CONTINUOUS
370
25
100
AcDbLine
 10
417.576911
 20
302.574449
 11
329.977912
 21
302.574449
  0
LINE
  5
5F
100
AcDbEntity
  8
M1
  6
CONTINUOUS
370
25
100
AcDbLine
 10
417.576911
 20
305.574449
 11
329.977912
 21
305.574449
  0
LINE
  5
60
100
AcDbEntity
  8
M1
  6
CONTINUOUS
370
25
100
AcDbLine
 10
329.977912
 20
290.074449
 11
329.977912
 21
255.074449
  0
LINE
  5
61
100
AcDbEntity
  8
M1
  6
CONTINUOUS
370
25
100
AcDbLine
 10
329.977912
 20
255.074449
 11
334.977912
 21
255.074449
  0
LINE
  5
62
100
AcDbEntity
  8
M1
  6
CONTINUOUS
370
25
100
AcDbLine
 10
402.977912
 20
309.124437
 11
402.977912
 21
313.324449
  0
LINE
  5
63
100
AcDbEntity
  8
M1
  6
CONTINUOUS
370
25
100
AcDbLine
 10
404.977912
 20
315.324449
 11
406.977912
 21
315.324449
  0
LINE
  5
64
100
AcDbEntity
  8
M1
  6
CONTINUOUS
370
25
100
AcDbLine
 10
406.977912
 20
315.324449
 11
406.977912
 21
309.124437
  0
LINE
  5
65
100
AcDbEntity
  8
M1
  6
CONTINUOUS
370
25
100
AcDbLine
 10
406.977912
 20
309.124437
 11
402.977912
 21
309.124437
  0
LINE
  5
66
100
AcDbEntity
  8
M1
  6
CONTINUOUS
370
25
100
AcDbLine
 10
402.977912
 20
313.324388
 11
404.977912
 21
315.324388
  0
LINE
  5
67
100
AcDbEntity
  8
M1
  6
CONTINUOUS
370
25
100
AcDbLine
 10
377.977912
 20
323.574449
 11
375.777839
 21
323.574449
  0
LINE
  5
68
100
AcDbEntity
  8
M1
  6
CONTINUOUS
370
25
100
AcDbLine
 10
334.777839
 20
338.074449
 11
334.777839
 21
341.074449
  0
LINE
  5
69
100
AcDbEntity
  8
M1
  6
CONTINUOUS
370
25
100
AcDbLine
 10
371.777869
 20
371.073503
 11
378.777869
 21
371.07451
  0
LINE
  5
6A
100
AcDbEntity
  8
M1
  6
CONTINUOUS
370
25
100
AcDbLine
 10
378.777839
 20
371.074449
 11
378.777839
 21
367.074449
  0
LINE
  5
6B
100
AcDbEntity
  8
M1
  6
CONTINUOUS
370
25
100
AcDbLine
 10
378.777839
 20
367.074449
 11
377.277839
 21
367.074449
  0
LINE
  5
6C
100
AcDbEntity
  8
M1
  6
CONTINUOUS
370
25
100
AcDbLine
 10
377.277839
 20
354.074449
 11
373.777839
 21
354.074449
  0
LINE
  5
6D
100
AcDbEntity
  8
M1
  6
CONTINUOUS
370
25
100
AcDbLine
 10
338.777839
 20
341.074449
 11
334.777839
 21
341.074449
  0
LINE
  5
6E
100
AcDbEntity
  8
M1
  6
CONTINUOUS
370
25
100
AcDbLine
 10
375.777839
 20
342.574449
 11
374.777839
 21
342.574449
  0
LINE
  5
6F
100
AcDbEntity
  8
M1
  6
CONTINUOUS
370
25
100
AcDbLine
 10
375.277839
 20
337.574449
 11
359.277839
 21
337.574449
  0
LINE
  5
70
100
AcDbEntity
  8
M1
  6
CONTINUOUS
370
25
100
AcDbLine
 10
357.777839
 20
332.574449
 11
352.777839
 21
332.574449
  0
LINE
  5
71
100
AcDbEntity
  8
M1
  6
CONTINUOUS
370
25
100
AcDbLine
 10
377.277839
 20
367.074449
 11
377.277839
 21
354.074449
  0
LINE
  5
72
100
AcDbEntity
  8
M1
  6
CONTINUOUS
370
25
100
AcDbLine
 10
368.777839
 20
368.073442
 11
368.777839
 21
350.32744
  0
LINE
  5
73
100
AcDbEntity
  8
M1
  6
CONTINUOUS
370
25
100
AcDbLine
 10
373.777839
 20
354.074449
 11
373.777839
 21
343.574449
  0
LINE
  5
74
100
AcDbEntity
  8
M1
  6
CONTINUOUS
370
25
100
AcDbLine
 10
338.777839
 20
341.074449
 11
338.777839
 21
354.074449
  0
LINE
  5
75
100
AcDbEntity
  8
M1
  6
CONTINUOUS
370
25
100
AcDbLine
 10
357.777839
 20
336.074449
 11
357.777839
 21
332.574449
  0
LINE
  5
76
100
AcDbEntity
  8
M1
  6
CONTINUOUS
370
25
100
AcDbLine
 10
375.777839
 20
342.574449
 11
375.777839
 21
338.074449
  0
LINE
  5
77
100
AcDbEntity
  8
M1
  6
CONTINUOUS
370
25
100
AcDbLine
 10
363.570991
 20
344.379472
 11
338.777961
 21
341.074479
  0
LINE
  5
78
100
AcDbEntity
  8
M1
  6
CONTINUOUS
370
25
100
AcDbLine
 10
375.777991
 20
338.074418
 11
375.277961
 21
337.574388
  0
LINE
  5
79
100
AcDbEntity
  8
M1
  6
CONTINUOUS
370
25
100
AcDbLine
 10
334.777961
 20
338.074418
 11
335.277961
 21
337.574418
  0
LINE
  5
7A
100
AcDbEntity
  8
M1
  6
CONTINUOUS
370
25
100
AcDbLine
 10
351.277839
 20
337.574449
 11
335.277839
 21
337.574449
  0
LINE
  5
7B
100
AcDbEntity
  8
M1
  6
CONTINUOUS
370
25
100
AcDbLine
 10
365.777839
 20
354.074449
 11
338.777839
 21
354.074449
  0
LINE
  5
7C
100
AcDbEntity
  8
M1
  6
CONTINUOUS
370
25
100
AcDbLine
 10
371.777839
 20
209.074434
 11
378.777839
 21
209.074434
  0
LINE
  5
7D
100
AcDbEntity
  8
M1
  6
CONTINUOUS
370
25
100
AcDbLine
 10
368.777839
 20
212.074434
 11
368.777839
 21
290.074449
  0
LINE
  5
7E
100
AcDbEntity
  8
M1
  6
CONTINUOUS
370
25
100
AcDbLine
 10
365.777839
 20
226.074434
 11
338.777839
 21
226.074434
  0
LINE
  5
7F
100
AcDbEntity
  8
M1
  6
CONTINUOUS
370
25
100
AcDbLine
 10
338.777839
 20
239.074449
 11
338.777839
 21
226.074434
  0
LINE
  5
80
100
AcDbEntity
  8
M1
  6
CONTINUOUS
370
25
100
AcDbLine
 10
363.570899
 20
235.768434
 11
338.7779
 21
239.074434
  0
LINE
  5
81
100
AcDbEntity
  8
M1
  6
CONTINUOUS
370
25
100
AcDbLine
 10
334.777839
 20
290.074449
 11
334.777839
 21
239.074449
  0
LINE
  5
82
100
AcDbEntity
  8
M1
  6
CONTINUOUS
370
25
100
AcDbLine
 10
338.777839
 20
239.074449
 11
334.777839
 21
239.074449
  0
LINE
  5
83
100
AcDbEntity
  8
M1
  6
CONTINUOUS
370
25
100
AcDbLine
 10
368.777839
 20
368.673448
 11
368.777839
 21
356.473436
  0
LINE
  5
84
100
AcDbEntity
  8
M1
  6
CONTINUOUS
370
25
100
AcDbLine
 10
336.624885
 20
347.574449
 11
356.811897
 21
347.574449
  0
LINE
  5
85
100
AcDbEntity
  8
M1
  6
CONTINUOUS
370
25
100
AcDbLine
 10
359.777839
 20
320.074449
 11
373.777839
 21
320.074449
  0
LINE
  5
86
100
AcDbEntity
  8
M1
  6
CONTINUOUS
370
25
100
AcDbLine
 10
375.777839
 20
319.480424
 11
375.777839
 21
335.574449
  0
LINE
  5
87
100
AcDbEntity
  8
M1
  6
CONTINUOUS
370
25
100
AcDbLine
 10
373.777839
 20
337.574449
 11
359.777839
 21
337.574449
  0
LINE
  5
88
100
AcDbEntity
  8
M1
  6
CONTINUOUS
370
25
100
AcDbLine
 10
357.777839
 20
335.574418
 11
357.776832
 21
320.074418
  0
LINE
  5
89
100
AcDbEntity
  8
M1
  6
CONTINUOUS
370
25
100
AcDbLine
 10
357.777839
 20
325.907426
 11
361.725837
 21
325.907426
  0
LINE
  5
8A
100
AcDbEntity
  8
M1
  6
CONTINUOUS
370
25
100
AcDbLine
 10
375.777839
 20
331.740434
 11
371.829841
 21
331.740434
  0
LINE
  5
8B
100
AcDbEntity
  8
M1
  6
CONTINUOUS
370
25
100
AcDbLine
 10
374.193855
 20
322.990434
 11
374.193855
 21
334.657426
  0
LINE
  5
8C
100
AcDbEntity
  8
M1
  6
CONTINUOUS
370
25
100
AcDbLine
 10
359.360847
 20
334.657426
 11
359.360847
 21
322.990434
  0
LINE
  5
8D
100
AcDbEntity
  8
M1
  6
CONTINUOUS
370
25
100
AcDbLine
 10
361.725837
 20
331.740434
 11
357.777839
 21
331.740434
  0
LINE
  5
8E
100
AcDbEntity
  8
M1
  6
CONTINUOUS
370
25
100
AcDbLine
 10
371.828864
 20
325.907426
 11
375.777839
 21
325.907426
  0
LINE
  5
8F
100
AcDbEntity
  8
M1
  6
CONTINUOUS
370
25
100
AcDbLine
 10
350.977912
 20
320.074449
 11
336.977912
 21
320.074449
  0
LINE
  5
90
100
AcDbEntity
  8
M1
  6
CONTINUOUS
370
25
100
AcDbLine
 10
334.977912
 20
322.074449
 11
334.977912
 21
335.574449
  0
LINE
  5
91
100
AcDbEntity
  8
M1
  6
CONTINUOUS
370
25
100
AcDbLine
 10
336.977912
 20
337.574449
 11
350.977912
 21
337.574449
  0
LINE
  5
92
100
AcDbEntity
  8
M1
  6
CONTINUOUS
370
25
100
AcDbLine
 10
352.977912
 20
335.574449
 11
352.977912
 21
320.074449
  0
LINE
  5
93
100
AcDbEntity
  8
M1
  6
CONTINUOUS
370
25
100
AcDbLine
 10
352.977912
 20
325.907426
 11
349.029914
 21
325.907426
  0
LINE
  5
94
100
AcDbEntity
  8
M1
  6
CONTINUOUS
370
25
100
AcDbLine
 10
334.977912
 20
331.740434
 11
338.92591
 21
331.740434
  0
LINE
  5
95
100
AcDbEntity
  8
M1
  6
CONTINUOUS
370
25
100
AcDbLine
 10
336.56092
 20
322.990434
 11
336.56092
 21
334.657426
  0
LINE
  5
96
100
AcDbEntity
  8
M1
  6
CONTINUOUS
370
25
100
AcDbLine
 10
351.394904
 20
334.657426
 11
351.394904
 21
322.990434
  0
LINE
  5
97
100
AcDbEntity
  8
M1
  6
CONTINUOUS
370
25
100
AcDbLine
 10
349.029914
 20
331.740434
 11
352.977912
 21
331.740434
  0
LINE
  5
98
100
AcDbEntity
  8
M1
  6
CONTINUOUS
370
25
100
AcDbLine
 10
338.92591
 20
325.907426
 11
334.977912
 21
325.907426
  0
LINE
  5
99
100
AcDbEntity
  8
M1
  6
CONTINUOUS
370
25
100
AcDbLine
 10
427.277839
 20
317.074449
 11
427.277839
 21
324.074449
  0
LINE
  5
9A
100
AcDbEntity
  8
M1
  6
CONTINUOUS
370
25
100
AcDbLine
 10
430.277839
 20
371.073442
 11
438.277839
 21
371.073442
  0
LINE
  5
9B
100
AcDbEntity
  8
M1
  6
CONTINUOUS
370
25
100
AcDbLine
 10
431.777839
 20
367.073442
 11
430.277839
 21
367.073442
  0
LINE
  5
9C
100
AcDbEntity
  8
M1
  6
CONTINUOUS
370
25
100
AcDbLine
 10
434.68885
 20
354.074449
 11
431.777839
 21
354.074449
  0
LINE
  5
9D
100
AcDbEntity
  8
M1
  6
CONTINUOUS
370
25
100
AcDbLine
 10
429.277839
 20
317.074449
 11
427.277839
 21
317.074449
  0
LINE
  5
9E
100
AcDbEntity
  8
M1
  6
CONTINUOUS
370
25
100
AcDbLine
 10
436.277839
 20
307.074449
 11
429.277839
 21
307.074449
  0
LINE
  5
9F
100
AcDbEntity
  8
M1
  6
CONTINUOUS
370
25
100
AcDbLine
 10
431.777839
 20
367.073442
 11
431.777839
 21
354.074449
  0
LINE
  5
A0
100
AcDbEntity
  8
M1
  6
CONTINUOUS
370
25
100
AcDbLine
 10
443.904975
 20
332.861406
 11
440.277961
 21
355.074418
  0
LINE
  5
A1
100
AcDbEntity
  8
M1
  6
CONTINUOUS
370
25
100
AcDbLine
 10
436.662849
 20
352.39644
 11
438.846839
 21
339.020433
  0
LINE
  5
A2
100
AcDbEntity
  8
M1
  6
CONTINUOUS
370
25
100
AcDbLine
 10
436.147102
 20
331.648332
 11
427.278083
 21
324.074357
  0
LINE
  5
A3
100
AcDbEntity
  8
M1
  6
CONTINUOUS
370
25
100
AcDbLine
 10
429.277839
 20
317.074449
 11
429.277839
 21
307.074449
  0
LINE
  5
A4
100
AcDbEntity
  8
M1
  6
CONTINUOUS
370
25
100
AcDbLine
 10
436.277839
 20
324.074449
 11
436.277839
 21
290.074449
  0
LINE
  5
A5
100
AcDbEntity
  8
M1
  6
CONTINUOUS
370
25
100
AcDbLine
 10
442.479835
 20
329.112474
 11
436.277839
 21
324.07451
  0
LINE
  5
A6
100
AcDbEntity
  8
M1
  6
CONTINUOUS
370
25
100
AcDbLine
 10
436.277839
 20
353.287431
 11
436.277839
 21
331.760423
  0
LINE
  5
A7
100
AcDbEntity
  8
M1
  6
CONTINUOUS
370
25
100
AcDbLine
 10
440.277839
 20
355.074449
 11
440.277839
 21
369.073442
  0
LINE
  5
A8
100
AcDbEntity
  8
M1
  6
CONTINUOUS
370
25
100
AcDbLine
 10
430.277839
 20
371.073442
 11
430.277839
 21
367.073442
  0
LINE
  5
A9
100
AcDbEntity
  8
M1
  6
CONTINUOUS
370
25
100
AcDbLine
 10
440.277839
 20
290.074449
 11
440.277839
 21
211.074434
  0
LINE
  5
AA
100
AcDbEntity
  8
M1
  6
CONTINUOUS
370
25
100
AcDbLine
 10
443.904975
 20
247.286409
 11
440.277961
 21
225.074388
  0
LINE
  5
AB
100
AcDbEntity
  8
M1
  6
CONTINUOUS
370
25
100
AcDbLine
 10
429.777839
 20
209.074434
 11
438.277839
 21
209.074434
  0
LINE
  5
AC
100
AcDbEntity
  8
M1
  6
CONTINUOUS
370
25
100
AcDbLine
 10
438.568855
 20
307.474443
 11
436.275886
 21
307.474443
  0
LINE
  5
AD
100
AcDbEntity
  8
M1
  6
CONTINUOUS
370
25
100
AcDbLine
 10
436.275886
 20
316.674425
 11
438.672858
 21
316.674425
  0
LINE
  5
AE
100
AcDbEntity
  8
M1
  6
CONTINUOUS
370
25
100
AcDbLine
 10
438.075874
 20
316.674425
 11
438.075874
 21
307.474443
  0
LINE
  5
AF
100
AcDbEntity
  8
M1
  6
CONTINUOUS
370
25
100
AcDbLine
 10
441.608894
 20
307.45543
 11
438.575874
 21
307.45543
  0
LINE
  5
B0
100
AcDbEntity
  8
M1
  6
CONTINUOUS
370
25
100
AcDbLine
 10
438.575874
 20
316.69243
 11
441.608894
 21
316.69243
  0
LINE
  5
B1
100
AcDbEntity
  8
M1
  6
CONTINUOUS
370
25
100
AcDbLine
 10
441.608894
 20
309.574449
 11
438.075874
 21
309.574449
  0
LINE
  5
B2
100
AcDbEntity
  8
M1
  6
CONTINUOUS
370
25
100
AcDbLine
 10
438.075874
 20
314.574449
 11
441.608894
 21
314.574449
  0
LINE
  5
B3
100
AcDbEntity
  8
M1
  6
CONTINUOUS
370
25
100
AcDbLine
 10
440.278876
 20
356.473436
 11
440.278876
 21
368.673448
  0
LINE
  5
B4
100
AcDbEntity
  8
M1
  6
CONTINUOUS
370
25
100
AcDbLine
 10
443.904884
 20
247.286424
 11
443.904884
 21
248.049913
  0
LINE
  5
B5
100
AcDbEntity
  8
M1
  6
CONTINUOUS
370
25
100
AcDbLine
 10
366.777839
 20
223.67444
 11
368.777839
 21
223.67444
  0
LINE
  5
B6
100
AcDbEntity
  8
M1
  6
CONTINUOUS
370
25
100
AcDbLine
 10
368.777839
 20
211.474443
 11
366.777839
 21
211.474443
  0
LINE
  5
B7
100
AcDbEntity
  8
M1
  6
CONTINUOUS
370
25
100
AcDbLine
 10
366.777839
 20
211.474443
 11
366.777839
 21
223.67444
  0
LINE
  5
B8
100
AcDbEntity
  8
M1
  6
CONTINUOUS
370
25
100
AcDbLine
 10
362.81385
 20
223.348436
 11
366.777839
 21
223.348436
  0
LINE
  5
B9
100
AcDbEntity
  8
M1
  6
CONTINUOUS
370
25
100
AcDbLine
 10
366.777839
 20
223.348436
 11
366.777839
 21
211.801439
  0
LINE
  5
BA
100
AcDbEntity
  8
M1
  6
CONTINUOUS
370
25
100
AcDbLine
 10
366.777839
 20
211.801439
 11
362.814887
 21
211.801439
  0
LINE
  5
BB
100
AcDbEntity
  8
M1
  6
CONTINUOUS
370
25
100
AcDbLine
 10
362.277839
 20
213.188432
 11
362.277839
 21
221.961442
  0
LINE
  5
BC
100
AcDbEntity
  8
M1
  6
CONTINUOUS
370
25
100
AcDbLine
 10
362.81385
 20
220.574434
 11
366.777839
 21
220.574434
  0
LINE
  5
BD
100
AcDbEntity
  8
M1
  6
CONTINUOUS
370
25
100
AcDbLine
 10
366.777839
 20
214.574434
 11
362.814887
 21
214.574434
  0
LINE
  5
BE
100
AcDbEntity
  8
M1
  6
CONTINUOUS
370
25
100
AcDbLine
 10
366.777839
 20
259.924425
 11
368.777839
 21
259.924425
  0
LINE
  5
BF
100
AcDbEntity
  8
M1
  6
CONTINUOUS
370
25
100
AcDbLine
 10
368.777839
 20
247.724443
 11
366.777839
 21
247.724443
  0
LINE
  5
C0
100
AcDbEntity
  8
M1
  6
CONTINUOUS
370
25
100
AcDbLine
 10
366.777839
 20
247.724443
 11
366.777839
 21
259.924425
  0
LINE
  5
C1
100
AcDbEntity
  8
M1
  6
CONTINUOUS
370
25
100
AcDbLine
 10
362.81385
 20
259.597429
 11
366.777839
 21
259.597429
  0
LINE
  5
C2
100
AcDbEntity
  8
M1
  6
CONTINUOUS
370
25
100
AcDbLine
 10
366.777839
 20
259.597429
 11
366.777839
 21
248.050432
  0
LINE
  5
C3
100
AcDbEntity
  8
M1
  6
CONTINUOUS
370
25
100
AcDbLine
 10
366.777839
 20
248.050432
 11
362.814887
 21
248.050432
  0
LINE
  5
C4
100
AcDbEntity
  8
M1
  6
CONTINUOUS
370
25
100
AcDbLine
 10
362.277839
 20
249.437425
 11
362.277839
 21
258.210435
  0
LINE
  5
C5
100
AcDbEntity
  8
M1
  6
CONTINUOUS
370
25
100
AcDbLine
 10
362.81385
 20
256.823442
 11
366.777839
 21
256.823442
  0
LINE
  5
C6
100
AcDbEntity
  8
M1
  6
CONTINUOUS
370
25
100
AcDbLine
 10
366.777839
 20
250.824449
 11
362.814887
 21
250.824449
  0
LINE
  5
C7
100
AcDbEntity
  8
M1
  6
CONTINUOUS
370
25
100
AcDbLine
 10
442.278876
 20
247.723924
 11
440.278876
 21
247.723924
  0
LINE
  5
C8
100
AcDbEntity
  8
M1
  6
CONTINUOUS
370
25
100
AcDbLine
 10
440.278876
 20
259.923921
 11
442.278876
 21
259.923921
  0
LINE
  5
C9
100
AcDbEntity
  8
M1
  6
CONTINUOUS
370
25
100
AcDbLine
 10
442.278876
 20
259.923921
 11
442.278876
 21
247.723924
  0
LINE
  5
CA
100
AcDbEntity
  8
M1
  6
CONTINUOUS
370
25
100
AcDbLine
 10
446.242866
 20
248.049913
 11
442.278876
 21
248.049913
  0
LINE
  5
CB
100
AcDbEntity
  8
M1
  6
CONTINUOUS
370
25
100
AcDbLine
 10
442.278876
 20
248.049913
 11
442.278876
 21
259.596925
  0
LINE
  5
CC
100
AcDbEntity
  8
M1
  6
CONTINUOUS
370
25
100
AcDbLine
 10
442.278876
 20
259.596925
 11
446.242866
 21
259.596925
  0
LINE
  5
CD
100
AcDbEntity
  8
M1
  6
CONTINUOUS
370
25
100
AcDbLine
 10
446.778876
 20
258.210924
 11
446.778876
 21
249.436921
  0
LINE
  5
CE
100
AcDbEntity
  8
M1
  6
CONTINUOUS
370
25
100
AcDbLine
 10
446.242866
 20
250.823915
 11
442.278876
 21
250.823915
  0
LINE
  5
CF
100
AcDbEntity
  8
M1
  6
CONTINUOUS
370
25
100
AcDbLine
 10
442.278876
 20
256.823915
 11
446.242866
 21
256.823915
  0
LINE
  5
D0
100
AcDbEntity
  8
M1
  6
CONTINUOUS
370
25
100
AcDbLine
 10
442.278876
 20
356.473436
 11
440.278876
 21
356.473436
  0
LINE
  5
D1
100
AcDbEntity
  8
M1
  6
CONTINUOUS
370
25
100
AcDbLine
 10
440.278876
 20
368.673448
 11
442.278876
 21
368.673448
  0
LINE
  5
D2
100
AcDbEntity
  8
M1
  6
CONTINUOUS
370
25
100
AcDbLine
 10
442.278876
 20
368.673448
 11
442.278876
 21
356.473436
  0
LINE
  5
D3
100
AcDbEntity
  8
M1
  6
CONTINUOUS
370
25
100
AcDbLine
 10
446.242866
 20
356.799425
 11
442.278876
 21
356.799425
  0
LINE
  5
D4
100
AcDbEntity
  8
M1
  6
CONTINUOUS
370
25
100
AcDbLine
 10
442.278876
 20
356.799425
 11
442.278876
 21
368.346452
  0
LINE
  5
D5
100
AcDbEntity
  8
M1
  6
CONTINUOUS
370
25
100
AcDbLine
 10
442.278876
 20
368.346452
 11
446.242866
 21
368.346452
  0
LINE
  5
D6
100
AcDbEntity
  8
M1
  6
CONTINUOUS
370
25
100
AcDbLine
 10
446.778876
 20
366.960435
 11
446.778876
 21
358.186448
  0
LINE
  5
D7
100
AcDbEntity
  8
M1
  6
CONTINUOUS
370
25
100
AcDbLine
 10
446.242866
 20
359.573442
 11
442.278876
 21
359.573442
  0
LINE
  5
D8
100
AcDbEntity
  8
M1
  6
CONTINUOUS
370
25
100
AcDbLine
 10
442.278876
 20
365.573442
 11
446.242866
 21
365.573442
  0
LINE
  5
D9
100
AcDbEntity
  8
M1
  6
CONTINUOUS
370
25
100
AcDbLine
 10
366.777839
 20
368.673448
 11
368.777839
 21
368.673448
  0
LINE
  5
DA
100
AcDbEntity
  8
M1
  6
CONTINUOUS
370
25
100
AcDbLine
 10
368.777839
 20
356.473436
 11
366.777839
 21
356.473436
  0
LINE
  5
DB
100
AcDbEntity
  8
M1
  6
CONTINUOUS
370
25
100
AcDbLine
 10
366.777839
 20
356.473436
 11
366.777839
 21
368.673448
  0
LINE
  5
DC
100
AcDbEntity
  8
M1
  6
CONTINUOUS
370
25
100
AcDbLine
 10
362.81385
 20
368.346452
 11
366.777839
 21
368.346452
  0
LINE
  5
DD
100
AcDbEntity
  8
M1
  6
CONTINUOUS
370
25
100
AcDbLine
 10
366.777839
 20
368.346452
 11
366.777839
 21
356.800432
  0
LINE
  5
DE
100
AcDbEntity
  8
M1
  6
CONTINUOUS
370
25
100
AcDbLine
 10
366.777839
 20
356.800432
 11
362.814887
 21
356.800432
  0
LINE
  5
DF
100
AcDbEntity
  8
M1
  6
CONTINUOUS
370
25
100
AcDbLine
 10
362.277839
 20
358.186448
 11
362.277839
 21
366.960435
  0
LINE
  5
E0
100
AcDbEntity
  8
M1
  6
CONTINUOUS
370
25
100
AcDbLine
 10
362.81385
 20
365.573442
 11
366.777839
 21
365.573442
  0
LINE
  5
E1
100
AcDbEntity
  8
M1
  6
CONTINUOUS
370
25
100
AcDbLine
 10
366.777839
 20
359.573442
 11
362.814887
 21
359.573442
  0
LINE
  5
E2
100
AcDbEntity
  8
M1
  6
CONTINUOUS
370
25
100
AcDbLine
 10
442.075874
 20
315.633439
 11
442.075874
 21
308.514451
  0
LINE
  5
E3
100
AcDbEntity
  8
M1
  6
CONTINUOUS
370
25
100
AcDbLine
 10
357.776862
 20
324.892442
 11
352.977912
 21
324.892442
  0
LINE
  5
E4
100
AcDbEntity
  8
M1
  6
CONTINUOUS
370
25
100
AcDbLine
 10
366.7779
 20
362.323472
 11
368.7779
 21
364.323472
  0
LINE
  5
E5
100
AcDbEntity
  8
M1
  6
CONTINUOUS
370
25
100
AcDbLine
 10
366.7779
 20
360.323411
 11
368.7779
 21
362.323411
  0
LINE
  5
E6
100
AcDbEntity
  8
M1
  6
CONTINUOUS
370
25
100
AcDbLine
 10
442.278938
 20
364.823442
 11
440.278938
 21
362.823411
  0
LINE
  5
E7
100
AcDbEntity
  8
M1
  6
CONTINUOUS
370
25
100
AcDbLine
 10
442.278846
 20
362.823533
 11
440.277839
 21
360.823503
  0
LINE
  5
E8
100
AcDbEntity
  8
M1
  6
CONTINUOUS
370
25
100
AcDbLine
 10
438.075904
 20
314.124437
 11
436.277839
 21
312.326341
  0
LINE
  5
E9
100
AcDbEntity
  8
M1
  6
CONTINUOUS
370
25
100
AcDbLine
 10
438.075843
 20
312.324479
 11
436.277839
 21
310.52745
  0
LINE
  5
EA
100
AcDbEntity
  8
M1
  6
CONTINUOUS
370
25
100
AcDbLine
 10
442.278968
 20
254.073854
 11
440.278999
 21
252.0739
  0
LINE
  5
EB
100
AcDbEntity
  8
M1
  6
CONTINUOUS
370
25
100
AcDbLine
 10
442.278968
 20
256.073884
 11
440.278968
 21
254.073869
  0
LINE
  5
EC
100
AcDbEntity
  8
M1
  6
CONTINUOUS
370
25
100
AcDbLine
 10
366.7779
 20
217.324434
 11
368.777869
 21
219.324418
  0
LINE
  5
ED
100
AcDbEntity
  8
M1
  6
CONTINUOUS
370
25
100
AcDbLine
 10
366.777961
 20
215.325426
 11
368.77793
 21
217.324403
  0
LINE
  5
EE
100
AcDbEntity
  8
M1
  6
CONTINUOUS
370
25
100
AcDbLine
 10
366.777991
 20
251.574403
 11
368.777991
 21
253.574403
  0
LINE
  5
EF
100
AcDbEntity
  8
M1
  6
CONTINUOUS
370
25
100
AcDbLine
 10
366.777961
 20
253.574434
 11
368.777961
 21
255.574434
  0
LINE
  5
F0
100
AcDbEntity
  8
M1
  6
CONTINUOUS
370
25
100
AcDbLine
 10
377.277839
 20
355.073442
 11
377.277839
 21
367.073442
  0
LINE
  5
F1
100
AcDbEntity
  8
M1
  6
CONTINUOUS
370
25
100
AcDbLine
 10
380.277839
 20
381.073442
 11
428.777839
 21
381.073442
  0
LINE
  5
F2
100
AcDbEntity
  8
M1
  6
CONTINUOUS
370
25
100
AcDbLine
 10
379.277839
 20
367.073442
 11
377.277839
 21
367.073442
  0
LINE
  5
F3
100
AcDbEntity
  8
M1
  6
CONTINUOUS
370
25
100
AcDbLine
 10
425.527839
 20
353.703447
 11
383.527839
 21
353.703447
  0
LINE
  5
F4
100
AcDbEntity
  8
M1
  6
CONTINUOUS
370
25
100
AcDbLine
 10
379.277839
 20
380.073442
 11
379.277839
 21
367.073442
  0
LINE
  5
F5
100
AcDbEntity
  8
M1
  6
CONTINUOUS
370
25
100
AcDbLine
 10
377.27793
 20
356.074571
 11
383.527991
 21
353.703569
  0
LINE
  5
F6
100
AcDbEntity
  8
M1
  6
CONTINUOUS
370
25
100
AcDbLine
 10
379.2779
 20
380.073411
 11
380.27793
 21
381.073442
  0
LINE
  5
F7
100
AcDbEntity
  8
M1
  6
CONTINUOUS
370
25
100
AcDbLine
 10
380.277839
 20
199.074434
 11
428.777839
 21
199.074434
  0
LINE
  5
F8
100
AcDbEntity
  8
M1
  6
CONTINUOUS
370
25
100
AcDbLine
 10
379.277961
 20
200.074434
 11
380.27793
 21
199.074449
  0
LINE
  5
F9
100
AcDbEntity
  8
M1
  6
CONTINUOUS
370
25
100
AcDbLine
 10
379.277839
 20
200.074434
 11
379.277839
 21
290.074449
  0
LINE
  5
FA
100
AcDbEntity
  8
M1
  6
CONTINUOUS
370
25
100
AcDbLine
 10
431.777839
 20
355.073442
 11
431.777839
 21
367.073442
  0
LINE
  5
FB
100
AcDbEntity
  8
M1
  6
CONTINUOUS
370
25
100
AcDbLine
 10
429.777839
 20
367.073442
 11
431.777839
 21
367.073442
  0
LINE
  5
FC
100
AcDbEntity
  8
M1
  6
CONTINUOUS
370
25
100
AcDbLine
 10
429.777839
 20
380.073442
 11
429.777839
 21
367.073442
  0
LINE
  5
FD
100
AcDbEntity
  8
M1
  6
CONTINUOUS
370
25
100
AcDbLine
 10
431.7779
 20
356.074571
 11
425.527869
 21
353.703569
  0
LINE
  5
FE
100
AcDbEntity
  8
M1
  6
CONTINUOUS
370
25
100
AcDbLine
 10
429.777961
 20
380.073442
 11
428.777961
 21
381.073442
  0
LINE
  5
FF
100
AcDbEntity
  8
M1
  6
CONTINUOUS
370
25
100
AcDbLine
 10
429.777839
 20
200.074434
 11
429.777839
 21
290.074449
  0
LINE
  5
100
100
AcDbEntity
  8
M1
  6
CONTINUOUS
370
25
100
AcDbLine
 10
429.777991
 20
200.074373
 11
428.777961
 21
199.074373
  0
LINE
  5
101
100
AcDbEntity
  8
M1
  6
CONTINUOUS
370
25
100
AcDbLine
 10
379.277839
 20
372.073442
 11
375.67884
 21
372.073442
  0
LINE
  5
102
100
AcDbEntity
  8
M1
  6
CONTINUOUS
370
25
100
AcDbLine
 10
379.277839
 20
374.87343
 11
375.67884
 21
374.87343
  0
LINE
  5
103
100
AcDbEntity
  8
M1
  6
CONTINUOUS
370
25
100
AcDbLine
 10
380.227912
 20
330.774431
 11
380.227912
 21
352.37343
  0
LINE
  5
104
100
AcDbEntity
  8
M1
  6
CONTINUOUS
370
25
100
AcDbLine
 10
395.227912
 20
324.074449
 11
395.227912
 21
309.824449
  0
LINE
  5
105
100
AcDbEntity
  8
M1
  6
CONTINUOUS
370
25
100
AcDbLine
 10
390.227912
 20
320.074449
 11
388.227912
 21
320.074449
  0
LINE
  5
106
100
AcDbEntity
  8
M1
  6
CONTINUOUS
370
25
100
AcDbLine
 10
395.227912
 20
309.824449
 11
393.227912
 21
309.824449
  0
LINE
  5
107
100
AcDbEntity
  8
M1
  6
CONTINUOUS
370
25
100
AcDbLine
 10
388.227912
 20
320.074449
 11
388.227912
 21
321.371446
  0
LINE
  5
108
100
AcDbEntity
  8
M1
  6
CONTINUOUS
370
25
100
AcDbLine
 10
380.227882
 20
330.77437
 11
387.001838
 21
324.254381
  0
LINE
  5
109
100
AcDbEntity
  8
M1
  6
CONTINUOUS
370
25
100
AcDbLine
 10
386.727912
 20
344.774431
 11
384.227912
 21
344.774431
  0
LINE
  5
10A
100
AcDbEntity
  8
M1
  6
CONTINUOUS
370
25
100
AcDbLine
 10
384.227912
 20
352.37343
 11
384.227912
 21
344.774431
  0
LINE
  5
10B
100
AcDbEntity
  8
M1
  6
CONTINUOUS
370
25
100
AcDbLine
 10
386.727912
 20
344.774431
 11
386.727912
 21
337.074449
  0
LINE
  5
10C
100
AcDbEntity
  8
M1
  6
CONTINUOUS
370
25
100
AcDbLine
 10
393.727912
 20
325.574449
 11
393.727912
 21
330.074449
  0
LINE
  5
10D
100
AcDbEntity
  8
M1
  6
CONTINUOUS
370
25
100
AcDbLine
 10
396.727699
 20
333.074663
 11
393.727729
 21
330.074663
  0
LINE
  5
10E
100
AcDbEntity
  8
M1
  6
CONTINUOUS
370
25
100
AcDbLine
 10
395.313911
 20
334.488328
 11
395.007941
 21
334.182329
  0
LINE
  5
10F
100
AcDbEntity
  8
M1
  6
CONTINUOUS
370
25
100
AcDbLine
 10
386.727821
 20
337.074479
 11
391.121833
 21
333.878465
  0
LINE
  5
110
100
AcDbEntity
  8
M1
  6
CONTINUOUS
370
25
100
AcDbLine
 10
395.313911
 20
334.48845
 11
396.727882
 21
333.074449
  0
LINE
  5
111
100
AcDbEntity
  8
M1
  6
CONTINUOUS
370
25
100
AcDbLine
 10
395.227912
 20
324.07451
 11
393.727912
 21
325.57451
  0
LINE
  5
112
100
AcDbEntity
  8
M1
  6
CONTINUOUS
370
25
100
AcDbLine
 10
380.227912
 20
352.37343
 11
433.727912
 21
352.37343
  0
LINE
  5
113
100
AcDbEntity
  8
M1
  6
CONTINUOUS
370
25
100
AcDbLine
 10
425.227912
 20
344.773424
 11
384.727912
 21
344.774431
  0
LINE
  5
114
100
AcDbEntity
  8
M1
  6
CONTINUOUS
370
25
100
AcDbLine
 10
388.278876
 20
341.331437
 11
388.278876
 21
343.074449
  0
LINE
  5
115
100
AcDbEntity
  8
M1
  6
CONTINUOUS
370
25
100
AcDbLine
 10
420.278876
 20
343.074449
 11
420.278876
 21
341.331437
  0
LINE
  5
116
100
AcDbEntity
  8
M1
  6
CONTINUOUS
370
25
100
AcDbLine
 10
389.278907
 20
344.074449
 11
419.278907
 21
344.073442
  0
LINE
  5
117
100
AcDbEntity
  8
M1
  6
CONTINUOUS
370
25
100
AcDbLine
 10
406.278876
 20
319.074449
 11
406.278876
 21
330.04445
  0
LINE
  5
118
100
AcDbEntity
  8
M1
  6
CONTINUOUS
370
25
100
AcDbLine
 10
402.278876
 20
319.074449
 11
402.278876
 21
330.04445
  0
LINE
  5
119
100
AcDbEntity
  8
M1
  6
CONTINUOUS
370
25
100
AcDbLine
 10
405.778876
 20
318.574449
 11
402.778876
 21
318.574449
  0
LINE
  5
11A
100
AcDbEntity
  8
M1
  6
CONTINUOUS
370
25
100
AcDbLine
 10
420.068885
 20
340.924455
 11
407.115943
 21
331.672502
  0
LINE
  5
11B
100
AcDbEntity
  8
M1
  6
CONTINUOUS
370
25
100
AcDbLine
 10
388.48783
 20
340.924425
 11
401.440833
 21
331.672441
  0
LINE
  5
11C
100
AcDbEntity
  8
M1
  6
CONTINUOUS
370
25
100
AcDbLine
 10
406.278968
 20
319.074357
 11
405.778968
 21
318.574388
  0
LINE
  5
11D
100
AcDbEntity
  8
M1
  6
CONTINUOUS
370
25
100
AcDbLine
 10
402.278846
 20
319.074388
 11
402.778876
 21
318.574357
  0
LINE
  5
11E
100
AcDbEntity
  8
M1
  6
CONTINUOUS
370
25
100
AcDbLine
 10
404.278876
 20
316.574449
 11
404.278876
 21
318.574449
  0
LINE
  5
11F
100
AcDbEntity
  8
M1
  6
CONTINUOUS
370
25
100
AcDbLine
 10
412.778876
 20
330.074449
 11
413.778876
 21
330.074449
  0
LINE
  5
120
100
AcDbEntity
  8
M1
  6
CONTINUOUS
370
25
100
AcDbLine
 10
429.277839
 20
317.074449
 11
429.277839
 21
307.074449
  0
LINE
  5
121
100
AcDbEntity
  8
M1
  6
CONTINUOUS
370
25
100
AcDbLine
 10
410.278876
 20
327.574449
 11
406.278876
 21
327.574449
  0
LINE
  5
122
100
AcDbEntity
  8
M1
  6
CONTINUOUS
370
25
100
AcDbLine
 10
413.778876
 20
326.574449
 11
411.778876
 21
326.574449
  0
LINE
  5
123
100
AcDbEntity
  8
M1
  6
CONTINUOUS
370
25
100
AcDbLine
 10
406.278876
 20
318.574449
 11
404.278876
 21
318.574449
  0
LINE
  5
124
100
AcDbEntity
  8
M1
  6
CONTINUOUS
370
25
100
AcDbLine
 10
408.277839
 20
316.574449
 11
404.278876
 21
316.574449
  0
LINE
  5
125
100
AcDbEntity
  8
M1
  6
CONTINUOUS
370
25
100
AcDbLine
 10
429.277839
 20
317.074449
 11
413.777839
 21
317.074449
  0
LINE
  5
126
100
AcDbEntity
  8
M1
  6
CONTINUOUS
370
25
100
AcDbLine
 10
415.378913
 20
312.074449
 11
412.378913
 21
312.074449
  0
LINE
  5
127
100
AcDbEntity
  8
M1
  6
CONTINUOUS
370
25
100
AcDbLine
 10
419.277839
 20
310.074449
 11
415.378913
 21
310.074449
  0
LINE
  5
128
100
AcDbEntity
  8
M1
  6
CONTINUOUS
370
25
100
AcDbLine
 10
429.277839
 20
307.074449
 11
419.277839
 21
307.074449
  0
LINE
  5
129
100
AcDbEntity
  8
M1
  6
CONTINUOUS
370
25
100
AcDbLine
 10
413.778876
 20
330.074449
 11
413.778876
 21
326.574449
  0
LINE
  5
12A
100
AcDbEntity
  8
M1
  6
CONTINUOUS
370
25
100
AcDbLine
 10
411.778876
 20
326.574449
 11
411.778876
 21
319.074449
  0
LINE
  5
12B
100
AcDbEntity
  8
M1
  6
CONTINUOUS
370
25
100
AcDbLine
 10
408.277839
 20
316.574449
 11
408.277839
 21
310.074449
  0
LINE
  5
12C
100
AcDbEntity
  8
M1
  6
CONTINUOUS
370
25
100
AcDbLine
 10
419.277839
 20
310.074449
 11
419.277839
 21
307.074449
  0
LINE
  5
12D
100
AcDbEntity
  8
M1
  6
CONTINUOUS
370
25
100
AcDbLine
 10
415.378913
 20
312.074449
 11
415.378913
 21
309.073442
  0
LINE
  5
12E
100
AcDbEntity
  8
M1
  6
CONTINUOUS
370
25
100
AcDbLine
 10
412.378913
 20
312.074449
 11
412.378913
 21
309.073442
  0
LINE
  5
12F
100
AcDbEntity
  8
M1
  6
CONTINUOUS
370
25
100
AcDbLine
 10
406.278876
 20
327.574449
 11
406.278876
 21
318.574449
  0
LINE
  5
130
100
AcDbEntity
  8
M1
  6
CONTINUOUS
370
25
100
AcDbLine
 10
410.278968
 20
327.574418
 11
412.778968
 21
330.074418
  0
LINE
  5
131
100
AcDbEntity
  8
M1
  6
CONTINUOUS
370
25
100
AcDbLine
 10
412.378913
 20
310.074449
 11
408.277839
 21
310.074449
  0
LINE
  5
132
100
AcDbEntity
  8
M1
  6
CONTINUOUS
370
25
100
AcDbLine
 10
433.727912
 20
331.073442
 11
433.727912
 21
352.37343
  0
LINE
  5
133
100
AcDbEntity
  8
M1
  6
CONTINUOUS
370
25
100
AcDbLine
 10
414.727912
 20
318.074449
 11
415.627876
 21
318.074449
  0
LINE
  5
134
100
AcDbEntity
  8
M1
  6
CONTINUOUS
370
25
100
AcDbLine
 10
420.727912
 20
320.838426
 11
420.727912
 21
318.073442
  0
LINE
  5
135
100
AcDbEntity
  8
M1
  6
CONTINUOUS
370
25
100
AcDbLine
 10
433.728004
 20
331.074357
 11
422.631965
 21
324.245317
  0
LINE
  5
136
100
AcDbEntity
  8
M1
  6
CONTINUOUS
370
25
100
AcDbLine
 10
415.227912
 20
330.074449
 11
415.227912
 21
325.574449
  0
LINE
  5
137
100
AcDbEntity
  8
M1
  6
CONTINUOUS
370
25
100
AcDbLine
 10
425.227912
 20
352.37343
 11
425.227912
 21
344.774431
  0
LINE
  5
138
100
AcDbEntity
  8
M1
  6
CONTINUOUS
370
25
100
AcDbLine
 10
422.727912
 20
344.774431
 11
422.727912
 21
337.074449
  0
LINE
  5
139
100
AcDbEntity
  8
M1
  6
CONTINUOUS
370
25
100
AcDbLine
 10
415.627876
 20
323.074449
 11
419.827888
 21
323.074449
  0
LINE
  5
13A
100
AcDbEntity
  8
M1
  6
CONTINUOUS
370
25
100
AcDbLine
 10
419.827888
 20
323.073442
 11
419.827888
 21
317.073442
  0
LINE
  5
13B
100
AcDbEntity
  8
M1
  6
CONTINUOUS
370
25
100
AcDbLine
 10
415.627876
 20
323.073442
 11
415.627876
 21
317.073442
  0
LINE
  5
13C
100
AcDbEntity
  8
M1
  6
CONTINUOUS
370
25
100
AcDbLine
 10
414.727912
 20
324.574449
 11
414.727912
 21
318.074449
  0
LINE
  5
13D
100
AcDbEntity
  8
M1
  6
CONTINUOUS
370
25
100
AcDbLine
 10
422.727943
 20
337.074388
 11
418.043922
 21
333.667344
  0
LINE
  5
13E
100
AcDbEntity
  8
M1
  6
CONTINUOUS
370
25
100
AcDbLine
 10
415.228004
 20
325.574388
 11
414.728004
 21
324.574388
  0
LINE
  5
13F
100
AcDbEntity
  8
M1
  6
CONTINUOUS
370
25
100
AcDbLine
 10
412.727912
 20
332.574418
 11
415.227912
 21
330.074418
  0
LINE
  5
140
100
AcDbEntity
  8
M1
  6
CONTINUOUS
370
25
100
AcDbLine
 10
414.141853
 20
333.98842
 11
414.157844
 21
333.972398
  0
LINE
  5
141
100
AcDbEntity
  8
M1
  6
CONTINUOUS
370
25
100
AcDbLine
 10
412.727882
 20
332.574388
 11
414.141883
 21
333.988389
  0
LINE
  5
142
100
AcDbEntity
  8
M1
  6
CONTINUOUS
370
25
100
AcDbLine
 10
419.827888
 20
318.074449
 11
420.727912
 21
318.074449
  0
LINE
  5
143
100
AcDbEntity
  8
M1
  6
CONTINUOUS
370
25
100
AcDbLine
 10
369.876838
 20
377.87343
 11
369.876838
 21
385.736436
  0
LINE
  5
144
100
AcDbEntity
  8
M1
  6
CONTINUOUS
370
25
100
AcDbLine
 10
365.676856
 20
406.997484
 11
364.276832
 21
404.572496
  0
LINE
  5
145
100
AcDbEntity
  8
M1
  6
CONTINUOUS
370
25
100
AcDbLine
 10
376.876838
 20
406.997514
 11
378.276862
 21
404.572496
  0
LINE
  5
146
100
AcDbEntity
  8
M1
  6
CONTINUOUS
370
25
100
AcDbLine
 10
364.976875
 20
405.785478
 11
358.914863
 21
409.285509
  0
LINE
  5
147
100
AcDbEntity
  8
M1
  6
CONTINUOUS
370
25
100
AcDbLine
 10
377.576881
 20
405.785417
 11
383.638892
 21
409.285447
  0
LINE
  5
148
100
AcDbEntity
  8
M1
  6
CONTINUOUS
370
25
100
AcDbLine
 10
372.676887
 20
377.87343
 11
372.676887
 21
383.864427
  0
LINE
  5
149
100
AcDbEntity
  8
M1
  6
CONTINUOUS
370
25
100
AcDbLine
 10
369.876838
 20
389.40944
 11
369.876838
 21
394.87343
  0
LINE
  5
14A
100
AcDbEntity
  8
M1
  6
CONTINUOUS
370
25
100
AcDbLine
 10
372.676887
 20
387.366441
 11
372.676887
 21
394.87343
  0
LINE
  5
14B
100
AcDbEntity
  8
M1
  6
CONTINUOUS
370
25
100
AcDbLine
 10
369.876838
 20
389.40941
 11
372.676917
 21
387.36638
  0
LINE
  5
14C
100
AcDbEntity
  8
M1
  6
CONTINUOUS
370
25
100
AcDbLine
 10
369.876868
 20
385.736497
 11
372.676887
 21
383.865495
  0
LINE
  5
14D
100
AcDbEntity
  8
M1
  6
CONTINUOUS
370
25
100
AcDbLine
 10
156.444496
 20
290.073442
 11
143.561866
 21
290.073442
  0
LINE
  5
14E
100
AcDbEntity
  8
M1
  6
CONTINUOUS
370
25
100
AcDbLine
 10
149.798439
 20
227.157564
 11
149.798439
 21
237.739732
  0
LINE
  5
14F
100
AcDbEntity
  8
M1
  6
CONTINUOUS
370
25
100
AcDbLine
 10
146.298439
 20
302.073442
 11
146.298439
 21
305.573442
  0
LINE
  5
150
100
AcDbEntity
  8
M1
  6
CONTINUOUS
370
25
100
AcDbLine
 10
146.298439
 20
305.573442
 11
153.298439
 21
305.573442
  0
LINE
  5
151
100
AcDbEntity
  8
M1
  6
CONTINUOUS
370
25
100
AcDbLine
 10
153.298439
 20
305.573442
 11
153.298439
 21
302.073442
  0
LINE
  5
152
100
AcDbEntity
  8
M1
  6
CONTINUOUS
370
25
100
AcDbLine
 10
154.799537
 20
365.460405
 11
149.799598
 21
368.346391
  0
LINE
  5
153
100
AcDbEntity
  8
M1
  6
CONTINUOUS
370
25
100
AcDbLine
 10
154.799476
 20
359.686448
 11
154.799476
 21
365.460435
  0
LINE
  5
154
100
AcDbEntity
  8
M1
  6
CONTINUOUS
370
25
100
AcDbLine
 10
149.799476
 20
356.799364
 11
154.799415
 21
359.686357
  0
LINE
  5
155
100
AcDbEntity
  8
M1
  6
CONTINUOUS
370
25
100
AcDbLine
 10
144.799415
 20
359.686387
 11
149.799476
 21
356.799333
  0
LINE
  5
156
100
AcDbEntity
  8
M1
  6
CONTINUOUS
370
25
100
AcDbLine
 10
144.799476
 20
365.460435
 11
144.799476
 21
359.686448
  0
LINE
  5
157
100
AcDbEntity
  8
M1
  6
CONTINUOUS
370
25
100
AcDbLine
 10
149.799537
 20
368.346391
 11
144.799476
 21
365.460344
  0
LINE
  5
158
100
AcDbEntity
  8
M1
  6
CONTINUOUS
370
25
100
AcDbLine
 10
156.798439
 20
343.139451
 11
156.798439
 21
347.573442
  0
LINE
  5
159
100
AcDbEntity
  8
M1
  6
CONTINUOUS
370
25
100
AcDbLine
 10
142.799476
 20
347.573442
 11
142.799476
 21
343.140428
  0
LINE
  5
15A
100
AcDbEntity
  8
M1
  6
CONTINUOUS
370
25
100
AcDbLine
 10
217.585426
 20
323.436448
 11
217.585426
 21
329.209428
  0
LINE
  5
15B
100
AcDbEntity
  8
M1
  6
CONTINUOUS
370
25
100
AcDbLine
 10
212.585548
 20
320.549364
 11
217.585548
 21
323.436387
  0
LINE
  5
15C
100
AcDbEntity
  8
M1
  6
CONTINUOUS
370
25
100
AcDbLine
 10
207.585548
 20
323.436418
 11
212.585548
 21
320.549364
  0
LINE
  5
15D
100
AcDbEntity
  8
M1
  6
CONTINUOUS
370
25
100
AcDbLine
 10
207.585426
 20
329.209428
 11
207.585426
 21
323.436448
  0
LINE
  5
15E
100
AcDbEntity
  8
M1
  6
CONTINUOUS
370
25
100
AcDbLine
 10
212.585548
 20
332.096422
 11
207.585548
 21
329.209398
  0
LINE
  5
15F
100
AcDbEntity
  8
M1
  6
CONTINUOUS
370
25
100
AcDbLine
 10
217.585487
 20
329.209428
 11
212.585548
 21
332.096391
  0
LINE
  5
160
100
AcDbEntity
  8
M1
  6
CONTINUOUS
370
25
100
AcDbLine
 10
199.25547
 20
310.544359
 11
203.09452
 21
312.761369
  0
LINE
  5
161
100
AcDbEntity
  8
M1
  6
CONTINUOUS
370
25
100
AcDbLine
 10
196.095558
 20
324.885393
 11
192.25547
 21
322.668382
  0
LINE
  5
162
100
AcDbEntity
  8
M1
  6
CONTINUOUS
370
25
100
AcDbLine
 10
212.585609
 20
248.050264
 11
217.585609
 21
250.937257
  0
LINE
  5
163
100
AcDbEntity
  8
M1
  6
CONTINUOUS
370
25
100
AcDbLine
 10
207.584327
 20
250.936464
 11
212.585365
 21
248.050416
  0
LINE
  5
164
100
AcDbEntity
  8
M1
  6
CONTINUOUS
370
25
100
AcDbLine
 10
207.584449
 20
256.710435
 11
207.584449
 21
250.936448
  0
LINE
  5
165
100
AcDbEntity
  8
M1
  6
CONTINUOUS
370
25
100
AcDbLine
 10
212.584571
 20
259.597322
 11
207.584571
 21
256.710344
  0
LINE
  5
166
100
AcDbEntity
  8
M1
  6
CONTINUOUS
370
25
100
AcDbLine
 10
217.58451
 20
256.71042
 11
212.58451
 21
259.597413
  0
LINE
  5
167
100
AcDbEntity
  8
M1
  6
CONTINUOUS
370
25
100
AcDbLine
 10
217.585365
 20
250.937456
 11
217.584388
 21
256.710466
  0
LINE
  5
168
100
AcDbEntity
  8
M1
  6
CONTINUOUS
370
25
100
AcDbLine
 10
192.25547
 20
257.478456
 11
196.094459
 21
255.261445
  0
LINE
  5
169
100
AcDbEntity
  8
M1
  6
CONTINUOUS
370
25
100
AcDbLine
 10
203.094459
 20
267.385408
 11
199.25547
 21
269.602418
  0
LINE
  5
16A
100
AcDbEntity
  8
M1
  6
CONTINUOUS
370
25
100
AcDbLine
 10
144.798561
 20
214.687425
 11
149.798561
 21
211.800416
  0
LINE
  5
16B
100
AcDbEntity
  8
M1
  6
CONTINUOUS
370
25
100
AcDbLine
 10
144.79734
 20
220.461442
 11
144.798317
 21
214.68744
  0
LINE
  5
16C
100
AcDbEntity
  8
M1
  6
CONTINUOUS
370
25
100
AcDbLine
 10
149.798439
 20
223.348298
 11
144.797523
 21
220.461351
  0
LINE
  5
16D
100
AcDbEntity
  8
M1
  6
CONTINUOUS
370
25
100
AcDbLine
 10
154.797462
 20
220.461412
 11
149.798439
 21
223.348405
  0
LINE
  5
16E
100
AcDbEntity
  8
M1
  6
CONTINUOUS
370
25
100
AcDbLine
 10
154.797462
 20
214.68744
 11
154.797462
 21
220.461442
  0
LINE
  5
16F
100
AcDbEntity
  8
M1
  6
CONTINUOUS
370
25
100
AcDbLine
 10
149.798378
 20
211.800477
 11
154.797462
 21
214.687517
  0
LINE
  5
170
100
AcDbEntity
  8
M1
  6
CONTINUOUS
370
25
100
AcDbLine
 10
142.798439
 20
237.008439
 11
142.798439
 21
232.574449
  0
LINE
  5
171
100
AcDbEntity
  8
M1
  6
CONTINUOUS
370
25
100
AcDbLine
 10
156.798439
 20
232.574449
 11
156.798439
 21
237.007432
  0
LINE
  5
172
100
AcDbEntity
  8
M1
  6
CONTINUOUS
370
25
100
AcDbLine
 10
82.012428
 20
256.711442
 11
82.012428
 21
250.937425
  0
LINE
  5
173
100
AcDbEntity
  8
M1
  6
CONTINUOUS
370
25
100
AcDbLine
 10
87.012733
 20
259.598253
 11
82.012733
 21
256.711229
  0
LINE
  5
174
100
AcDbEntity
  8
M1
  6
CONTINUOUS
370
25
100
AcDbLine
 10
92.012489
 20
256.711427
 11
87.01255
 21
259.598421
  0
LINE
  5
175
100
AcDbEntity
  8
M1
  6
CONTINUOUS
370
25
100
AcDbLine
 10
92.012428
 20
250.938432
 11
92.012428
 21
256.711442
  0
LINE
  5
176
100
AcDbEntity
  8
M1
  6
CONTINUOUS
370
25
100
AcDbLine
 10
87.012611
 20
248.051271
 11
92.012672
 21
250.938295
  0
LINE
  5
177
100
AcDbEntity
  8
M1
  6
CONTINUOUS
370
25
100
AcDbLine
 10
82.012489
 20
250.93741
 11
87.012489
 21
248.051423
  0
LINE
  5
178
100
AcDbEntity
  8
M1
  6
CONTINUOUS
370
25
100
AcDbLine
 10
100.342384
 20
269.603471
 11
96.502418
 21
267.386476
  0
LINE
  5
179
100
AcDbEntity
  8
M1
  6
CONTINUOUS
370
25
100
AcDbLine
 10
103.502418
 20
255.262437
 11
107.342445
 21
257.479432
  0
LINE
  5
17A
100
AcDbEntity
  8
M1
  6
CONTINUOUS
370
25
100
AcDbLine
 10
87.012611
 20
332.097093
 11
82.012672
 21
329.21013
  0
LINE
  5
17B
100
AcDbEntity
  8
M1
  6
CONTINUOUS
370
25
100
AcDbLine
 10
92.01255
 20
329.211381
 11
87.01255
 21
332.097368
  0
LINE
  5
17C
100
AcDbEntity
  8
M1
  6
CONTINUOUS
370
25
100
AcDbLine
 10
92.012428
 20
323.437425
 11
92.012428
 21
329.211442
  0
LINE
  5
17D
100
AcDbEntity
  8
M1
  6
CONTINUOUS
370
25
100
AcDbLine
 10
87.012611
 20
320.550065
 11
92.012611
 21
323.437059
  0
LINE
  5
17E
100
AcDbEntity
  8
M1
  6
CONTINUOUS
370
25
100
AcDbLine
 10
82.01255
 20
323.437395
 11
87.01255
 21
320.550401
  0
LINE
  5
17F
100
AcDbEntity
  8
M1
  6
CONTINUOUS
370
25
100
AcDbLine
 10
82.012428
 20
329.210435
 11
82.012428
 21
323.437425
  0
LINE
  5
180
100
AcDbEntity
  8
M1
  6
CONTINUOUS
370
25
100
AcDbLine
 10
107.342445
 20
322.669481
 11
103.502418
 21
324.885454
  0
LINE
  5
181
100
AcDbEntity
  8
M1
  6
CONTINUOUS
370
25
100
AcDbLine
 10
96.503456
 20
312.76143
 11
100.342384
 21
310.545457
  0
LINE
  5
182
100
AcDbEntity
  8
M1
  6
CONTINUOUS
370
25
100
AcDbLine
 10
196.413368
 20
328.533342
 11
193.513465
 21
326.858385
  0
LINE
  5
183
100
AcDbEntity
  8
M1
  6
CONTINUOUS
370
25
100
AcDbLine
 10
159.798439
 20
349.672441
 11
159.798439
 21
346.323442
  0
LINE
  5
184
100
AcDbEntity
  8
M1
  6
CONTINUOUS
370
25
100
AcDbLine
 10
206.412452
 20
268.934419
 11
203.512489
 21
270.608415
  0
LINE
  5
185
100
AcDbEntity
  8
M1
  6
CONTINUOUS
370
25
100
AcDbLine
 10
206.412574
 20
311.212327
 11
203.512672
 21
309.538347
  0
LINE
  5
186
100
AcDbEntity
  8
M1
  6
CONTINUOUS
370
25
100
AcDbLine
 10
159.798439
 20
230.47545
 11
159.798439
 21
233.823442
  0
LINE
  5
187
100
AcDbEntity
  8
M1
  6
CONTINUOUS
370
25
100
AcDbLine
 10
196.412513
 20
251.614427
 11
193.512489
 21
253.288453
  0
LINE
  5
188
100
AcDbEntity
  8
M1
  6
CONTINUOUS
370
25
100
AcDbLine
 10
103.184059
 20
251.614763
 11
106.084083
 21
253.289796
  0
LINE
  5
189
100
AcDbEntity
  8
M1
  6
CONTINUOUS
370
25
100
AcDbLine
 10
139.798439
 20
230.47545
 11
139.798439
 21
233.824449
  0
LINE
  5
18A
100
AcDbEntity
  8
M1
  6
CONTINUOUS
370
25
100
AcDbLine
 10
93.184486
 20
311.213365
 11
96.085487
 21
309.539415
  0
LINE
  5
18B
100
AcDbEntity
  8
M1
  6
CONTINUOUS
370
25
100
AcDbLine
 10
93.184791
 20
268.935197
 11
96.085792
 21
270.609193
  0
LINE
  5
18C
100
AcDbEntity
  8
M1
  6
CONTINUOUS
370
25
100
AcDbLine
 10
139.799476
 20
349.672441
 11
139.799476
 21
346.323442
  0
LINE
  5
18D
100
AcDbEntity
  8
M1
  6
CONTINUOUS
370
25
100
AcDbLine
 10
103.184547
 20
328.533403
 11
106.085548
 21
326.859392
  0
LINE
  5
18E
100
AcDbEntity
  8
M1
  6
CONTINUOUS
370
25
100
AcDbLine
 10
149.798439
 20
352.573442
 11
149.798439
 21
342.573442
  0
LINE
  5
18F
100
AcDbEntity
  8
M1
  6
CONTINUOUS
370
25
100
AcDbLine
 10
95.672523
 20
321.323442
 11
104.332557
 21
316.323411
  0
LINE
  5
190
100
AcDbEntity
  8
M1
  6
CONTINUOUS
370
25
100
AcDbLine
 10
95.672584
 20
258.824327
 11
104.332618
 21
263.824342
  0
LINE
  5
191
100
AcDbEntity
  8
M1
  6
CONTINUOUS
370
25
100
AcDbLine
 10
149.798439
 20
227.574449
 11
149.798439
 21
237.574449
  0
LINE
  5
192
100
AcDbEntity
  8
M1
  6
CONTINUOUS
370
25
100
AcDbLine
 10
203.924476
 20
258.824449
 11
195.264503
 21
263.824449
  0
LINE
  5
193
100
AcDbEntity
  8
M1
  6
CONTINUOUS
370
25
100
AcDbLine
 10
203.924598
 20
321.323442
 11
195.264625
 21
316.323442
  0
LINE
  5
194
100
AcDbEntity
  8
M1
  6
CONTINUOUS
370
25
100
AcDbLine
 10
220.230445
 20
399.741441
 11
225.830482
 21
399.741441
  0
LINE
  5
195
100
AcDbEntity
  8
M1
  6
CONTINUOUS
370
25
100
AcDbLine
 10
220.230445
 20
400.861436
 11
220.230445
 21
398.621446
  0
LINE
  5
196
100
AcDbEntity
  8
M1
  6
CONTINUOUS
370
25
100
AcDbLine
 10
210.53141
 20
406.461564
 11
208.591407
 21
405.341569
  0
LINE
  5
197
100
AcDbEntity
  8
M1
  6
CONTINUOUS
370
25
100
AcDbLine
 10
209.561561
 20
405.901445
 11
206.761573
 21
410.751451
  0
LINE
  5
198
100
AcDbEntity
  8
M1
  6
CONTINUOUS
370
25
100
AcDbLine
 10
205.682533
 20
391.342393
 11
208.591529
 21
396.381395
  0
LINE
  5
199
100
AcDbEntity
  8
M1
  6
CONTINUOUS
370
25
100
AcDbLine
 10
209.048378
 20
388.212419
 11
212.470436
 21
394.141435
  0
LINE
  5
19A
100
AcDbEntity
  8
M1
  6
CONTINUOUS
370
25
100
AcDbLine
 10
210.531593
 20
395.2614
 11
207.365577
 21
389.777391
  0
LINE
  5
19B
100
AcDbEntity
  8
M1
  6
CONTINUOUS
370
25
100
AcDbLine
 10
205.682594
 20
391.342393
 11
209.048561
 21
388.212419
  0
LINE
  5
19C
100
AcDbEntity
  8
M1
  6
CONTINUOUS
370
25
100
AcDbLine
 10
204.036476
 20
388.492479
 11
207.513465
 21
385.554429
  0
LINE
  5
19D
100
AcDbEntity
  8
M1
  6
CONTINUOUS
370
25
100
AcDbLine
 10
190.63163
 20
365.275346
 11
204.036598
 21
388.492357
  0
LINE
  5
19E
100
AcDbEntity
  8
M1
  6
CONTINUOUS
370
25
100
AcDbLine
 10
194.770301
 20
363.482469
 11
207.513343
 21
385.55446
  0
LINE
  5
19F
100
AcDbEntity
  8
M1
  6
CONTINUOUS
370
25
100
AcDbLine
 10
205.775245
 20
387.023546
 11
192.631263
 21
364.258562
  0
LINE
  5
1A0
100
AcDbEntity
  8
M1
  6
CONTINUOUS
370
25
100
AcDbLine
 10
612.245535
 20
290.073442
 11
624.193566
 21
290.073442
  0
LINE
  5
1A1
100
AcDbEntity
  8
M1
  6
CONTINUOUS
370
25
100
AcDbLine
 10
618.21955
 20
284.099427
 11
618.21955
 21
296.047457
  0
LINE
  5
1A2
100
AcDbEntity
  8
M1
  6
CONTINUOUS
370
25
100
AcDbLine
 10
621.721686
 20
302.073442
 11
621.721686
 21
305.573442
  0
LINE
  5
1A3
100
AcDbEntity
  8
M1
  6
CONTINUOUS
370
25
100
AcDbLine
 10
621.721686
 20
305.573442
 11
614.721686
 21
305.573442
  0
LINE
  5
1A4
100
AcDbEntity
  8
M1
  6
CONTINUOUS
370
25
100
AcDbLine
 10
614.721686
 20
305.573442
 11
614.721686
 21
302.073442
  0
LINE
  5
1A5
100
AcDbEntity
  8
M1
  6
CONTINUOUS
370
25
100
AcDbLine
 10
613.22074
 20
365.460344
 11
618.220725
 21
368.346361
  0
LINE
  5
1A6
100
AcDbEntity
  8
M1
  6
CONTINUOUS
370
25
100
AcDbLine
 10
613.219626
 20
359.686448
 11
613.220603
 21
365.460435
  0
LINE
  5
1A7
100
AcDbEntity
  8
M1
  6
CONTINUOUS
370
25
100
AcDbLine
 10
618.220633
 20
356.799486
 11
613.219672
 21
359.68651
  0
LINE
  5
1A8
100
AcDbEntity
  8
M1
  6
CONTINUOUS
370
25
100
AcDbLine
 10
623.219718
 20
359.686479
 11
618.220725
 21
356.799486
  0
LINE
  5
1A9
100
AcDbEntity
  8
M1
  6
CONTINUOUS
370
25
100
AcDbLine
 10
623.219672
 20
365.460435
 11
623.219672
 21
359.686448
  0
LINE
  5
1AA
100
AcDbEntity
  8
M1
  6
CONTINUOUS
370
25
100
AcDbLine
 10
618.220694
 20
368.346452
 11
623.219703
 21
365.460435
  0
LINE
  5
1AB
100
AcDbEntity
  8
M1
  6
CONTINUOUS
370
25
100
AcDbLine
 10
550.434638
 20
323.435441
 11
550.434638
 21
329.209428
  0
LINE
  5
1AC
100
AcDbEntity
  8
M1
  6
CONTINUOUS
370
25
100
AcDbLine
 10
555.434562
 20
320.549394
 11
550.434562
 21
323.435411
  0
LINE
  5
1AD
100
AcDbEntity
  8
M1
  6
CONTINUOUS
370
25
100
AcDbLine
 10
560.434607
 20
323.435319
 11
555.434623
 21
320.549302
  0
LINE
  5
1AE
100
AcDbEntity
  8
M1
  6
CONTINUOUS
370
25
100
AcDbLine
 10
560.434638
 20
329.209428
 11
560.434638
 21
323.435441
  0
LINE
  5
1AF
100
AcDbEntity
  8
M1
  6
CONTINUOUS
370
25
100
AcDbLine
 10
555.434607
 20
332.096422
 11
560.434592
 21
329.209428
  0
LINE
  5
1B0
100
AcDbEntity
  8
M1
  6
CONTINUOUS
370
25
100
AcDbLine
 10
550.434638
 20
329.209398
 11
555.434623
 21
332.096391
  0
LINE
  5
1B1
100
AcDbEntity
  8
M1
  6
CONTINUOUS
370
25
100
AcDbLine
 10
555.434546
 20
248.049394
 11
550.435615
 21
250.936403
  0
LINE
  5
1B2
100
AcDbEntity
  8
M1
  6
CONTINUOUS
370
25
100
AcDbLine
 10
560.435737
 20
250.936479
 11
555.434699
 21
248.049455
  0
LINE
  5
1B3
100
AcDbEntity
  8
M1
  6
CONTINUOUS
370
25
100
AcDbLine
 10
560.435676
 20
256.709428
 11
560.435676
 21
250.936448
  0
LINE
  5
1B4
100
AcDbEntity
  8
M1
  6
CONTINUOUS
370
25
100
AcDbLine
 10
555.434638
 20
259.596467
 11
560.435676
 21
256.709443
  0
LINE
  5
1B5
100
AcDbEntity
  8
M1
  6
CONTINUOUS
370
25
100
AcDbLine
 10
550.435691
 20
256.709413
 11
555.434623
 21
259.596422
  0
LINE
  5
1B6
100
AcDbEntity
  8
M1
  6
CONTINUOUS
370
25
100
AcDbLine
 10
550.435676
 20
250.936448
 11
550.435676
 21
256.709428
  0
LINE
  5
1B7
100
AcDbEntity
  8
M1
  6
CONTINUOUS
370
25
100
AcDbLine
 10
623.22277
 20
214.687364
 11
618.222739
 21
211.800325
  0
LINE
  5
1B8
100
AcDbEntity
  8
M1
  6
CONTINUOUS
370
25
100
AcDbLine
 10
623.222663
 20
220.461442
 11
623.222663
 21
214.68744
  0
LINE
  5
1B9
100
AcDbEntity
  8
M1
  6
CONTINUOUS
370
25
100
AcDbLine
 10
618.222617
 20
223.347337
 11
623.222617
 21
220.461336
  0
LINE
  5
1BA
100
AcDbEntity
  8
M1
  6
CONTINUOUS
370
25
100
AcDbLine
 10
613.222739
 20
220.461381
 11
618.222739
 21
223.347383
  0
LINE
  5
1BB
100
AcDbEntity
  8
M1
  6
CONTINUOUS
370
25
100
AcDbLine
 10
613.222663
 20
214.68744
 11
613.222663
 21
220.461442
  0
LINE
  5
1BC
100
AcDbEntity
  8
M1
  6
CONTINUOUS
370
25
100
AcDbLine
 10
618.222724
 20
211.800325
 11
613.222678
 21
214.687364
  0
LINE
  5
1BD
100
AcDbEntity
  8
M1
  6
CONTINUOUS
370
25
100
AcDbLine
 10
686.008674
 20
256.711442
 11
686.008674
 21
250.938432
  0
LINE
  5
1BE
100
AcDbEntity
  8
M1
  6
CONTINUOUS
370
25
100
AcDbLine
 10
681.008574
 20
259.598314
 11
686.008567
 21
256.711336
  0
LINE
  5
1BF
100
AcDbEntity
  8
M1
  6
CONTINUOUS
370
25
100
AcDbLine
 10
676.007689
 20
256.711412
 11
681.008742
 21
259.598405
  0
LINE
  5
1C0
100
AcDbEntity
  8
M1
  6
CONTINUOUS
370
25
100
AcDbLine
 10
676.007636
 20
250.938432
 11
676.007636
 21
256.711442
  0
LINE
  5
1C1
100
AcDbEntity
  8
M1
  6
CONTINUOUS
370
25
100
AcDbLine
 10
681.008651
 20
248.051378
 11
676.007598
 21
250.938371
  0
LINE
  5
1C2
100
AcDbEntity
  8
M1
  6
CONTINUOUS
370
25
100
AcDbLine
 10
686.008712
 20
250.938386
 11
681.008719
 21
248.051393
  0
LINE
  5
1C3
100
AcDbEntity
  8
M1
  6
CONTINUOUS
370
25
100
AcDbLine
 10
681.00759
 20
332.097276
 11
686.007575
 21
329.21132
  0
LINE
  5
1C4
100
AcDbEntity
  8
M1
  6
CONTINUOUS
370
25
100
AcDbLine
 10
676.007659
 20
329.21132
 11
681.007613
 21
332.097276
  0
LINE
  5
1C5
100
AcDbEntity
  8
M1
  6
CONTINUOUS
370
25
100
AcDbLine
 10
676.007636
 20
323.437425
 11
676.007636
 21
329.211442
  0
LINE
  5
1C6
100
AcDbEntity
  8
M1
  6
CONTINUOUS
370
25
100
AcDbLine
 10
681.007567
 20
320.550279
 11
676.007575
 21
323.437272
  0
LINE
  5
1C7
100
AcDbEntity
  8
M1
  6
CONTINUOUS
370
25
100
AcDbLine
 10
686.007705
 20
323.437333
 11
681.007712
 21
320.55034
  0
LINE
  5
1C8
100
AcDbEntity
  8
M1
  6
CONTINUOUS
370
25
100
AcDbLine
 10
686.007636
 20
329.211442
 11
686.007636
 21
323.437425
  0
LINE
  5
1C9
100
AcDbEntity
  8
M1
  6
CONTINUOUS
370
25
100
AcDbLine
 10
609.221686
 20
323.614427
 11
609.221686
 21
325.601427
  0
LINE
  5
1CA
100
AcDbEntity
  8
M1
  6
CONTINUOUS
370
25
100
AcDbLine
 10
593.673591
 20
314.638444
 11
591.952598
 21
315.631395
  0
LINE
  5
1CB
100
AcDbEntity
  8
M1
  6
CONTINUOUS
370
25
100
AcDbLine
 10
614.22071
 20
314.382432
 11
618.220679
 21
316.692399
  0
LINE
  5
1CC
100
AcDbEntity
  8
M1
  6
CONTINUOUS
370
25
100
AcDbLine
 10
614.220649
 20
309.763444
 11
614.220649
 21
314.382432
  0
LINE
  5
1CD
100
AcDbEntity
  8
M1
  6
CONTINUOUS
370
25
100
AcDbLine
 10
618.220633
 20
307.454393
 11
614.220603
 21
309.763444
  0
LINE
  5
1CE
100
AcDbEntity
  8
M1
  6
CONTINUOUS
370
25
100
AcDbLine
 10
622.220725
 20
309.763383
 11
618.22074
 21
307.454362
  0
LINE
  5
1CF
100
AcDbEntity
  8
M1
  6
CONTINUOUS
370
25
100
AcDbLine
 10
622.220649
 20
314.382432
 11
622.220649
 21
309.763444
  0
LINE
  5
1D0
100
AcDbEntity
  8
M1
  6
CONTINUOUS
370
25
100
AcDbLine
 10
618.220649
 20
316.69246
 11
622.220649
 21
314.382432
  0
LINE
  5
1D1
100
AcDbEntity
  8
M1
  6
CONTINUOUS
370
25
100
AcDbLine
 10
595.168647
 20
298.763444
 11
595.168647
 21
303.381425
  0
LINE
  5
1D2
100
AcDbEntity
  8
M1
  6
CONTINUOUS
370
25
100
AcDbLine
 10
599.168708
 20
296.453416
 11
595.168738
 21
298.763414
  0
LINE
  5
1D3
100
AcDbEntity
  8
M1
  6
CONTINUOUS
370
25
100
AcDbLine
 10
603.168586
 20
298.763475
 11
599.168616
 21
296.453477
  0
LINE
  5
1D4
100
AcDbEntity
  8
M1
  6
CONTINUOUS
370
25
100
AcDbLine
 10
603.168647
 20
303.381425
 11
603.168647
 21
298.763444
  0
LINE
  5
1D5
100
AcDbEntity
  8
M1
  6
CONTINUOUS
370
25
100
AcDbLine
 10
599.168616
 20
305.691484
 11
603.168632
 21
303.381456
  0
LINE
  5
1D6
100
AcDbEntity
  8
M1
  6
CONTINUOUS
370
25
100
AcDbLine
 10
595.168632
 20
303.381456
 11
599.168616
 21
305.691423
  0
LINE
  5
1D7
100
AcDbEntity
  8
M1
  6
CONTINUOUS
370
25
100
AcDbLine
 10
599.169669
 20
274.454347
 11
595.169684
 21
276.763353
  0
LINE
  5
1D8
100
AcDbEntity
  8
M1
  6
CONTINUOUS
370
25
100
AcDbLine
 10
603.1697
 20
276.763399
 11
599.16973
 21
274.454393
  0
LINE
  5
1D9
100
AcDbEntity
  8
M1
  6
CONTINUOUS
370
25
100
AcDbLine
 10
603.169684
 20
281.382432
 11
603.169684
 21
276.763444
  0
LINE
  5
1DA
100
AcDbEntity
  8
M1
  6
CONTINUOUS
370
25
100
AcDbLine
 10
599.169745
 20
283.692491
 11
603.169745
 21
281.382493
  0
LINE
  5
1DB
100
AcDbEntity
  8
M1
  6
CONTINUOUS
370
25
100
AcDbLine
 10
595.169776
 20
281.382432
 11
599.169761
 21
283.692399
  0
LINE
  5
1DC
100
AcDbEntity
  8
M1
  6
CONTINUOUS
370
25
100
AcDbLine
 10
595.169684
 20
276.763444
 11
595.169684
 21
281.382432
  0
LINE
  5
1DD
100
AcDbEntity
  8
M1
  6
CONTINUOUS
370
25
100
AcDbLine
 10
622.222663
 20
265.76439
 11
618.222678
 21
263.455385
  0
LINE
  5
1DE
100
AcDbEntity
  8
M1
  6
CONTINUOUS
370
25
100
AcDbLine
 10
622.222663
 20
270.383439
 11
622.222663
 21
265.764451
  0
LINE
  5
1DF
100
AcDbEntity
  8
M1
  6
CONTINUOUS
370
25
100
AcDbLine
 10
618.222663
 20
272.693468
 11
622.222632
 21
270.383485
  0
LINE
  5
1E0
100
AcDbEntity
  8
M1
  6
CONTINUOUS
370
25
100
AcDbLine
 10
614.222678
 20
270.383409
 11
618.222663
 21
272.693406
  0
LINE
  5
1E1
100
AcDbEntity
  8
M1
  6
CONTINUOUS
370
25
100
AcDbLine
 10
614.222663
 20
265.764451
 11
614.222663
 21
270.383439
  0
LINE
  5
1E2
100
AcDbEntity
  8
M1
  6
CONTINUOUS
370
25
100
AcDbLine
 10
618.222632
 20
263.45543
 11
614.222617
 21
265.764451
  0
LINE
  5
1E3
100
AcDbEntity
  8
M1
  6
CONTINUOUS
370
25
100
AcDbLine
 10
641.273688
 20
281.384447
 11
641.273688
 21
276.765428
  0
LINE
  5
1E4
100
AcDbEntity
  8
M1
  6
CONTINUOUS
370
25
100
AcDbLine
 10
637.273734
 20
283.69362
 11
641.273719
 21
281.38463
  0
LINE
  5
1E5
100
AcDbEntity
  8
M1
  6
CONTINUOUS
370
25
100
AcDbLine
 10
633.273551
 20
281.384569
 11
637.273551
 21
283.693559
  0
LINE
  5
1E6
100
AcDbEntity
  8
M1
  6
CONTINUOUS
370
25
100
AcDbLine
 10
633.273688
 20
276.765428
 11
633.273688
 21
281.384447
  0
LINE
  5
1E7
100
AcDbEntity
  8
M1
  6
CONTINUOUS
370
25
100
AcDbLine
 10
637.273734
 20
274.455446
 11
633.273719
 21
276.765458
  0
LINE
  5
1E8
100
AcDbEntity
  8
M1
  6
CONTINUOUS
370
25
100
AcDbLine
 10
641.273673
 20
276.765428
 11
637.273688
 21
274.45543
  0
LINE
  5
1E9
100
AcDbEntity
  8
M1
  6
CONTINUOUS
370
25
100
AcDbLine
 10
637.272605
 20
305.693437
 11
641.272635
 21
303.383439
  0
LINE
  5
1EA
100
AcDbEntity
  8
M1
  6
CONTINUOUS
370
25
100
AcDbLine
 10
633.272666
 20
303.383409
 11
637.272696
 21
305.693406
  0
LINE
  5
1EB
100
AcDbEntity
  8
M1
  6
CONTINUOUS
370
25
100
AcDbLine
 10
633.272651
 20
298.765428
 11
633.272651
 21
303.383439
  0
LINE
  5
1EC
100
AcDbEntity
  8
M1
  6
CONTINUOUS
370
25
100
AcDbLine
 10
637.272666
 20
296.455461
 11
633.272651
 21
298.765489
  0
LINE
  5
1ED
100
AcDbEntity
  8
M1
  6
CONTINUOUS
370
25
100
AcDbLine
 10
641.272674
 20
298.765489
 11
637.272635
 21
296.455461
  0
LINE
  5
1EE
100
AcDbEntity
  8
M1
  6
CONTINUOUS
370
25
100
AcDbLine
 10
641.272651
 20
303.383439
 11
641.272651
 21
298.765428
  0
LINE
  5
1EF
100
AcDbEntity
  8
M1
  6
CONTINUOUS
370
25
100
AcDbLine
 10
584.673728
 20
299.049455
 11
582.952704
 21
300.043474
  0
LINE
  5
1F0
100
AcDbEntity
  8
M1
  6
CONTINUOUS
370
25
100
AcDbLine
 10
584.673728
 20
281.096544
 11
582.953727
 21
280.103502
  0
LINE
  5
1F1
100
AcDbEntity
  8
M1
  6
CONTINUOUS
370
25
100
AcDbLine
 10
593.673682
 20
265.509447
 11
591.952689
 21
264.515443
  0
LINE
  5
1F2
100
AcDbEntity
  8
M1
  6
CONTINUOUS
370
25
100
AcDbLine
 10
609.221686
 20
256.532426
 11
609.221686
 21
254.545427
  0
LINE
  5
1F3
100
AcDbEntity
  8
M1
  6
CONTINUOUS
370
25
100
AcDbLine
 10
627.221686
 20
256.533433
 11
627.221686
 21
254.545427
  0
LINE
  5
1F4
100
AcDbEntity
  8
M1
  6
CONTINUOUS
370
25
100
AcDbLine
 10
642.769683
 20
265.509492
 11
644.489661
 21
264.516481
  0
LINE
  5
1F5
100
AcDbEntity
  8
M1
  6
CONTINUOUS
370
25
100
AcDbLine
 10
651.768752
 20
281.097429
 11
653.489715
 21
280.10341
  0
LINE
  5
1F6
100
AcDbEntity
  8
M1
  6
CONTINUOUS
370
25
100
AcDbLine
 10
651.768706
 20
299.050432
 11
653.4887
 21
300.04445
  0
LINE
  5
1F7
100
AcDbEntity
  8
M1
  6
CONTINUOUS
370
25
100
AcDbLine
 10
642.768691
 20
314.638353
 11
644.489646
 21
315.631334
  0
LINE
  5
1F8
100
AcDbEntity
  8
M1
  6
CONTINUOUS
370
25
100
AcDbLine
 10
627.220649
 20
323.615434
 11
627.220649
 21
325.601427
  0
LINE
  5
1F9
100
AcDbEntity
  8
M1
  6
CONTINUOUS
370
25
100
AcDbLine
 10
558.46247
 20
405.903459
 11
561.262473
 21
410.752489
  0
LINE
  5
1FA
100
AcDbEntity
  8
M1
  6
CONTINUOUS
370
25
100
AcDbLine
 10
557.492637
 20
406.463457
 11
559.431601
 21
405.343461
  0
LINE
  5
1FB
100
AcDbEntity
  8
M1
  6
CONTINUOUS
370
25
100
AcDbLine
 10
547.79267
 20
400.86345
 11
547.79267
 21
398.62343
  0
LINE
  5
1FC
100
AcDbEntity
  8
M1
  6
CONTINUOUS
370
25
100
AcDbLine
 10
547.79267
 20
399.743425
 11
542.192634
 21
399.743425
  0
LINE
  5
1FD
100
AcDbEntity
  8
M1
  6
CONTINUOUS
370
25
100
AcDbLine
 10
558.461631
 20
389.104478
 11
555.552649
 21
394.143449
  0
LINE
  5
1FE
100
AcDbEntity
  8
M1
  6
CONTINUOUS
370
25
100
AcDbLine
 10
562.854667
 20
390.454301
 11
559.432654
 21
396.382341
  0
LINE
  5
1FF
100
AcDbEntity
  8
M1
  6
CONTINUOUS
370
25
100
AcDbLine
 10
557.492698
 20
395.263444
 11
560.657783
 21
389.779222
  0
LINE
  5
200
100
AcDbEntity
  8
M1
  6
CONTINUOUS
370
25
100
AcDbLine
 10
558.461738
 20
389.104387
 11
562.854758
 21
390.454393
  0
LINE
  5
201
100
AcDbEntity
  8
M1
  6
CONTINUOUS
370
25
100
AcDbLine
 10
560.10662
 20
386.254655
 11
564.389625
 21
387.796647
  0
LINE
  5
202
100
AcDbEntity
  8
M1
  6
CONTINUOUS
370
25
100
AcDbLine
 10
570.796714
 20
367.73845
 11
560.106681
 21
386.254503
  0
LINE
  5
203
100
AcDbEntity
  8
M1
  6
CONTINUOUS
370
25
100
AcDbLine
 10
574.676627
 20
369.978502
 11
564.38964
 21
387.796525
  0
LINE
  5
204
100
AcDbEntity
  8
M1
  6
CONTINUOUS
370
25
100
AcDbLine
 10
562.248694
 20
387.025407
 11
572.722678
 21
368.882402
  0
LINE
  5
205
100
AcDbEntity
  8
M1
  6
CONTINUOUS
370
25
100
AcDbLine
 10
442.278876
 20
211.474443
 11
440.278876
 21
211.474443
  0
LINE
  5
206
100
AcDbEntity
  8
M1
  6
CONTINUOUS
370
25
100
AcDbLine
 10
440.278876
 20
223.67444
 11
442.278876
 21
223.67444
  0
LINE
  5
207
100
AcDbEntity
  8
M1
  6
CONTINUOUS
370
25
100
AcDbLine
 10
442.278876
 20
223.67444
 11
442.278876
 21
211.474443
  0
LINE
  5
208
100
AcDbEntity
  8
M1
  6
CONTINUOUS
370
25
100
AcDbLine
 10
446.242866
 20
211.800432
 11
442.278876
 21
211.800432
  0
LINE
  5
209
100
AcDbEntity
  8
M1
  6
CONTINUOUS
370
25
100
AcDbLine
 10
442.278876
 20
211.800432
 11
442.278876
 21
223.347444
  0
LINE
  5
20A
100
AcDbEntity
  8
M1
  6
CONTINUOUS
370
25
100
AcDbLine
 10
442.278876
 20
223.347444
 11
446.242866
 21
223.347444
  0
LINE
  5
20B
100
AcDbEntity
  8
M1
  6
CONTINUOUS
370
25
100
AcDbLine
 10
446.778876
 20
221.961442
 11
446.778876
 21
213.18744
  0
LINE
  5
20C
100
AcDbEntity
  8
M1
  6
CONTINUOUS
370
25
100
AcDbLine
 10
446.242866
 20
214.574434
 11
442.278876
 21
214.574434
  0
LINE
  5
20D
100
AcDbEntity
  8
M1
  6
CONTINUOUS
370
25
100
AcDbLine
 10
442.278876
 20
220.574434
 11
446.242866
 21
220.574434
  0
LINE
  5
20E
100
AcDbEntity
  8
M1
  6
CONTINUOUS
370
25
100
AcDbLine
 10
442.278938
 20
217.824388
 11
440.278999
 21
215.824434
  0
LINE
  5
20F
100
AcDbEntity
  8
M1
  6
CONTINUOUS
370
25
100
AcDbLine
 10
442.278968
 20
219.824418
 11
440.278968
 21
217.824403
  0
LINE
  5
210
100
AcDbEntity
  8
M1
  6
CONTINUOUS
370
25
100
AcDbLine
 10
443.904884
 20
259.596925
 11
443.904884
 21
290.074449
  0
LINE
  5
211
100
AcDbEntity
  8
M1
  6
CONTINUOUS
370
25
100
AcDbLine
 10
149.798439
 20
343.101213
 11
149.798439
 21
352.7632
  0
LINE
  5
212
100
AcDbEntity
  8
M1
  6
CONTINUOUS
370
25
100
AcDbLine
 10
149.798439
 20
284.209215
 11
149.798439
 21
296.63173
  0
LINE
  5
213
100
AcDbEntity
  8
M1
  6
CONTINUOUS
370
25
100
AcDbLine
 10
335.10895
 20
290.074449
 11
317.977271
 21
290.074449
  0
ARC
  5
214
100
AcDbEntity
  8
M1
  6
CONTINUOUS
370
25
100
AcDbCircle
 10
336.477912
 20
321.574449
 40
1.5
100
AcDbArc
 50
180.0
 51
270.0
  0
ARC
  5
215
100
AcDbEntity
  8
M1
  6
CONTINUOUS
370
25
100
AcDbCircle
 10
371.777839
 20
368.073442
 40
3.0
100
AcDbArc
 50
90.0
 51
180.0
  0
ARC
  5
216
100
AcDbEntity
  8
M1
  6
CONTINUOUS
370
25
100
AcDbCircle
 10
365.777839
 20
357.074449
 40
3.0
100
AcDbArc
 50
270.0
 51
360.0
  0
ARC
  5
217
100
AcDbEntity
  8
M1
  6
CONTINUOUS
370
25
100
AcDbCircle
 10
362.777839
 20
350.32744
 40
6.000628
100
AcDbArc
 50
277.593994
 51
360.0
  0
ARC
  5
218
100
AcDbEntity
  8
M1
  6
CONTINUOUS
370
25
100
AcDbCircle
 10
374.777839
 20
343.574449
 40
1.0
100
AcDbArc
 50
180.0
 51
270.0
  0
ARC
  5
219
100
AcDbEntity
  8
M1
  6
CONTINUOUS
370
25
100
AcDbCircle
 10
351.277839
 20
336.074449
 40
1.5
100
AcDbArc
 50
0.0
 51
90.0
  0
ARC
  5
21A
100
AcDbEntity
  8
M1
  6
CONTINUOUS
370
25
100
AcDbCircle
 10
359.277839
 20
336.074449
 40
1.5
100
AcDbArc
 50
90.0
 51
180.0
  0
ARC
  5
21B
100
AcDbEntity
  8
M1
  6
CONTINUOUS
370
25
100
AcDbCircle
 10
371.777839
 20
212.074434
 40
3.0
100
AcDbArc
 50
180.0
 51
270.0
  0
ARC
  5
21C
100
AcDbEntity
  8
M1
  6
CONTINUOUS
370
25
100
AcDbCircle
 10
365.777839
 20
223.074434
 40
3.0
100
AcDbArc
 50
0.0
 51
90.0
  0
ARC
  5
21D
100
AcDbEntity
  8
M1
  6
CONTINUOUS
370
25
100
AcDbCircle
 10
362.777839
 20
229.821428
 40
6.0
100
AcDbArc
 50
0.0
 51
82.404892
  0
CIRCLE
  5
21E
100
AcDbEntity
  8
M1
  6
CONTINUOUS
370
25
100
AcDbCircle
 10
366.776862
 20
328.824449
 40
5.834015
  0
ARC
  5
21F
100
AcDbEntity
  8
M1
  6
CONTINUOUS
370
25
100
AcDbCircle
 10
373.777839
 20
335.574449
 40
2.0
100
AcDbArc
 50
0.0
 51
90.0
  0
ARC
  5
220
100
AcDbEntity
  8
M1
  6
CONTINUOUS
370
25
100
AcDbCircle
 10
359.777839
 20
335.574449
 40
2.0
100
AcDbArc
 50
90.0
 51
180.0
  0
ARC
  5
221
100
AcDbEntity
  8
M1
  6
CONTINUOUS
370
25
100
AcDbCircle
 10
359.777839
 20
322.074449
 40
2.0
100
AcDbArc
 50
180.0
 51
270.0
  0
ARC
  5
222
100
AcDbEntity
  8
M1
  6
CONTINUOUS
370
25
100
AcDbCircle
 10
373.777839
 20
322.074449
 40
2.0
100
AcDbArc
 50
270.0
 51
360.0
  0
CIRCLE
  5
223
100
AcDbEntity
  8
M1
  6
CONTINUOUS
370
25
100
AcDbCircle
 10
343.977912
 20
328.824449
 40
5.833008
  0
ARC
  5
224
100
AcDbEntity
  8
M1
  6
CONTINUOUS
370
25
100
AcDbCircle
 10
336.977912
 20
335.574449
 40
2.0
100
AcDbArc
 50
90.0
 51
180.0
  0
ARC
  5
225
100
AcDbEntity
  8
M1
  6
CONTINUOUS
370
25
100
AcDbCircle
 10
350.977912
 20
335.574449
 40
2.0
100
AcDbArc
 50
0.0
 51
90.0
  0
ARC
  5
226
100
AcDbEntity
  8
M1
  6
CONTINUOUS
370
25
100
AcDbCircle
 10
350.977912
 20
322.074449
 40
2.0
100
AcDbArc
 50
270.0
 51
360.0
  0
ARC
  5
227
100
AcDbEntity
  8
M1
  6
CONTINUOUS
370
25
100
AcDbCircle
 10
336.977912
 20
322.074449
 40
2.0
100
AcDbArc
 50
180.0
 51
270.0
  0
ARC
  5
228
100
AcDbEntity
  8
M1
  6
CONTINUOUS
370
25
100
AcDbCircle
 10
438.277839
 20
369.073442
 40
2.0
100
AcDbArc
 50
0.0
 51
90.0
  0
ARC
  5
229
100
AcDbEntity
  8
M1
  6
CONTINUOUS
370
25
100
AcDbCircle
 10
434.68885
 20
352.074449
 40
2.000087
100
AcDbArc
 50
9.264273
 51
90.0
  0
ARC
  5
22A
100
AcDbEntity
  8
M1
  6
CONTINUOUS
370
25
100
AcDbCircle
 10
430.950874
 20
337.731431
 40
8.000097
100
AcDbArc
 50
310.503448
 51
369.271668
  0
ARC
  5
22B
100
AcDbEntity
  8
M1
  6
CONTINUOUS
370
25
100
AcDbCircle
 10
439.956916
 20
332.216447
 40
4.000033
100
AcDbArc
 50
309.104706
 51
369.278351
  0
ARC
  5
22C
100
AcDbEntity
  8
M1
  6
CONTINUOUS
370
25
100
AcDbCircle
 10
438.277839
 20
211.074434
 40
2.0
100
AcDbArc
 50
270.0
 51
360.0
  0
ARC
  5
22D
100
AcDbEntity
  8
M1
  6
CONTINUOUS
370
25
100
AcDbCircle
 10
435.147834
 20
312.074449
 40
6.927806
100
AcDbArc
 50
338.84671
 51
381.153303
  0
ARC
  5
22E
100
AcDbEntity
  8
M1
  6
CONTINUOUS
370
25
100
AcDbCircle
 10
440.639899
 20
315.633439
 40
1.435413
100
AcDbArc
 50
312.459045
 51
407.540962
  0
ARC
  5
22F
100
AcDbEntity
  8
M1
  6
CONTINUOUS
370
25
100
AcDbCircle
 10
440.639899
 20
308.514451
 40
1.435436
100
AcDbArc
 50
312.458221
 51
407.568497
  0
ARC
  5
230
100
AcDbEntity
  8
M1
  6
CONTINUOUS
370
25
100
AcDbCircle
 10
370.937873
 20
217.574434
 40
8.660212
100
AcDbArc
 50
159.731995
 51
200.270279
  0
ARC
  5
231
100
AcDbEntity
  8
M1
  6
CONTINUOUS
370
25
100
AcDbCircle
 10
364.339851
 20
213.188432
 40
2.06073
100
AcDbArc
 50
137.733643
 51
222.286789
  0
ARC
  5
232
100
AcDbEntity
  8
M1
  6
CONTINUOUS
370
25
100
AcDbCircle
 10
364.338874
 20
221.961442
 40
2.061397
100
AcDbArc
 50
137.713242
 51
222.286758
  0
ARC
  5
233
100
AcDbEntity
  8
M1
  6
CONTINUOUS
370
25
100
AcDbCircle
 10
370.937873
 20
253.824449
 40
8.659863
100
AcDbArc
 50
159.738251
 51
200.270279
  0
ARC
  5
234
100
AcDbEntity
  8
M1
  6
CONTINUOUS
370
25
100
AcDbCircle
 10
364.339851
 20
249.437425
 40
2.061417
100
AcDbArc
 50
137.712616
 51
222.286499
  0
ARC
  5
235
100
AcDbEntity
  8
M1
  6
CONTINUOUS
370
25
100
AcDbCircle
 10
364.338874
 20
258.210435
 40
2.061397
100
AcDbArc
 50
137.713242
 51
222.286758
  0
ARC
  5
236
100
AcDbEntity
  8
M1
  6
CONTINUOUS
370
25
100
AcDbCircle
 10
438.118903
 20
253.823915
 40
8.660212
100
AcDbArc
 50
339.731995
 51
380.268005
  0
ARC
  5
237
100
AcDbEntity
  8
M1
  6
CONTINUOUS
370
25
100
AcDbCircle
 10
444.717872
 20
258.210924
 40
2.061407
100
AcDbArc
 50
317.712921
 51
402.266644
  0
ARC
  5
238
100
AcDbEntity
  8
M1
  6
CONTINUOUS
370
25
100
AcDbCircle
 10
444.717872
 20
249.436921
 40
2.06073
100
AcDbArc
 50
317.733643
 51
402.286789
  0
ARC
  5
239
100
AcDbEntity
  8
M1
  6
CONTINUOUS
370
25
100
AcDbCircle
 10
438.118903
 20
362.573442
 40
8.660212
100
AcDbArc
 50
339.731995
 51
380.268005
  0
ARC
  5
23A
100
AcDbEntity
  8
M1
  6
CONTINUOUS
370
25
100
AcDbCircle
 10
444.716865
 20
366.960435
 40
2.062142
100
AcDbArc
 50
317.732086
 51
402.247509
  0
ARC
  5
23B
100
AcDbEntity
  8
M1
  6
CONTINUOUS
370
25
100
AcDbCircle
 10
444.716865
 20
358.186448
 40
2.062163
100
AcDbArc
 50
317.731445
 51
402.267929
  0
ARC
  5
23C
100
AcDbEntity
  8
M1
  6
CONTINUOUS
370
25
100
AcDbCircle
 10
370.937873
 20
362.573442
 40
8.660212
100
AcDbArc
 50
159.731995
 51
200.27037
  0
ARC
  5
23D
100
AcDbEntity
  8
M1
  6
CONTINUOUS
370
25
100
AcDbCircle
 10
364.339851
 20
358.186448
 40
2.061397
100
AcDbArc
 50
137.713242
 51
222.266327
  0
ARC
  5
23E
100
AcDbEntity
  8
M1
  6
CONTINUOUS
370
25
100
AcDbCircle
 10
364.338874
 20
366.960435
 40
2.06074
100
AcDbArc
 50
137.733337
 51
222.286469
  0
ARC
  5
23F
100
AcDbEntity
  8
M1
  6
CONTINUOUS
370
25
100
AcDbCircle
 10
375.677863
 20
377.87343
 40
3.0
100
AcDbArc
 50
180.0
 51
270.0
  0
ARC
  5
240
100
AcDbEntity
  8
M1
  6
CONTINUOUS
370
25
100
AcDbCircle
 10
375.677863
 20
377.87343
 40
5.799988
100
AcDbArc
 50
180.0
 51
270.0
  0
ARC
  5
241
100
AcDbEntity
  8
M1
  6
CONTINUOUS
370
25
100
AcDbCircle
 10
392.886848
 20
336.304429
 40
3.000121
100
AcDbArc
 50
233.962509
 51
314.986816
  0
ARC
  5
242
100
AcDbEntity
  8
M1
  6
CONTINUOUS
370
25
100
AcDbCircle
 10
384.227912
 20
321.372423
 40
4.0
100
AcDbArc
 50
0.0
 51
46.094276
  0
ARC
  5
243
100
AcDbEntity
  8
M1
  6
CONTINUOUS
370
25
100
AcDbCircle
 10
388.778876
 20
341.331437
 40
0.5
100
AcDbArc
 50
180.0
 51
234.436707
  0
ARC
  5
244
100
AcDbEntity
  8
M1
  6
CONTINUOUS
370
25
100
AcDbCircle
 10
419.778876
 20
341.331437
 40
0.499764
100
AcDbArc
 50
305.470978
 51
360.0
  0
ARC
  5
245
100
AcDbEntity
  8
M1
  6
CONTINUOUS
370
25
100
AcDbCircle
 10
389.278876
 20
343.074449
 40
1.0
100
AcDbArc
 50
90.0
 51
180.0
  0
ARC
  5
246
100
AcDbEntity
  8
M1
  6
CONTINUOUS
370
25
100
AcDbCircle
 10
419.278876
 20
343.074449
 40
1.0
100
AcDbArc
 50
0.0
 51
90.0
  0
ARC
  5
247
100
AcDbEntity
  8
M1
  6
CONTINUOUS
370
25
100
AcDbCircle
 10
400.278876
 20
330.04445
 40
2.0
100
AcDbArc
 50
0.0
 51
54.482548
  0
ARC
  5
248
100
AcDbEntity
  8
M1
  6
CONTINUOUS
370
25
100
AcDbCircle
 10
408.278876
 20
330.04445
 40
2.000727
100
AcDbArc
 50
125.541031
 51
180.0
  0
ARC
  5
249
100
AcDbEntity
  8
M1
  6
CONTINUOUS
370
25
100
AcDbCircle
 10
413.778876
 20
319.074449
 40
2.0
100
AcDbArc
 50
180.0
 51
269.971161
  0
ARC
  5
24A
100
AcDbEntity
  8
M1
  6
CONTINUOUS
370
25
100
AcDbCircle
 10
416.279914
 20
336.093431
 40
3.000262
100
AcDbArc
 50
224.986404
 51
306.022003
  0
ARC
  5
24B
100
AcDbEntity
  8
M1
  6
CONTINUOUS
370
25
100
AcDbCircle
 10
424.727912
 20
320.838426
 40
4.000124
100
AcDbArc
 50
121.599998
 51
180.0
  0
ARC
  5
24C
100
AcDbEntity
  8
M1
  6
CONTINUOUS
370
25
100
AcDbCircle
 10
383.876838
 20
394.87343
 40
13.999686
100
AcDbArc
 50
120.00074
 51
180.0
  0
ARC
  5
24D
100
AcDbEntity
  8
M1
  6
CONTINUOUS
370
25
100
AcDbCircle
 10
358.676887
 20
394.87343
 40
13.999787
100
AcDbArc
 50
25.840363
 51
59.999229
  0
ARC
  5
24E
100
AcDbEntity
  8
M1
  6
CONTINUOUS
370
25
100
AcDbCircle
 10
383.876838
 20
394.87343
 40
11.199588
100
AcDbArc
 50
120.001251
 51
180.0
  0
ARC
  5
24F
100
AcDbEntity
  8
M1
  6
CONTINUOUS
370
25
100
AcDbCircle
 10
358.676887
 20
394.87343
 40
11.199982
100
AcDbArc
 50
0.0
 51
59.998871
  0
ARC
  5
250
100
AcDbEntity
  8
M1
  6
CONTINUOUS
370
25
100
AcDbCircle
 10
149.798439
 20
290.073442
 40
91.000404
100
AcDbArc
 50
61.409451
 51
418.588326
  0
CIRCLE
  5
251
100
AcDbEntity
  8
M1
  6
CONTINUOUS
370
25
100
AcDbCircle
 10
149.798439
 20
290.073442
 40
81.0
  0
CIRCLE
  5
252
100
AcDbEntity
  8
M1
  6
CONTINUOUS
370
25
100
AcDbCircle
 10
149.798439
 20
290.073442
 40
47.5
  0
CIRCLE
  5
253
100
AcDbEntity
  8
M1
  6
CONTINUOUS
370
25
100
AcDbCircle
 10
149.798439
 20
290.073442
 40
51.0
  0
CIRCLE
  5
254
100
AcDbEntity
  8
M1
  6
CONTINUOUS
370
25
100
AcDbCircle
 10
149.798439
 20
290.073442
 40
35.0
  0
ARC
  5
255
100
AcDbEntity
  8
M1
  6
CONTINUOUS
370
25
100
AcDbCircle
 10
149.798439
 20
290.073442
 40
12.5
100
AcDbArc
 50
106.260208
 51
433.739792
  0
CIRCLE
  5
256
100
AcDbEntity
  8
M1
  6
CONTINUOUS
370
25
100
AcDbCircle
 10
149.799476
 20
362.573442
 40
5.0
  0
ARC
  5
257
100
AcDbEntity
  8
M1
  6
CONTINUOUS
370
25
100
AcDbCircle
 10
149.799476
 20
347.573442
 40
6.999023
100
AcDbArc
 50
0.0
 51
180.0
  0
ARC
  5
258
100
AcDbEntity
  8
M1
  6
CONTINUOUS
370
25
100
AcDbCircle
 10
159.798439
 20
343.139451
 40
3.0
100
AcDbArc
 50
180.0
 51
259.33786
  0
ARC
  5
259
100
AcDbEntity
  8
M1
  6
CONTINUOUS
370
25
100
AcDbCircle
 10
139.799476
 20
343.140428
 40
3.000775
100
AcDbArc
 50
280.658203
 51
360.0
  0
CIRCLE
  5
25A
100
AcDbEntity
  8
M1
  6
CONTINUOUS
370
25
100
AcDbCircle
 10
212.585426
 20
326.323442
 40
5.0
  0
ARC
  5
25B
100
AcDbEntity
  8
M1
  6
CONTINUOUS
370
25
100
AcDbCircle
 10
199.595436
 20
318.823442
 40
6.999856
100
AcDbArc
 50
300.000671
 51
480.000679
  0
ARC
  5
25C
100
AcDbEntity
  8
M1
  6
CONTINUOUS
370
25
100
AcDbCircle
 10
200.755409
 20
307.946428
 40
2.999954
100
AcDbArc
 50
120.000511
 51
199.328171
  0
ARC
  5
25D
100
AcDbEntity
  8
M1
  6
CONTINUOUS
370
25
100
AcDbCircle
 10
190.755409
 20
325.266435
 40
2.999618
100
AcDbArc
 50
220.673309
 51
300.000397
  0
CIRCLE
  5
25E
100
AcDbEntity
  8
M1
  6
CONTINUOUS
370
25
100
AcDbCircle
 10
212.585426
 20
253.823442
 40
5.0
  0
ARC
  5
25F
100
AcDbEntity
  8
M1
  6
CONTINUOUS
370
25
100
AcDbCircle
 10
199.594459
 20
261.323442
 40
6.999856
100
AcDbArc
 50
239.999313
 51
419.999321
  0
ARC
  5
260
100
AcDbEntity
  8
M1
  6
CONTINUOUS
370
25
100
AcDbCircle
 10
190.755409
 20
254.880449
 40
2.999927
100
AcDbArc
 50
59.999195
 51
139.33902
  0
ARC
  5
261
100
AcDbEntity
  8
M1
  6
CONTINUOUS
370
25
100
AcDbCircle
 10
200.755409
 20
272.200426
 40
3.000099
100
AcDbArc
 50
160.670944
 51
239.999649
  0
CIRCLE
  5
262
100
AcDbEntity
  8
M1
  6
CONTINUOUS
370
25
100
AcDbCircle
 10
149.798439
 20
217.574434
 40
5.0
  0
ARC
  5
263
100
AcDbEntity
  8
M1
  6
CONTINUOUS
370
25
100
AcDbCircle
 10
149.798439
 20
232.574449
 40
7.0
100
AcDbArc
 50
180.0
 51
360.0
  0
ARC
  5
264
100
AcDbEntity
  8
M1
  6
CONTINUOUS
370
25
100
AcDbCircle
 10
139.798439
 20
237.008439
 40
3.0
100
AcDbArc
 50
0.0
 51
79.318871
  0
ARC
  5
265
100
AcDbEntity
  8
M1
  6
CONTINUOUS
370
25
100
AcDbCircle
 10
159.798439
 20
237.007432
 40
3.000967
100
AcDbArc
 50
100.677673
 51
180.0
  0
CIRCLE
  5
266
100
AcDbEntity
  8
M1
  6
CONTINUOUS
370
25
100
AcDbCircle
 10
87.012428
 20
253.824449
 40
5.0
  0
ARC
  5
267
100
AcDbEntity
  8
M1
  6
CONTINUOUS
370
25
100
AcDbCircle
 10
100.002418
 20
261.324449
 40
6.99983
100
AcDbArc
 50
120.000801
 51
300.000732
  0
ARC
  5
268
100
AcDbEntity
  8
M1
  6
CONTINUOUS
370
25
100
AcDbCircle
 10
98.842445
 20
272.201433
 40
2.999927
100
AcDbArc
 50
300.000793
 51
379.329105
  0
ARC
  5
269
100
AcDbEntity
  8
M1
  6
CONTINUOUS
370
25
100
AcDbCircle
 10
108.842445
 20
254.881425
 40
2.999638
100
AcDbArc
 50
40.673752
 51
120.000252
  0
CIRCLE
  5
26A
100
AcDbEntity
  8
M1
  6
CONTINUOUS
370
25
100
AcDbCircle
 10
87.012428
 20
326.324449
 40
5.0
  0
ARC
  5
26B
100
AcDbEntity
  8
M1
  6
CONTINUOUS
370
25
100
AcDbCircle
 10
100.003456
 20
318.824449
 40
6.998958
100
AcDbArc
 50
59.995071
 51
240.00325
  0
ARC
  5
26C
100
AcDbEntity
  8
M1
  6
CONTINUOUS
370
25
100
AcDbCircle
 10
108.842445
 20
325.267442
 40
2.999927
100
AcDbArc
 50
239.999191
 51
319.325439
  0
ARC
  5
26D
100
AcDbEntity
  8
M1
  6
CONTINUOUS
370
25
100
AcDbCircle
 10
98.842445
 20
307.947435
 40
3.000099
100
AcDbArc
 50
340.670959
 51
419.999641
  0
ARC
  5
26E
100
AcDbEntity
  8
M1
  6
CONTINUOUS
370
25
100
AcDbCircle
 10
149.798439
 20
290.073442
 40
64.001045
100
AcDbArc
 50
42.304226
 51
77.694534
  0
ARC
  5
26F
100
AcDbEntity
  8
M1
  6
CONTINUOUS
370
25
100
AcDbCircle
 10
149.798439
 20
290.073442
 40
54.73328
100
AcDbArc
 50
43.012878
 51
76.986221
  0
ARC
  5
270
100
AcDbEntity
  8
M1
  6
CONTINUOUS
370
25
100
AcDbCircle
 10
194.913429
 20
331.131425
 40
2.999927
100
AcDbArc
 50
300.000793
 51
402.298626
  0
ARC
  5
271
100
AcDbEntity
  8
M1
  6
CONTINUOUS
370
25
100
AcDbCircle
 10
192.013465
 20
329.456437
 40
2.999974
100
AcDbArc
 50
223.00032
 51
300.000519
  0
ARC
  5
272
100
AcDbEntity
  8
M1
  6
CONTINUOUS
370
25
100
AcDbCircle
 10
162.798439
 20
349.672441
 40
3.000063
100
AcDbArc
 50
77.682213
 51
180.0
  0
ARC
  5
273
100
AcDbEntity
  8
M1
  6
CONTINUOUS
370
25
100
AcDbCircle
 10
162.798439
 20
346.323442
 40
3.0
100
AcDbArc
 50
180.0
 51
256.997314
  0
ARC
  5
274
100
AcDbEntity
  8
M1
  6
CONTINUOUS
370
25
100
AcDbCircle
 10
149.798439
 20
290.073442
 40
64.000015
100
AcDbArc
 50
342.30481
 51
377.69519
  0
ARC
  5
275
100
AcDbEntity
  8
M1
  6
CONTINUOUS
370
25
100
AcDbCircle
 10
149.798439
 20
290.073442
 40
54.732826
100
AcDbArc
 50
343.013519
 51
376.986494
  0
ARC
  5
276
100
AcDbEntity
  8
M1
  6
CONTINUOUS
370
25
100
AcDbCircle
 10
207.912452
 20
271.532426
 40
2.999927
100
AcDbArc
 50
239.999191
 51
342.302246
  0
ARC
  5
277
100
AcDbEntity
  8
M1
  6
CONTINUOUS
370
25
100
AcDbCircle
 10
205.012428
 20
273.206437
 40
3.00007
100
AcDbArc
 50
163.002426
 51
239.999207
  0
ARC
  5
278
100
AcDbEntity
  8
M1
  6
CONTINUOUS
370
25
100
AcDbCircle
 10
207.912452
 20
308.614427
 40
2.999963
100
AcDbArc
 50
17.698597
 51
120.000221
  0
ARC
  5
279
100
AcDbEntity
  8
M1
  6
CONTINUOUS
370
25
100
AcDbCircle
 10
205.012428
 20
306.940446
 40
2.999927
100
AcDbArc
 50
120.000801
 51
196.997696
  0
ARC
  5
27A
100
AcDbEntity
  8
M1
  6
CONTINUOUS
370
25
100
AcDbCircle
 10
149.798439
 20
290.073442
 40
63.999191
100
AcDbArc
 50
282.304779
 51
317.695831
  0
ARC
  5
27B
100
AcDbEntity
  8
M1
  6
CONTINUOUS
370
25
100
AcDbCircle
 10
149.798439
 20
290.073442
 40
54.732536
100
AcDbArc
 50
283.012787
 51
316.987213
  0
ARC
  5
27C
100
AcDbEntity
  8
M1
  6
CONTINUOUS
370
25
100
AcDbCircle
 10
162.798439
 20
230.47545
 40
3.0
100
AcDbArc
 50
180.0
 51
282.295349
  0
ARC
  5
27D
100
AcDbEntity
  8
M1
  6
CONTINUOUS
370
25
100
AcDbCircle
 10
162.798439
 20
233.823442
 40
3.000161
100
AcDbArc
 50
103.02227
 51
180.0
  0
ARC
  5
27E
100
AcDbEntity
  8
M1
  6
CONTINUOUS
370
25
100
AcDbCircle
 10
194.912452
 20
249.016435
 40
3.000058
100
AcDbArc
 50
317.70166
 51
419.999352
  0
ARC
  5
27F
100
AcDbEntity
  8
M1
  6
CONTINUOUS
370
25
100
AcDbCircle
 10
192.012428
 20
250.690446
 40
2.999927
100
AcDbArc
 50
59.999195
 51
136.985275
  0
ARC
  5
280
100
AcDbEntity
  8
M1
  6
CONTINUOUS
370
25
100
AcDbCircle
 10
149.798439
 20
290.073442
 40
63.999653
100
AcDbArc
 50
222.304153
 51
257.695221
  0
ARC
  5
281
100
AcDbEntity
  8
M1
  6
CONTINUOUS
370
25
100
AcDbCircle
 10
149.798439
 20
290.073442
 40
54.732586
100
AcDbArc
 50
223.0121
 51
256.985992
  0
ARC
  5
282
100
AcDbEntity
  8
M1
  6
CONTINUOUS
370
25
100
AcDbCircle
 10
104.684425
 20
249.016435
 40
2.999927
100
AcDbArc
 50
120.000801
 51
222.29863
  0
ARC
  5
283
100
AcDbEntity
  8
M1
  6
CONTINUOUS
370
25
100
AcDbCircle
 10
107.584449
 20
250.691423
 40
2.999236
100
AcDbArc
 50
43.014271
 51
120.000282
  0
ARC
  5
284
100
AcDbEntity
  8
M1
  6
CONTINUOUS
370
25
100
AcDbCircle
 10
136.798439
 20
230.47545
 40
2.999842
100
AcDbArc
 50
257.701569
 51
360.0
  0
ARC
  5
285
100
AcDbEntity
  8
M1
  6
CONTINUOUS
370
25
100
AcDbCircle
 10
136.798439
 20
233.824449
 40
3.0
100
AcDbArc
 50
0.0
 51
76.996162
  0
ARC
  5
286
100
AcDbEntity
  8
M1
  6
CONTINUOUS
370
25
100
AcDbCircle
 10
149.798439
 20
290.073442
 40
63.999386
100
AcDbArc
 50
162.303711
 51
197.69429
  0
ARC
  5
287
100
AcDbEntity
  8
M1
  6
CONTINUOUS
370
25
100
AcDbCircle
 10
149.798439
 20
290.073442
 40
54.732117
100
AcDbArc
 50
163.012207
 51
196.985809
  0
ARC
  5
288
100
AcDbEntity
  8
M1
  6
CONTINUOUS
370
25
100
AcDbCircle
 10
91.684425
 20
308.615434
 40
2.999927
100
AcDbArc
 50
59.999195
 51
162.2957
  0
ARC
  5
289
100
AcDbEntity
  8
M1
  6
CONTINUOUS
370
25
100
AcDbCircle
 10
94.585426
 20
306.941423
 40
3.000061
100
AcDbArc
 50
343.002991
 51
419.999352
  0
ARC
  5
28A
100
AcDbEntity
  8
M1
  6
CONTINUOUS
370
25
100
AcDbCircle
 10
91.684425
 20
271.533433
 40
2.999023
100
AcDbArc
 50
197.70372
 51
300.00116
  0
ARC
  5
28B
100
AcDbEntity
  8
M1
  6
CONTINUOUS
370
25
100
AcDbCircle
 10
94.585426
 20
273.207445
 40
2.999954
100
AcDbArc
 50
300.000519
 51
376.997141
  0
ARC
  5
28C
100
AcDbEntity
  8
M1
  6
CONTINUOUS
370
25
100
AcDbCircle
 10
149.798439
 20
290.073442
 40
63.999966
100
AcDbArc
 50
102.303726
 51
137.69458
  0
ARC
  5
28D
100
AcDbEntity
  8
M1
  6
CONTINUOUS
370
25
100
AcDbCircle
 10
149.798439
 20
290.073442
 40
54.7323
100
AcDbArc
 50
103.011719
 51
136.986435
  0
ARC
  5
28E
100
AcDbEntity
  8
M1
  6
CONTINUOUS
370
25
100
AcDbCircle
 10
136.799476
 20
349.672441
 40
3.0
100
AcDbArc
 50
0.0
 51
102.298943
  0
ARC
  5
28F
100
AcDbEntity
  8
M1
  6
CONTINUOUS
370
25
100
AcDbCircle
 10
136.799476
 20
346.323442
 40
2.999179
100
AcDbArc
 50
283.026611
 51
360.0
  0
ARC
  5
290
100
AcDbEntity
  8
M1
  6
CONTINUOUS
370
25
100
AcDbCircle
 10
104.684425
 20
331.131425
 40
2.999336
100
AcDbArc
 50
137.689102
 51
239.999283
  0
ARC
  5
291
100
AcDbEntity
  8
M1
  6
CONTINUOUS
370
25
100
AcDbCircle
 10
107.585426
 20
329.457445
 40
2.999954
100
AcDbArc
 50
239.999481
 51
316.972473
  0
ARC
  5
292
100
AcDbEntity
  8
M1
  6
CONTINUOUS
370
25
100
AcDbCircle
 10
192.588417
 20
364.184434
 40
4.000015
100
AcDbArc
 50
94.057335
 51
385.930864
  0
ARC
  5
293
100
AcDbEntity
  8
M1
  6
CONTINUOUS
370
25
100
AcDbCircle
 10
149.798439
 20
290.073442
 40
57.499512
100
AcDbArc
 50
85.213463
 51
94.550568
  0
CIRCLE
  5
294
100
AcDbEntity
  8
M1
  6
CONTINUOUS
370
25
100
AcDbCircle
 10
149.798439
 20
347.573442
 40
2.400009
  0
CIRCLE
  5
295
100
AcDbEntity
  8
M1
  6
CONTINUOUS
370
25
100
AcDbCircle
 10
149.798439
 20
347.573442
 40
3.0
  0
ARC
  5
296
100
AcDbEntity
  8
M1
  6
CONTINUOUS
370
25
100
AcDbCircle
 10
149.798439
 20
290.073442
 40
57.500187
100
AcDbArc
 50
145.213562
 51
154.550003
  0
CIRCLE
  5
297
100
AcDbEntity
  8
M1
  6
CONTINUOUS
370
25
100
AcDbCircle
 10
100.002418
 20
318.823442
 40
2.400002
  0
CIRCLE
  5
298
100
AcDbEntity
  8
M1
  6
CONTINUOUS
370
25
100
AcDbCircle
 10
100.002418
 20
318.823442
 40
3.0
  0
ARC
  5
299
100
AcDbEntity
  8
M1
  6
CONTINUOUS
370
25
100
AcDbCircle
 10
149.798439
 20
290.073442
 40
57.499046
100
AcDbArc
 50
205.213333
 51
214.550735
  0
CIRCLE
  5
29A
100
AcDbEntity
  8
M1
  6
CONTINUOUS
370
25
100
AcDbCircle
 10
100.002418
 20
261.324449
 40
2.400002
  0
CIRCLE
  5
29B
100
AcDbEntity
  8
M1
  6
CONTINUOUS
370
25
100
AcDbCircle
 10
100.002418
 20
261.324449
 40
3.0
  0
ARC
  5
29C
100
AcDbEntity
  8
M1
  6
CONTINUOUS
370
25
100
AcDbCircle
 10
149.798439
 20
290.073442
 40
57.499458
100
AcDbArc
 50
265.214447
 51
274.550629
  0
CIRCLE
  5
29D
100
AcDbEntity
  8
M1
  6
CONTINUOUS
370
25
100
AcDbCircle
 10
149.798439
 20
232.574449
 40
2.400009
  0
CIRCLE
  5
29E
100
AcDbEntity
  8
M1
  6
CONTINUOUS
370
25
100
AcDbCircle
 10
149.798439
 20
232.574449
 40
3.0
  0
ARC
  5
29F
100
AcDbEntity
  8
M1
  6
CONTINUOUS
370
25
100
AcDbCircle
 10
149.798439
 20
290.073442
 40
57.499649
100
AcDbArc
 50
325.214325
 51
334.550873
  0
CIRCLE
  5
2A0
100
AcDbEntity
  8
M1
  6
CONTINUOUS
370
25
100
AcDbCircle
 10
199.594459
 20
261.324449
 40
2.399994
  0
CIRCLE
  5
2A1
100
AcDbEntity
  8
M1
  6
CONTINUOUS
370
25
100
AcDbCircle
 10
199.594459
 20
261.324449
 40
3.0
  0
ARC
  5
2A2
100
AcDbEntity
  8
M1
  6
CONTINUOUS
370
25
100
AcDbCircle
 10
149.798439
 20
290.073442
 40
57.49947
100
AcDbArc
 50
25.21422
 51
34.551506
  0
CIRCLE
  5
2A3
100
AcDbEntity
  8
M1
  6
CONTINUOUS
370
25
100
AcDbCircle
 10
199.594459
 20
318.823442
 40
2.399994
  0
CIRCLE
  5
2A4
100
AcDbEntity
  8
M1
  6
CONTINUOUS
370
25
100
AcDbCircle
 10
199.594459
 20
318.823442
 40
3.0
  0
ARC
  5
2A5
100
AcDbEntity
  8
M1
  6
CONTINUOUS
370
25
100
AcDbCircle
 10
200.831459
 20
400.861436
 40
8.960371
100
AcDbArc
 50
330.001282
 51
389.998711
  0
ARC
  5
2A6
100
AcDbEntity
  8
M1
  6
CONTINUOUS
370
25
100
AcDbCircle
 10
200.831459
 20
400.861436
 40
11.20046
100
AcDbArc
 50
330.001312
 51
389.998678
  0
ARC
  5
2A7
100
AcDbEntity
  8
M1
  6
CONTINUOUS
370
25
100
AcDbCircle
 10
220.230445
 20
389.661424
 40
11.200012
100
AcDbArc
 50
90.0
 51
149.99881
  0
ARC
  5
2A8
100
AcDbEntity
  8
M1
  6
CONTINUOUS
370
25
100
AcDbCircle
 10
220.230445
 20
389.661424
 40
8.960022
100
AcDbArc
 50
90.0
 51
150.001328
  0
CIRCLE
  5
2A9
100
AcDbEntity
  8
M1
  6
CONTINUOUS
370
25
100
AcDbCircle
 10
618.221686
 20
290.073442
 40
81.0
  0
CIRCLE
  5
2AA
100
AcDbEntity
  8
M1
  6
CONTINUOUS
370
25
100
AcDbCircle
 10
618.221686
 20
290.073442
 40
65.0
  0
CIRCLE
  5
2AB
100
AcDbEntity
  8
M1
  6
CONTINUOUS
370
25
100
AcDbCircle
 10
618.221686
 20
290.073442
 40
33.0
  0
CIRCLE
  5
2AC
100
AcDbEntity
  8
M1
  6
CONTINUOUS
370
25
100
AcDbCircle
 10
618.221686
 20
290.073442
 40
17.0
  0
ARC
  5
2AD
100
AcDbEntity
  8
M1
  6
CONTINUOUS
370
25
100
AcDbCircle
 10
618.221686
 20
290.073442
 40
12.5
100
AcDbArc
 50
106.260208
 51
433.739792
  0
CIRCLE
  5
2AE
100
AcDbEntity
  8
M1
  6
CONTINUOUS
370
25
100
AcDbCircle
 10
618.221686
 20
290.073442
 40
91.0
  0
CIRCLE
  5
2AF
100
AcDbEntity
  8
M1
  6
CONTINUOUS
370
25
100
AcDbCircle
 10
618.220649
 20
362.573442
 40
5.0
  0
CIRCLE
  5
2B0
100
AcDbEntity
  8
M1
  6
CONTINUOUS
370
25
100
AcDbCircle
 10
555.434638
 20
326.322435
 40
5.0
  0
CIRCLE
  5
2B1
100
AcDbEntity
  8
M1
  6
CONTINUOUS
370
25
100
AcDbCircle
 10
555.434638
 20
253.823442
 40
5.001038
  0
CIRCLE
  5
2B2
100
AcDbEntity
  8
M1
  6
CONTINUOUS
370
25
100
AcDbCircle
 10
618.222663
 20
217.574434
 40
5.0
  0
CIRCLE
  5
2B3
100
AcDbEntity
  8
M1
  6
CONTINUOUS
370
25
100
AcDbCircle
 10
681.008674
 20
253.824449
 40
5.0
  0
CIRCLE
  5
2B4
100
AcDbEntity
  8
M1
  6
CONTINUOUS
370
25
100
AcDbCircle
 10
681.007636
 20
326.324449
 40
5.0
  0
ARC
  5
2B5
100
AcDbEntity
  8
M1
  6
CONTINUOUS
370
25
100
AcDbCircle
 10
618.221686
 20
290.073442
 40
40.500885
100
AcDbArc
 50
108.664017
 51
131.338364
  0
ARC
  5
2B6
100
AcDbEntity
  8
M1
  6
CONTINUOUS
370
25
100
AcDbCircle
 10
618.221686
 20
290.073442
 40
34.000507
100
AcDbArc
 50
106.602623
 51
133.399521
  0
ARC
  5
2B7
100
AcDbEntity
  8
M1
  6
CONTINUOUS
370
25
100
AcDbCircle
 10
606.221686
 20
325.601427
 40
3.0
100
AcDbArc
 50
0.0
 51
108.676208
  0
ARC
  5
2B8
100
AcDbEntity
  8
M1
  6
CONTINUOUS
370
25
100
AcDbCircle
 10
593.452643
 20
318.229448
 40
3.000712
100
AcDbArc
 50
131.338638
 51
239.999298
  0
ARC
  5
2B9
100
AcDbEntity
  8
M1
  6
CONTINUOUS
370
25
100
AcDbCircle
 10
594.173652
 20
315.504442
 40
0.999976
100
AcDbArc
 50
239.999191
 51
313.381287
  0
ARC
  5
2BA
100
AcDbEntity
  8
M1
  6
CONTINUOUS
370
25
100
AcDbCircle
 10
608.221686
 20
323.614427
 40
0.999465
100
AcDbArc
 50
286.566376
 51
360.0
  0
CIRCLE
  5
2BB
100
AcDbEntity
  8
M1
  6
CONTINUOUS
370
25
100
AcDbCircle
 10
618.220649
 20
312.073442
 40
4.0
  0
CIRCLE
  5
2BC
100
AcDbEntity
  8
M1
  6
CONTINUOUS
370
25
100
AcDbCircle
 10
599.168647
 20
301.072435
 40
4.0
  0
CIRCLE
  5
2BD
100
AcDbEntity
  8
M1
  6
CONTINUOUS
370
25
100
AcDbCircle
 10
599.169684
 20
279.073442
 40
4.0
  0
CIRCLE
  5
2BE
100
AcDbEntity
  8
M1
  6
CONTINUOUS
370
25
100
AcDbCircle
 10
618.222663
 20
268.074449
 40
4.0
  0
CIRCLE
  5
2BF
100
AcDbEntity
  8
M1
  6
CONTINUOUS
370
25
100
AcDbCircle
 10
637.273688
 20
279.074449
 40
4.0
  0
CIRCLE
  5
2C0
100
AcDbEntity
  8
M1
  6
CONTINUOUS
370
25
100
AcDbCircle
 10
637.272651
 20
301.074449
 40
4.0
  0
ARC
  5
2C1
100
AcDbEntity
  8
M1
  6
CONTINUOUS
370
25
100
AcDbCircle
 10
618.221686
 20
290.073442
 40
40.500362
100
AcDbArc
 50
168.662323
 51
191.337631
  0
ARC
  5
2C2
100
AcDbEntity
  8
M1
  6
CONTINUOUS
370
25
100
AcDbCircle
 10
618.221686
 20
290.073442
 40
34.000515
100
AcDbArc
 50
166.600952
 51
193.399002
  0
ARC
  5
2C3
100
AcDbEntity
  8
M1
  6
CONTINUOUS
370
25
100
AcDbCircle
 10
581.452643
 20
297.445451
 40
2.999927
100
AcDbArc
 50
59.999195
 51
168.656525
  0
ARC
  5
2C4
100
AcDbEntity
  8
M1
  6
CONTINUOUS
370
25
100
AcDbCircle
 10
581.452643
 20
282.701433
 40
2.999576
100
AcDbArc
 50
191.343658
 51
300.017944
  0
ARC
  5
2C5
100
AcDbEntity
  8
M1
  6
CONTINUOUS
370
25
100
AcDbCircle
 10
584.174628
 20
281.962449
 40
0.999488
100
AcDbArc
 50
299.952332
 51
373.423334
  0
ARC
  5
2C6
100
AcDbEntity
  8
M1
  6
CONTINUOUS
370
25
100
AcDbCircle
 10
584.173652
 20
298.183427
 40
1.000064
100
AcDbArc
 50
346.64566
 51
419.999546
  0
ARC
  5
2C7
100
AcDbEntity
  8
M1
  6
CONTINUOUS
370
25
100
AcDbCircle
 10
618.221686
 20
290.073442
 40
40.50024
100
AcDbArc
 50
228.66272
 51
251.336838
  0
ARC
  5
2C8
100
AcDbEntity
  8
M1
  6
CONTINUOUS
370
25
100
AcDbCircle
 10
618.221686
 20
290.073442
 40
33.999695
100
AcDbArc
 50
226.601669
 51
253.398468
  0
ARC
  5
2C9
100
AcDbEntity
  8
M1
  6
CONTINUOUS
370
25
100
AcDbCircle
 10
593.452643
 20
261.917436
 40
2.999927
100
AcDbArc
 50
120.000801
 51
228.676147
  0
ARC
  5
2CA
100
AcDbEntity
  8
M1
  6
CONTINUOUS
370
25
100
AcDbCircle
 10
606.221686
 20
254.545427
 40
2.999749
100
AcDbArc
 50
251.335007
 51
360.0
  0
ARC
  5
2CB
100
AcDbEntity
  8
M1
  6
CONTINUOUS
370
25
100
AcDbCircle
 10
608.221686
 20
256.532426
 40
1.0
100
AcDbArc
 50
0.0
 51
73.397224
  0
ARC
  5
2CC
100
AcDbEntity
  8
M1
  6
CONTINUOUS
370
25
100
AcDbCircle
 10
594.173652
 20
264.643449
 40
1.000189
100
AcDbArc
 50
46.539207
 51
120.000862
  0
ARC
  5
2CD
100
AcDbEntity
  8
M1
  6
CONTINUOUS
370
25
100
AcDbCircle
 10
618.221686
 20
290.073442
 40
40.499596
100
AcDbArc
 50
288.663055
 51
311.338165
  0
ARC
  5
2CE
100
AcDbEntity
  8
M1
  6
CONTINUOUS
370
25
100
AcDbCircle
 10
618.221686
 20
290.073442
 40
33.999241
100
AcDbArc
 50
286.60141
 51
313.399414
  0
ARC
  5
2CF
100
AcDbEntity
  8
M1
  6
CONTINUOUS
370
25
100
AcDbCircle
 10
630.221686
 20
254.545427
 40
3.0
100
AcDbArc
 50
180.0
 51
288.66394
  0
ARC
  5
2D0
100
AcDbEntity
  8
M1
  6
CONTINUOUS
370
25
100
AcDbCircle
 10
642.989631
 20
261.917436
 40
3.000019
100
AcDbArc
 50
311.351837
 51
420.008835
  0
ARC
  5
2D1
100
AcDbEntity
  8
M1
  6
CONTINUOUS
370
25
100
AcDbCircle
 10
642.268683
 20
264.643449
 40
1.000464
100
AcDbArc
 50
59.95076
 51
133.380539
  0
ARC
  5
2D2
100
AcDbEntity
  8
M1
  6
CONTINUOUS
370
25
100
AcDbCircle
 10
628.221686
 20
256.533433
 40
0.999791
100
AcDbArc
 50
106.622856
 51
180.0
  0
ARC
  5
2D3
100
AcDbEntity
  8
M1
  6
CONTINUOUS
370
25
100
AcDbCircle
 10
618.221686
 20
290.073442
 40
40.499146
100
AcDbArc
 50
348.663422
 51
371.33798
  0
ARC
  5
2D4
100
AcDbEntity
  8
M1
  6
CONTINUOUS
370
25
100
AcDbCircle
 10
618.221686
 20
290.073442
 40
33.999271
100
AcDbArc
 50
346.602203
 51
373.401081
  0
ARC
  5
2D5
100
AcDbEntity
  8
M1
  6
CONTINUOUS
370
25
100
AcDbCircle
 10
654.989631
 20
282.70244
 40
3.000799
100
AcDbArc
 50
240.008804
 51
348.656311
  0
ARC
  5
2D6
100
AcDbEntity
  8
M1
  6
CONTINUOUS
370
25
100
AcDbCircle
 10
654.989631
 20
297.445451
 40
2.999635
100
AcDbArc
 50
11.343428
 51
120.007408
  0
ARC
  5
2D7
100
AcDbEntity
  8
M1
  6
CONTINUOUS
370
25
100
AcDbCircle
 10
652.268683
 20
298.184434
 40
0.999976
100
AcDbArc
 50
120.000801
 51
193.35376
  0
ARC
  5
2D8
100
AcDbEntity
  8
M1
  6
CONTINUOUS
370
25
100
AcDbCircle
 10
652.268683
 20
281.963426
 40
1.000304
100
AcDbArc
 50
166.58783
 51
239.998734
  0
ARC
  5
2D9
100
AcDbEntity
  8
M1
  6
CONTINUOUS
370
25
100
AcDbCircle
 10
618.221686
 20
290.073442
 40
40.499557
100
AcDbArc
 50
48.663857
 51
71.338699
  0
ARC
  5
2DA
100
AcDbEntity
  8
M1
  6
CONTINUOUS
370
25
100
AcDbCircle
 10
618.221686
 20
290.073442
 40
33.99966
100
AcDbArc
 50
46.601757
 51
73.400757
  0
ARC
  5
2DB
100
AcDbEntity
  8
M1
  6
CONTINUOUS
370
25
100
AcDbCircle
 10
642.989631
 20
318.230424
 40
3.000799
100
AcDbArc
 50
299.99118
 51
408.663006
  0
ARC
  5
2DC
100
AcDbEntity
  8
M1
  6
CONTINUOUS
370
25
100
AcDbCircle
 10
630.220649
 20
325.601427
 40
3.000732
100
AcDbArc
 50
71.341354
 51
180.0
  0
ARC
  5
2DD
100
AcDbEntity
  8
M1
  6
CONTINUOUS
370
25
100
AcDbCircle
 10
628.220649
 20
323.614427
 40
1.0
100
AcDbArc
 50
179.942291
 51
253.37645
  0
ARC
  5
2DE
100
AcDbEntity
  8
M1
  6
CONTINUOUS
370
25
100
AcDbCircle
 10
642.268683
 20
315.504442
 40
1.00025
100
AcDbArc
 50
226.619492
 51
300.00061
  0
ARC
  5
2DF
100
AcDbEntity
  8
M1
  6
CONTINUOUS
370
25
100
AcDbCircle
 10
547.79267
 20
389.663438
 40
8.960371
100
AcDbArc
 50
29.998711
 51
90.0
  0
ARC
  5
2E0
100
AcDbEntity
  8
M1
  6
CONTINUOUS
370
25
100
AcDbCircle
 10
547.79267
 20
389.663438
 40
11.20046
100
AcDbArc
 50
29.998678
 51
90.0
  0
ARC
  5
2E1
100
AcDbEntity
  8
M1
  6
CONTINUOUS
370
25
100
AcDbCircle
 10
567.191657
 20
400.86345
 40
11.199546
100
AcDbArc
 50
149.99881
 51
210.001373
  0
ARC
  5
2E2
100
AcDbEntity
  8
M1
  6
CONTINUOUS
370
25
100
AcDbCircle
 10
567.191657
 20
400.86345
 40
8.960356
100
AcDbArc
 50
150.001465
 51
210.007553
  0
ARC
  5
2E3
100
AcDbEntity
  8
M1
  6
CONTINUOUS
370
25
100
AcDbCircle
 10
438.118903
 20
217.574434
 40
8.660212
100
AcDbArc
 50
339.731995
 51
380.268005
  0
ARC
  5
2E4
100
AcDbEntity
  8
M1
  6
CONTINUOUS
370
25
100
AcDbCircle
 10
444.717872
 20
221.961442
 40
2.061407
100
AcDbArc
 50
317.712921
 51
402.266644
  0
ARC
  5
2E5
100
AcDbEntity
  8
M1
  6
CONTINUOUS
370
25
100
AcDbCircle
 10
444.717872
 20
213.18744
 40
2.06073
100
AcDbArc
 50
317.733643
 51
402.286789
  0
TEXT
  5
2E6
100
AcDbEntity
  8
M1
100
AcDbText
 10
624.948853
 20
130.475128
 40
9.0
  1
ＰＨＢ－２．５
 41
0.900585
  7
STANDARD
100
AcDbText
  0
TEXT
  5
2E7
100
AcDbEntity
  8
M1
100
AcDbText
 10
622.527344
 20
113.521667
 40
7.0
  1
（ＳＤＫ６３４３）
 41
1.0
  7
STANDARD
100
AcDbText
  0
LINE
  5
2E8
100
AcDbEntity
  8
M1
  6
CONTINUOUS
370
25
100
AcDbLine
 10
190.631446
 20
365.275438
 11
190.944862
 21
364.569719
  0
LINE
  5
2E9
100
AcDbEntity
  8
M1
  6
CONTINUOUS
370
25
100
AcDbLine
 10
190.944862
 20
364.569719
 11
191.378456
 21
364.139451
  0
LINE
  5
2EA
100
AcDbEntity
  8
M1
  6
CONTINUOUS
370
25
100
AcDbLine
 10
191.378456
 20
364.139451
 11
191.948768
 21
364.081712
  0
LINE
  5
2EB
100
AcDbEntity
  8
M1
  6
CONTINUOUS
370
25
100
AcDbLine
 10
191.948768
 20
364.081712
 11
192.631446
 21
364.258439
  0
LINE
  5
2EC
100
AcDbEntity
  8
M1
  6
CONTINUOUS
370
25
100
AcDbLine
 10
192.588417
 20
364.184434
 11
192.876625
 21
363.536424
  0
LINE
  5
2ED
100
AcDbEntity
  8
M1
  6
CONTINUOUS
370
25
100
AcDbLine
 10
192.876625
 20
363.536424
 11
193.289466
 21
363.134447
  0
LINE
  5
2EE
100
AcDbEntity
  8
M1
  6
CONTINUOUS
370
25
100
AcDbLine
 10
193.289466
 20
363.134447
 11
193.961158
 21
363.138841
  0
LINE
  5
2EF
100
AcDbEntity
  8
M1
  6
CONTINUOUS
370
25
100
AcDbLine
 10
193.961158
 20
363.138841
 11
194.770423
 21
363.482438
  0
LINE
  5
2F0
100
AcDbEntity
  8
M1
  6
CONTINUOUS
370
25
100
AcDbLine
 10
353.777839
 20
345.574449
 11
338.777839
 21
345.574449
  0
LINE
  5
2F1
100
AcDbEntity
  8
M1
  6
CONTINUOUS
370
25
100
AcDbLine
 10
350.777839
 20
344.574449
 11
338.777839
 21
344.574449
  0
LINE
  5
2F2
100
AcDbEntity
  8
M1
  6
CONTINUOUS
370
25
100
AcDbLine
 10
350.777839
 20
350.574449
 11
350.777839
 21
344.574449
  0
LINE
  5
2F3
100
AcDbEntity
  8
M1
  6
CONTINUOUS
370
25
100
AcDbLine
 10
350.777839
 20
350.574449
 11
352.50989
 21
349.574449
  0
LINE
  5
2F4
100
AcDbEntity
  8
M1
  6
CONTINUOUS
370
25
100
AcDbLine
 10
353.777839
 20
349.574449
 11
353.777839
 21
345.574449
  0
LINE
  5
2F5
100
AcDbEntity
  8
M1
  6
CONTINUOUS
370
25
100
AcDbLine
 10
353.777839
 20
345.574449
 11
354.932539
 21
347.574449
  0
LINE
  5
2F6
100
AcDbEntity
  8
M1
  6
CONTINUOUS
370
25
100
AcDbLine
 10
353.777839
 20
349.574449
 11
354.932539
 21
347.574449
  0
LINE
  5
2F7
100
AcDbEntity
  8
M1
  6
CONTINUOUS
370
25
100
AcDbLine
 10
350.777839
 20
350.574449
 11
338.777839
 21
350.574449
  0
LINE
  5
2F8
100
AcDbEntity
  8
M1
  6
CONTINUOUS
370
25
100
AcDbLine
 10
353.777839
 20
349.574449
 11
338.777839
 21
349.574449
  0
LINE
  5
2F9
100
AcDbEntity
  8
M1
  6
CONTINUOUS
370
25
100
AcDbLine
 10
350.777839
 20
344.574449
 11
352.50989
 21
345.574449
  0
ENDSEC
  0
SECTION
  2
OBJECTS
  0
DICTIONARY
  5
C
100
AcDbDictionary
  3
ACAD_GROUP
350
D
  3
ACAD_MLINESTYLE
350
E
  0
DICTIONARY
  5
D
102
{ACAD_REACTORS
330
C
102
}
100
AcDbDictionary
  0
DICTIONARY
  5
E
102
{ACAD_REACTORS
330
C
102
}
100
AcDbDictionary
  3
STANDARD
350
13
  0
MLINESTYLE
  5
13
102
{ACAD_REACTORS
330
E
102
}
100
AcDbMlineStyle
  2
STANDARD
 70
     0
  3

 62
     0
 51
90.0
 52
90.0
 71
     2
 49
0.5
 62
   256
  6
BYLAYER
 49
-0.5
 62
   256
  6
BYLAYER
  0
ENDSEC
  0
EOF
