  0
SECTION
  2
HEADER
  9
$ACADVER
  1
AC1015
  9
$INSBASE
 10
0.0
 20
0.0
  9
$VIEWCTR
 10
7.531722
 20
4.5
  9
$VIEWSIZE
 40
9.0
  9
$SNAPMODE
 70
     0
  9
$SNAPUNIT
 10
1.0
 20
1.0
  9
$SNAPBASE
 10
0.0
 20
0.0
  9
$SNAPANG
 50
0.0
  9
$SNAPSTYLE
 70
     0
  9
$SNAPISOPAIR
 70
     0
  9
$GRIDMODE
 70
     0
  9
$GRIDUNIT
 10
0.0
 20
0.0
  9
$ORTHOMODE
 70
     0
  9
$REGENMODE
 70
     1
  9
$FILLMODE
 70
     1
  9
$QTEXTMODE
 70
     0
  9
$DRAGMODE
 70
     2
  9
$LTSCALE
 40
1.0
  9
$OSMODE
 70
     0
  9
$ATTMODE
 70
     1
  9
$TEXTSIZE
 40
0.2
  9
$TRACEWID
 40
0.05
  9
$TEXTSTYLE
  7
STANDARD
  9
$CELTYPE
  6
BYLAYER
  9
$CECOLOR
 62
   256
  9
$DIMSCALE
 40
1.0
  9
$DIMASZ
 40
0.18
  9
$DIMEXO
 40
0.0625
  9
$DIMDLI
 40
0.38
  9
$DIMRND
 40
0.0
  9
$DIMDLE
 40
0.0
  9
$DIMEXE
 40
0.18
  9
$DIMTP
 40
0.0
  9
$DIMTM
 40
0.0
  9
$DIMTXT
 40
0.18
  9
$DIMCEN
 40
0.09
  9
$DIMTSZ
 40
0.0
  9
$DIMADEC
 70
     0
  9
$DIMALTRND
 40
0.000000
  9
$DIMAZIN
 70
     0
  9
$DIMDSEP
 70
    46
  9
$DIMATFIT
 70
     3
  9
$DIMFRAC
 70
     0
  9
$DIMLDRBLK
  1

  9
$DIMLUNIT
 70
     2
  9
$DIMLWD
 70
   13
  9
$DIMLWE
 70
   13
  9
$DIMTMOVE
 70
     0
  9
$CELWEIGHT
370
    25
  9
$LWDISPLAY
290
    1
  9
$EXTNAMES
290
    1
  9
$DIMTOL
 70
     0
  9
$DIMLIM
 70
     0
  9
$DIMTIH
 70
     1
  9
$DIMTOH
 70
     1
  9
$DIMSE1
 70
     0
  9
$DIMSE2
 70
     0
  9
$DIMTAD
 70
     0
  9
$DIMZIN
 70
     0
  9
$DIMBLK
  1

  9
$LUNITS
 70
     2
  9
$LUPREC
 70
     4
  9
$AXISMODE
 70
     0
  9
$AXISUNIT
 10
0.0
 20
0.0
  9
$SKETCHINC
 40
0.1
  9
$FILLETRAD
 40
0.0
  9
$AUNITS
 70
     0
  9
$AUPREC
 70
     0
  9
$MENU
  1
ACAD
  9
$ELEVATION
 40
0.0
  9
$THICKNESS
 40
0.0
  9
$VIEWDIR
 10
0.0
 20
0.0
 30
1.0
  9
$LIMCHECK
 70
     0
  9
$BLIPMODE
 70
     1
  9
$CHAMFERA
 40
0.0
  9
$CHAMFERB
 40
0.0
  9
$FASTZOOM
 70
     1
  9
$SKPOLY
 70
     0
  9
$TDCREATE
 40
0000000.0000000000
  9
$TDUPDATE
 40
0000000.0000000000
  9
$TDINDWG
 40
0.0000000000
  9
$TDUSRTIMER
 40
0.0000000000
  9
$USRTIMER
 70
     1
  9
$ANGBASE
 50
0.0
  9
$ANGDIR
 70
     0
  9
$PDMODE
 70
     0
  9
$PDSIZE
 40
0.0
  9
$PLINEWID
 40
0.0
  9
$COORDS
 70
     0
  9
$USERI1
 70
     0
  9
$USERI2
 70
     0
  9
$USERI3
 70
     0
  9
$USERI4
 70
     0
  9
$USERI5
 70
     0
  9
$USERR1
 40
0.0
  9
$USERR2
 40
0.0
  9
$USERR3
 40
0.0
  9
$USERR4
 40
0.0
  9
$USERR5
 40
0.0
  9
$CLAYER
  8
M0
  9
$EXTMIN
 10
0.0
 20
0.0
  9
$EXTMAX
 10
841.0
 20
594.0
  9
$LIMMIN
 10
0.0
 20
0.0
  9
$LIMMAX
 10
841.0
 20
594.0
  9
$HANDSEED
  5
2E3
  0
ENDSEC
  0
SECTION
  2
CLASSES
  0
ENDSEC
  0
SECTION
  2
TABLES
  0
TABLE
  2
VPORT
  5
8
100
AcDbSymbolTable
 70
     2
  0
VPORT
  5
14
100
AcDbSymbolTableRecord
100
AcDbViewportTableRecord
  2
*ACTIVE
 70
     0
 10
0.0
 20
0.0
 11
1.0
 21
1.0
 12
484.0
 22
297.0
 13
0.0
 23
0.0
 14
1.0
 24
1.0
 15
0.0
 25
0.0
 16
0.0
 26
0.0
 36
1.0
 17
0.0
 27
0.0
 37
0.0
 40
594.0
 41
2.0
 42
50.0
 43
0.0
 44
0.0
 50
0.0
 51
0.0
 71
     0
 72
   100
 73
     1
 74
     1
 75
     0
 76
     0
 77
     0
 78
     0
  0
ENDTAB
  0
TABLE
  2
LTYPE
  5
5
100
AcDbSymbolTable
 70
     5
  0
LTYPE
  5
15
100
AcDbSymbolTableRecord
100
AcDbLinetypeTableRecord
  2
BYBLOCK
 70
     0
  3

 72
    65
 73
     0
 40
0.0
  0
LTYPE
  5
16
100
AcDbSymbolTableRecord
100
AcDbLinetypeTableRecord
  2
BYLAYER
 70
     0
  3

 72
    65
 73
     0
 40
0.0
  0
LTYPE
  5
17
100
AcDbSymbolTableRecord
100
AcDbLinetypeTableRecord
  2
CONTINUOUS
 70
    64
  3
Solid line
 72
    65
 73
     0
 40
0.0
  0
LTYPE
  5
18
100
AcDbSymbolTableRecord
100
AcDbLinetypeTableRecord
  2
DASHED
 70
    64
  3
__ __ __ __ __ __ __ __ __ __ __ __ __ __ __ __
 72
    65
 73
     2
 40
0.75
 49
0.5
 74
     0
 49
-0.25
 74
     0
  0
LTYPE
  5
19
100
AcDbSymbolTableRecord
100
AcDbLinetypeTableRecord
  2
DASHDOT
 70
    64
  3
__ . __ . __ . __ . __ . __ . __ . __ . __ . __
 72
    65
 73
     4
 40
1.0
 49
0.5
 74
     0
 49
-0.25
 74
     0
 49
0.0
 74
     0
 49
-0.25
 74
     0
  0
LTYPE
  5
1A
100
AcDbSymbolTableRecord
100
AcDbLinetypeTableRecord
  2
DIVIDE
 70
    64
  3
____ . . ____ . . ____ . . ____ . . ____ . . __
 72
    65
 73
     6
 40
1.25
 49
0.5
 74
     0
 49
-0.25
 74
     0
 49
0.0
 74
     0
 49
-0.25
 74
     0
 49
0.0
 74
     0
 49
-0.25
 74
     0
  0
LTYPE
  5
1B
100
AcDbSymbolTableRecord
100
AcDbLinetypeTableRecord
  2
DOT
 70
    64
  3
. . . . . . . . . . . . . . . . . . . . . . . .
 72
    65
 73
     2
 40
0.25
 49
0.0
 74
     0
 49
-0.25
 74
     0
  0
ENDTAB
  0
TABLE
  2
LAYER
  5
2
100
AcDbSymbolTable
 70
   102
  0
LAYER
  5
F
100
AcDbSymbolTableRecord
100
AcDbLayerTableRecord
  2
0
 70
     0
 62
     7
  6
CONTINUOUS
370
     -3
390
F
  0
LAYER
  5
1C
100
AcDbSymbolTableRecord
100
AcDbLayerTableRecord
  2
M0
 70
     0
 62
     7
  6
CONTINUOUS
370
     -3
390
F
  0
ENDTAB
  0
TABLE
  2
STYLE
  5
3
100
AcDbSymbolTable
 70
     2
  0
STYLE
  5
10
100
AcDbSymbolTableRecord
100
AcDbTextStyleTableRecord
  2
STANDARD
 70
     0
 40
0.0
 41
1.0
 50
0.0
 71
     0
 42
0.2
  3
txt
  4
BIGFONT
  0
ENDTAB
  0
TABLE
  2
VIEW
  5
6
100
AcDbSymbolTable
 70
     0
  0
ENDTAB
  0
TABLE
  2
UCS
  5
7
100
AcDbSymbolTable
 70
     0
  0
ENDTAB
  0
TABLE
  2
APPID
  5
9
100
AcDbSymbolTable
 70
     1
  0
APPID
  5
11
100
AcDbSymbolTableRecord
100
AcDbRegAppTableRecord
  2
ACAD
 70
     0
  0
ENDTAB
  0
TABLE
  2
DIMSTYLE
  5
A
100
AcDbSymbolTable
 70
     2
100
AcDbDimStyleTable
 71
     1
  0
DIMSTYLE
105
23
100
AcDbSymbolTableRecord
100
AcDbDimStyleTableRecord
  2
STANDARD
 70
     0
  3

  4

  5

  6
_OPEN
  7
_OPEN
 40
1.0
 41
3.0
 42
0.5
 43
8.0
 44
1.5
 45
0.0
 46
0.0
 47
0.0
 48
0.0
140
3.15
141
0.09
142
0.0
143
0.03937
144
1.0
145
0.0
146
1.0
147
1.0
148
0.000000
 71
     0
 72
     0
 73
     0
 74
     0
 75
     0
 76
     0
 77
     3
 78
     8
170
     0
171
     2
172
     0
173
     1
174
     0
175
     0
176
     0
177
     0
178
     0
270
     2
271
     2
272
     4
273
     2
274
     2
340
10
275
     0
278
    46
280
     0
281
     0
282
     0
283
     1
284
     0
285
     0
286
     0
287
     3
288
     0
371
   13
372
   13
  0
DIMSTYLE
105
24
100
AcDbSymbolTableRecord
100
AcDbDimStyleTableRecord
  2
LEADSTYL
 70
     0
  3

  4

  5

  6
_OPEN
  7
_OPEN
 40
1.0
 41
3.0
 42
0.0625
 43
0.38
 44
0.18
 45
0.0
 46
0.0
 47
0.0
 48
0.0
140
3.15
141
0.09
142
0.0
143
25.4
144
1.0
145
0.0
146
1.0
147
1.0
 71
     0
 72
     0
 73
     1
 74
     1
 75
     0
 76
     0
 77
     0
 78
     0
170
     0
171
     2
172
     0
173
     1
174
     0
175
     0
176
     0
177
     0
178
     0
270
     2
271
     4
272
     4
273
     2
274
     2
340
10
275
     0
280
     0
281
     0
282
     0
283
     1
284
     0
285
     0
286
     0
287
     3
288
     0
  0
ENDTAB
  0
TABLE
  2
BLOCK_RECORD
  5
1
100
AcDbSymbolTable
 70
     6
  0
BLOCK_RECORD
  5
1D
100
AcDbSymbolTableRecord
100
AcDbBlockTableRecord
  2
*MODEL_SPACE
  0
BLOCK_RECORD
  5
20
100
AcDbSymbolTableRecord
100
AcDbBlockTableRecord
  2
*PAPER_SPACE
  0
BLOCK_RECORD
  5
25
100
AcDbSymbolTableRecord
100
AcDbBlockTableRecord
  2
_NONE
  0
BLOCK_RECORD
  5
29
100
AcDbSymbolTableRecord
100
AcDbBlockTableRecord
  2
_OPEN
  0
BLOCK_RECORD
  5
2F
100
AcDbSymbolTableRecord
100
AcDbBlockTableRecord
  2
_CLOSED
  0
BLOCK_RECORD
  5
36
100
AcDbSymbolTableRecord
100
AcDbBlockTableRecord
  2
_ORIGIN
  0
BLOCK_RECORD
  5
3B
100
AcDbSymbolTableRecord
100
AcDbBlockTableRecord
  2
_DOT
  0
BLOCK_RECORD
  5
43
100
AcDbSymbolTableRecord
100
AcDbBlockTableRecord
  2
_OBLIQUE
  0
ENDTAB
  0
ENDSEC
  0
SECTION
  2
BLOCKS
  0
BLOCK
  5
1E
100
AcDbEntity
  8
0
100
AcDbBlockBegin
  2
*MODEL_SPACE
 70
     0
 10
0.0
 20
0.0
 30
0.0
  3
*MODEL_SPACE
  1

  0
ENDBLK
  5
1F
100
AcDbEntity
  8
0
100
AcDbBlockEnd
  0
BLOCK
  5
21
100
AcDbEntity
 67
     1
  8
0
100
AcDbBlockBegin
  2
*PAPER_SPACE
 70
     0
 10
0.0
 20
0.0
 30
0.0
  3
*PAPER_SPACE
  1

  0
ENDBLK
  5
22
100
AcDbEntity
 67
     1
  8
0
100
AcDbBlockEnd
  0
BLOCK
  5
26
100
AcDbEntity
  8
0
100
AcDbBlockBegin
  2
_NONE
 70
     0
 10
0.0
 20
0.0
  0
CIRCLE
  5
27
100
AcDbEntity
  8
0
 62
     0
370
13
100
AcDbCircle
 10
0.0
 20
0.0
 40
0.25
  0
ENDBLK
  5
28
100
AcDbEntity
  8
0
100
AcDbBlockEnd
  0
BLOCK
  5
2A
100
AcDbEntity
  8
0
100
AcDbBlockBegin
  2
_OPEN
 70
     0
 10
0.0
 20
0.0
  0
LINE
  5
2B
100
AcDbEntity
  8
0
 62
     0
370
13
100
AcDbLine
 10
-0.965926
 20
0.258819
 11
0.0
 21
0.0
  0
LINE
  5
2C
100
AcDbEntity
  8
0
 62
     0
370
13
100
AcDbLine
 10
0.0
 20
0.0
 11
-0.965926
 21
-0.258819
  0
LINE
  5
2D
100
AcDbEntity
  8
0
 62
     0
370
13
100
AcDbLine
 10
0.0
 20
0.0
 11
-1.0
 21
0.0
  0
ENDBLK
  5
2E
100
AcDbEntity
  8
0
100
AcDbBlockEnd
  0
BLOCK
  5
30
100
AcDbEntity
  8
0
100
AcDbBlockBegin
  2
_CLOSED
 70
     0
 10
0.0
 20
0.0
  0
LINE
  5
31
100
AcDbEntity
  8
0
 62
     0
370
13
100
AcDbLine
 10
-0.965926
 20
0.258819
 11
0.0
 21
0.0
  0
LINE
  5
32
100
AcDbEntity
  8
0
 62
     0
370
13
100
AcDbLine
 10
0.0
 20
0.0
 11
-0.965926
 21
-0.258819
  0
LINE
  5
33
100
AcDbEntity
  8
0
 62
     0
370
13
100
AcDbLine
 10
-0.965926
 20
0.258819
 11
-0.965926
 21
-0.258819
  0
LINE
  5
34
100
AcDbEntity
  8
0
 62
     0
370
13
100
AcDbLine
 10
0.0
 20
0.0
 11
-1.0
 21
0.0
  0
ENDBLK
  5
35
100
AcDbEntity
  8
0
100
AcDbBlockEnd
  0
BLOCK
  5
37
100
AcDbEntity
  8
0
100
AcDbBlockBegin
  2
_ORIGIN
 70
     0
 10
0.0
 20
0.0
  0
CIRCLE
  5
38
100
AcDbEntity
  8
0
 62
     0
370
13
100
AcDbCircle
 10
0.0
 20
0.0
 40
0.5
  0
LINE
  5
39
100
AcDbEntity
  8
0
 62
     0
370
13
100
AcDbLine
 10
0.0
 20
0.0
 11
-1.0
 21
0.0
  0
ENDBLK
  5
3A
100
AcDbEntity
  8
0
100
AcDbBlockEnd
  0
BLOCK
  5
3C
100
AcDbEntity
  8
0
100
AcDbBlockBegin
  2
_DOT
 70
     0
 10
0.0
 20
0.0
  0
POLYLINE
  5
3D
100
AcDbEntity
  8
0
 62
     0
100
AcDb2dPolyline
 66
     1
 70
     1
 40
0.5
 41
0.5
  0
VERTEX
  5
3E
100
AcDbEntity
  8
0
 62
     0
100
AcDbVertex
100
AcDb2dVertex
 10
-0.25
 20
0.0
 42
1.0
  0
VERTEX
  5
3F
100
AcDbEntity
  8
0
 62
     0
100
AcDbVertex
100
AcDb2dVertex
 10
0.25
 20
0.0
 42
1.0
  0
SEQEND
  5
40
100
AcDbEntity
  8
0
 62
     0
  0
LINE
  5
41
100
AcDbEntity
  8
0
 62
     0
370
13
100
AcDbLine
 10
-0.5
 20
0.0
 11
-1.0
 21
0.0
  0
ENDBLK
  5
42
100
AcDbEntity
  8
0
100
AcDbBlockEnd
  0
BLOCK
  5
44
100
AcDbEntity
  8
0
100
AcDbBlockBegin
  2
_OBLIQUE
 70
     0
 10
0.0
 20
0.0
  0
LINE
  5
45
100
AcDbEntity
  8
0
 62
     0
370
13
100
AcDbLine
 10
-0.353553
 20
-0.353553
 11
0.353553
 21
0.353553
  0
ENDBLK
  5
46
100
AcDbEntity
  8
0
100
AcDbBlockEnd
  0
ENDSEC
  0
SECTION
  2
ENTITIES
  0
LINE
  5
47
100
AcDbEntity
  8
M0
  6
CONTINUOUS
370
25
100
AcDbLine
 10
111.208547
 20
301.942138
 11
128.791453
 21
301.942138
  0
LINE
  5
48
100
AcDbEntity
  8
M0
  6
CONTINUOUS
370
25
100
AcDbLine
 10
353.392141
 20
344.442138
 11
353.392141
 21
301.942138
  0
LINE
  5
49
100
AcDbEntity
  8
M0
  6
CONTINUOUS
370
25
100
AcDbLine
 10
448.892141
 20
325.942138
 11
448.892141
 21
301.942138
  0
LINE
  5
4A
100
AcDbEntity
  8
M0
  6
CONTINUOUS
370
25
100
AcDbLine
 10
359.892141
 20
344.442138
 11
353.392141
 21
344.442138
  0
LINE
  5
4B
100
AcDbEntity
  8
M0
  6
CONTINUOUS
370
25
100
AcDbLine
 10
359.892141
 20
365.942138
 11
359.892141
 21
359.442138
  0
LINE
  5
4C
100
AcDbEntity
  8
M0
  6
CONTINUOUS
370
25
100
AcDbLine
 10
448.892141
 20
321.442138
 11
353.392141
 21
321.442138
  0
LINE
  5
4D
100
AcDbEntity
  8
M0
  6
CONTINUOUS
370
25
100
AcDbLine
 10
448.892141
 20
317.942138
 11
353.392141
 21
317.942138
  0
LINE
  5
4E
100
AcDbEntity
  8
M0
  6
CONTINUOUS
370
25
100
AcDbLine
 10
433.092141
 20
332.042138
 11
433.092141
 21
325.942138
  0
LINE
  5
4F
100
AcDbEntity
  8
M0
  6
CONTINUOUS
370
25
100
AcDbLine
 10
448.892141
 20
325.942138
 11
433.092141
 21
325.942138
  0
LINE
  5
50
100
AcDbEntity
  8
M0
  6
CONTINUOUS
370
25
100
AcDbLine
 10
435.292141
 20
333.942138
 11
434.992141
 21
333.942138
  0
LINE
  5
51
100
AcDbEntity
  8
M0
  6
CONTINUOUS
370
25
100
AcDbLine
 10
435.292141
 20
333.942138
 11
435.292141
 21
325.942138
  0
LINE
  5
52
100
AcDbEntity
  8
M0
  6
CONTINUOUS
370
25
100
AcDbLine
 10
434.992141
 20
333.942138
 11
433.092141
 21
332.042138
  0
LINE
  5
53
100
AcDbEntity
  8
M0
  6
CONTINUOUS
370
25
100
AcDbLine
 10
409.392141
 20
399.942138
 11
409.392141
 21
394.942138
  0
LINE
  5
54
100
AcDbEntity
  8
M0
  6
CONTINUOUS
370
25
100
AcDbLine
 10
409.392141
 20
399.942138
 11
400.892141
 21
399.942138
  0
LINE
  5
55
100
AcDbEntity
  8
M0
  6
CONTINUOUS
370
25
100
AcDbLine
 10
409.892141
 20
394.942138
 11
406.892141
 21
394.942138
  0
LINE
  5
56
100
AcDbEntity
  8
M0
  6
CONTINUOUS
370
25
100
AcDbLine
 10
397.892141
 20
396.942138
 11
397.892141
 21
379.254012
  0
LINE
  5
57
100
AcDbEntity
  8
M0
  6
CONTINUOUS
370
25
100
AcDbLine
 10
395.892141
 20
380.442138
 11
364.892141
 21
380.442138
  0
LINE
  5
58
100
AcDbEntity
  8
M0
  6
CONTINUOUS
370
25
100
AcDbLine
 10
403.897837
 20
359.442138
 11
385.892141
 21
359.442138
  0
LINE
  5
59
100
AcDbEntity
  8
M0
  6
CONTINUOUS
370
25
100
AcDbLine
 10
379.892141
 20
359.442138
 11
379.892141
 21
339.442138
  0
LINE
  5
5A
100
AcDbEntity
  8
M0
  6
CONTINUOUS
370
25
100
AcDbLine
 10
385.892141
 20
359.442138
 11
385.892141
 21
339.442138
  0
LINE
  5
5B
100
AcDbEntity
  8
M0
  6
CONTINUOUS
370
25
100
AcDbLine
 10
402.892141
 20
379.942138
 11
402.892141
 21
359.442138
  0
LINE
  5
5C
100
AcDbEntity
  8
M0
  6
CONTINUOUS
370
25
100
AcDbLine
 10
406.892141
 20
394.942138
 11
406.892141
 21
380.942138
  0
LINE
  5
5D
100
AcDbEntity
  8
M0
  6
CONTINUOUS
370
25
100
AcDbLine
 10
406.892141
 20
380.942138
 11
403.892141
 21
380.942138
  0
ARC
  5
5E
100
AcDbEntity
  8
M0
  6
CONTINUOUS
370
25
100
AcDbCircle
 10
403.892141
 20
379.942138
 40
1.0
100
AcDbArc
 50
90.0
 51
180.0
  0
ARC
  5
5F
100
AcDbEntity
  8
M0
  6
CONTINUOUS
370
25
100
AcDbCircle
 10
395.892141
 20
382.442138
 40
2.0
100
AcDbArc
 50
270.0
 51
360.0
  0
ARC
  5
60
100
AcDbEntity
  8
M0
  6
CONTINUOUS
370
25
100
AcDbCircle
 10
400.892141
 20
396.942138
 40
3.0
100
AcDbArc
 50
90.0
 51
180.0
  0
LINE
  5
61
100
AcDbEntity
  8
M0
  6
CONTINUOUS
370
25
100
AcDbLine
 10
385.892141
 20
354.442138
 11
379.892141
 21
354.442138
  0
LINE
  5
62
100
AcDbEntity
  8
M0
  6
CONTINUOUS
370
25
100
AcDbLine
 10
405.692141
 20
357.442141
 11
405.692141
 21
337.942138
  0
CIRCLE
  5
63
100
AcDbEntity
  8
M0
  6
CONTINUOUS
370
25
100
AcDbCircle
 10
369.892141
 20
349.442138
 40
5.0
  0
CIRCLE
  5
64
100
AcDbEntity
  8
M0
  6
CONTINUOUS
370
25
100
AcDbCircle
 10
395.844745
 20
349.442138
 40
5.0
  0
LINE
  5
65
100
AcDbEntity
  8
M0
  6
CONTINUOUS
370
25
100
AcDbLine
 10
405.692141
 20
352.570945
 11
399.744818
 21
352.570945
  0
LINE
  5
66
100
AcDbEntity
  8
M0
  6
CONTINUOUS
370
25
100
AcDbLine
 10
385.892141
 20
344.442138
 11
379.892141
 21
344.442138
  0
LINE
  5
67
100
AcDbEntity
  8
M0
  6
CONTINUOUS
370
25
100
AcDbLine
 10
405.692141
 20
346.313332
 11
399.744818
 21
346.313332
  0
LINE
  5
68
100
AcDbEntity
  8
M0
  6
CONTINUOUS
370
25
100
AcDbLine
 10
402.46136
 20
353.961479
 11
402.46136
 21
345.030661
  0
LINE
  5
69
100
AcDbEntity
  8
M0
  6
CONTINUOUS
370
25
100
AcDbLine
 10
389.154411
 20
353.961479
 11
389.154411
 21
345.030661
  0
LINE
  5
6A
100
AcDbEntity
  8
M0
  6
CONTINUOUS
370
25
100
AcDbLine
 10
377.334165
 20
353.990175
 11
377.334165
 21
345.030661
  0
LINE
  5
6B
100
AcDbEntity
  8
M0
  6
CONTINUOUS
370
25
100
AcDbLine
 10
362.732684
 20
353.990175
 11
362.732684
 21
345.030661
  0
ARC
  5
6C
100
AcDbEntity
  8
M0
  6
CONTINUOUS
370
25
100
AcDbCircle
 10
403.692141
 20
357.442138
 40
2.0
100
AcDbArc
 50
0.0
 51
90.0
  0
ARC
  5
6D
100
AcDbEntity
  8
M0
  6
CONTINUOUS
370
25
100
AcDbCircle
 10
403.692141
 20
341.442138
 40
2.0
100
AcDbArc
 50
270.0
 51
360.0
  0
ARC
  5
6E
100
AcDbEntity
  8
M0
  6
CONTINUOUS
370
25
100
AcDbCircle
 10
387.892141
 20
357.442138
 40
2.0
100
AcDbArc
 50
90.0
 51
180.0
  0
LINE
  5
6F
100
AcDbEntity
  8
M0
  6
CONTINUOUS
370
25
100
AcDbLine
 10
419.892141
 20
339.442138
 11
408.392141
 21
339.442138
  0
LINE
  5
70
100
AcDbEntity
  8
M0
  6
CONTINUOUS
370
25
100
AcDbLine
 10
365.992068
 20
352.570945
 11
359.892141
 21
352.570945
  0
LINE
  5
71
100
AcDbEntity
  8
M0
  6
CONTINUOUS
370
25
100
AcDbLine
 10
365.992068
 20
346.313332
 11
359.892141
 21
346.313332
  0
LINE
  5
72
100
AcDbEntity
  8
M0
  6
CONTINUOUS
370
25
100
AcDbLine
 10
391.944672
 20
346.313332
 11
385.892141
 21
346.313332
  0
LINE
  5
73
100
AcDbEntity
  8
M0
  6
CONTINUOUS
370
25
100
AcDbLine
 10
391.944672
 20
352.570945
 11
385.892141
 21
352.570945
  0
LINE
  5
74
100
AcDbEntity
  8
M0
  6
CONTINUOUS
370
25
100
AcDbLine
 10
379.892141
 20
352.570945
 11
373.792214
 21
352.570945
  0
LINE
  5
75
100
AcDbEntity
  8
M0
  6
CONTINUOUS
370
25
100
AcDbLine
 10
379.892141
 20
346.313332
 11
373.792214
 21
346.313332
  0
ARC
  5
76
100
AcDbEntity
  8
M0
  6
CONTINUOUS
370
25
100
AcDbCircle
 10
387.892141
 20
341.442138
 40
2.0
100
AcDbArc
 50
180.0
 51
270.0
  0
ARC
  5
77
100
AcDbEntity
  8
M0
  6
CONTINUOUS
370
25
100
AcDbCircle
 10
377.892141
 20
341.442138
 40
2.0
100
AcDbArc
 50
270.0
 51
360.0
  0
ARC
  5
78
100
AcDbEntity
  8
M0
  6
CONTINUOUS
370
25
100
AcDbCircle
 10
377.892141
 20
357.442138
 40
2.0
100
AcDbArc
 50
0.0
 51
90.0
  0
ARC
  5
79
100
AcDbEntity
  8
M0
  6
CONTINUOUS
370
25
100
AcDbCircle
 10
361.892141
 20
341.442138
 40
2.0
100
AcDbArc
 50
180.0
 51
270.0
  0
ARC
  5
7A
100
AcDbEntity
  8
M0
  6
CONTINUOUS
370
25
100
AcDbCircle
 10
361.892141
 20
357.442138
 40
2.0
100
AcDbArc
 50
90.0
 51
180.0
  0
LINE
  5
7B
100
AcDbEntity
  8
M0
  6
CONTINUOUS
370
25
100
AcDbLine
 10
379.892141
 20
359.442138
 11
359.892141
 21
359.442138
  0
LINE
  5
7C
100
AcDbEntity
  8
M0
  6
CONTINUOUS
370
25
100
AcDbLine
 10
408.392141
 20
347.138782
 11
405.692141
 21
347.138782
  0
LINE
  5
7D
100
AcDbEntity
  8
M0
  6
CONTINUOUS
370
25
100
AcDbLine
 10
408.392141
 20
347.138782
 11
408.392141
 21
337.942138
  0
LINE
  5
7E
100
AcDbEntity
  8
M0
  6
CONTINUOUS
370
25
100
AcDbLine
 10
408.392141
 20
337.942138
 11
405.692141
 21
337.942138
  0
LINE
  5
7F
100
AcDbEntity
  8
M0
  6
CONTINUOUS
370
25
100
AcDbLine
 10
405.692141
 20
339.442138
 11
361.892137
 21
339.442138
  0
LINE
  5
80
100
AcDbEntity
  8
M0
  6
CONTINUOUS
370
25
100
AcDbLine
 10
465.892141
 20
346.942138
 11
465.892141
 21
335.942138
  0
LINE
  5
81
100
AcDbEntity
  8
M0
  6
CONTINUOUS
370
25
100
AcDbLine
 10
478.892141
 20
399.942138
 11
469.392141
 21
399.942138
  0
LINE
  5
82
100
AcDbEntity
  8
M0
  6
CONTINUOUS
370
25
100
AcDbLine
 10
471.892141
 20
394.942138
 11
471.892141
 21
380.942138
  0
LINE
  5
83
100
AcDbEntity
  8
M0
  6
CONTINUOUS
370
25
100
AcDbLine
 10
480.892141
 20
397.942138
 11
480.892141
 21
380.942138
  0
LINE
  5
84
100
AcDbEntity
  8
M0
  6
CONTINUOUS
370
25
100
AcDbLine
 10
474.651997
 20
380.942138
 11
471.892141
 21
380.942138
  0
LINE
  5
85
100
AcDbEntity
  8
M0
  6
CONTINUOUS
370
25
100
AcDbLine
 10
469.392141
 20
399.942138
 11
469.392141
 21
394.942138
  0
LINE
  5
86
100
AcDbEntity
  8
M0
  6
CONTINUOUS
370
25
100
AcDbLine
 10
471.892141
 20
394.942138
 11
468.892141
 21
394.942138
  0
LINE
  5
87
100
AcDbEntity
  8
M0
  6
CONTINUOUS
370
25
100
AcDbLine
 10
474.892141
 20
378.942138
 11
474.892141
 21
355.125661
  0
LINE
  5
88
100
AcDbEntity
  8
M0
  6
CONTINUOUS
370
25
100
AcDbLine
 10
480.892141
 20
380.942138
 11
485.892141
 21
353.942138
  0
LINE
  5
89
100
AcDbEntity
  8
M0
  6
CONTINUOUS
370
25
100
AcDbLine
 10
474.892141
 20
321.942138
 11
467.892141
 21
321.942138
  0
LINE
  5
8A
100
AcDbEntity
  8
M0
  6
CONTINUOUS
370
25
100
AcDbLine
 10
476.618561
 20
379.306317
 11
480.281933
 21
359.524107
  0
ARC
  5
8B
100
AcDbEntity
  8
M0
  6
CONTINUOUS
370
25
100
AcDbCircle
 10
472.892141
 20
378.942138
 40
2.0
100
AcDbArc
 50
0.0
 51
90.0
  0
ARC
  5
8C
100
AcDbEntity
  8
M0
  6
CONTINUOUS
370
25
100
AcDbCircle
 10
474.651997
 20
378.942138
 40
2.0
100
AcDbArc
 50
10.491477
 51
90.0
  0
ARC
  5
8D
100
AcDbEntity
  8
M0
  6
CONTINUOUS
370
25
100
AcDbCircle
 10
470.892141
 20
355.125661
 40
4.0
100
AcDbArc
 50
303.924319
 51
360.0
  0
ARC
  5
8E
100
AcDbEntity
  8
M0
  6
CONTINUOUS
370
25
100
AcDbCircle
 10
478.892141
 20
397.942138
 40
2.0
100
AcDbArc
 50
0.0
 51
90.0
  0
LINE
  5
8F
100
AcDbEntity
  8
M0
  6
CONTINUOUS
370
25
100
AcDbLine
 10
482.392141
 20
394.042134
 11
482.392141
 21
381.842134
  0
LINE
  5
90
100
AcDbEntity
  8
M0
  6
CONTINUOUS
370
25
100
AcDbLine
 10
482.392141
 20
394.042134
 11
480.892141
 21
394.042134
  0
LINE
  5
91
100
AcDbEntity
  8
M0
  6
CONTINUOUS
370
25
100
AcDbLine
 10
482.392141
 20
381.842134
 11
480.892141
 21
381.842134
  0
ARC
  5
92
100
AcDbEntity
  8
M0
  6
CONTINUOUS
370
25
100
AcDbCircle
 10
483.618638
 20
392.328885
 40
2.773503
100
AcDbArc
 50
329.999999
 51
390.000001
  0
ARC
  5
93
100
AcDbEntity
  8
M0
  6
CONTINUOUS
370
25
100
AcDbCircle
 10
474.095869
 20
387.942134
 40
12.296272
100
AcDbArc
 50
345.878651
 51
374.121349
  0
ARC
  5
94
100
AcDbEntity
  8
M0
  6
CONTINUOUS
370
25
100
AcDbCircle
 10
483.618638
 20
383.555383
 40
2.773503
100
AcDbArc
 50
329.999999
 51
390.000001
  0
LINE
  5
95
100
AcDbEntity
  8
M0
  6
CONTINUOUS
370
25
100
AcDbLine
 10
486.392141
 20
392.328885
 11
486.392141
 21
383.555383
  0
LINE
  5
96
100
AcDbEntity
  8
M0
  6
CONTINUOUS
370
25
100
AcDbLine
 10
466.892141
 20
411.442138
 11
411.892141
 21
411.442138
  0
LINE
  5
97
100
AcDbEntity
  8
M0
  6
CONTINUOUS
370
25
100
AcDbLine
 10
409.892141
 20
409.442138
 11
409.892141
 21
394.942138
  0
LINE
  5
98
100
AcDbEntity
  8
M0
  6
CONTINUOUS
370
25
100
AcDbLine
 10
468.892141
 20
409.442138
 11
468.892141
 21
394.942138
  0
LINE
  5
99
100
AcDbEntity
  8
M0
  6
CONTINUOUS
370
25
100
AcDbLine
 10
463.392141
 20
377.567138
 11
415.392141
 21
377.567138
  0
LINE
  5
9A
100
AcDbEntity
  8
M0
  6
CONTINUOUS
370
25
100
AcDbLine
 10
468.892141
 20
409.442138
 11
466.892141
 21
411.442138
  0
LINE
  5
9B
100
AcDbEntity
  8
M0
  6
CONTINUOUS
370
25
100
AcDbLine
 10
411.892141
 20
411.442138
 11
409.892141
 21
409.442138
  0
LINE
  5
9C
100
AcDbEntity
  8
M0
  6
CONTINUOUS
370
25
100
AcDbLine
 10
471.892141
 20
380.942138
 11
463.392141
 21
377.567138
  0
LINE
  5
9D
100
AcDbEntity
  8
M0
  6
CONTINUOUS
370
25
100
AcDbLine
 10
415.392141
 20
377.567138
 11
406.892141
 21
380.942138
  0
LINE
  5
9E
100
AcDbEntity
  8
M0
  6
CONTINUOUS
370
25
100
AcDbLine
 10
460.892141
 20
377.142138
 11
413.892141
 21
377.142138
  0
LINE
  5
9F
100
AcDbEntity
  8
M0
  6
CONTINUOUS
370
25
100
AcDbLine
 10
460.892141
 20
369.942138
 11
413.892141
 21
369.942138
  0
LINE
  5
A0
100
AcDbEntity
  8
M0
  6
CONTINUOUS
370
25
100
AcDbLine
 10
413.892141
 20
377.142138
 11
413.892141
 21
369.942138
  0
LINE
  5
A1
100
AcDbEntity
  8
M0
  6
CONTINUOUS
370
25
100
AcDbLine
 10
460.892141
 20
377.142138
 11
460.892141
 21
369.942138
  0
LINE
  5
A2
100
AcDbEntity
  8
M0
  6
CONTINUOUS
370
25
100
AcDbLine
 10
455.892141
 20
368.942138
 11
418.892141
 21
368.942138
  0
LINE
  5
A3
100
AcDbEntity
  8
M0
  6
CONTINUOUS
370
25
100
AcDbLine
 10
417.892141
 20
367.942138
 11
417.892141
 21
367.448076
  0
LINE
  5
A4
100
AcDbEntity
  8
M0
  6
CONTINUOUS
370
25
100
AcDbLine
 10
456.892141
 20
367.942138
 11
456.892141
 21
367.448076
  0
LINE
  5
A5
100
AcDbEntity
  8
M0
  6
CONTINUOUS
370
25
100
AcDbLine
 10
439.892141
 20
353.430262
 11
439.892141
 21
334.942138
  0
LINE
  5
A6
100
AcDbEntity
  8
M0
  6
CONTINUOUS
370
25
100
AcDbLine
 10
434.892141
 20
353.430262
 11
434.892141
 21
334.942138
  0
LINE
  5
A7
100
AcDbEntity
  8
M0
  6
CONTINUOUS
370
25
100
AcDbLine
 10
439.892141
 20
334.942138
 11
434.892141
 21
334.942138
  0
LINE
  5
A8
100
AcDbEntity
  8
M0
  6
CONTINUOUS
370
25
100
AcDbLine
 10
456.484531
 20
366.642425
 11
440.70736
 21
355.041564
  0
LINE
  5
A9
100
AcDbEntity
  8
M0
  6
CONTINUOUS
370
25
100
AcDbLine
 10
434.076922
 20
355.041564
 11
418.29975
 21
366.642425
  0
ARC
  5
AA
100
AcDbEntity
  8
M0
  6
CONTINUOUS
370
25
100
AcDbCircle
 10
441.892141
 20
353.430262
 40
2.0
100
AcDbArc
 50
126.326826
 51
180.0
  0
ARC
  5
AB
100
AcDbEntity
  8
M0
  6
CONTINUOUS
370
25
100
AcDbCircle
 10
432.892141
 20
353.430262
 40
2.0
100
AcDbArc
 50
0.0
 51
53.673174
  0
ARC
  5
AC
100
AcDbEntity
  8
M0
  6
CONTINUOUS
370
25
100
AcDbCircle
 10
455.892141
 20
367.942138
 40
1.0
100
AcDbArc
 50
0.0
 51
90.0
  0
ARC
  5
AD
100
AcDbEntity
  8
M0
  6
CONTINUOUS
370
25
100
AcDbCircle
 10
418.892141
 20
367.942138
 40
1.0
100
AcDbArc
 50
90.0
 51
180.0
  0
ARC
  5
AE
100
AcDbEntity
  8
M0
  6
CONTINUOUS
370
25
100
AcDbCircle
 10
455.892141
 20
367.448076
 40
1.0
100
AcDbArc
 50
306.326826
 51
360.0
  0
ARC
  5
AF
100
AcDbEntity
  8
M0
  6
CONTINUOUS
370
25
100
AcDbCircle
 10
418.892141
 20
367.448076
 40
1.0
100
AcDbArc
 50
180.0
 51
233.673174
  0
LINE
  5
B0
100
AcDbEntity
  8
M0
  6
CONTINUOUS
370
25
100
AcDbLine
 10
437.092141
 20
334.942138
 11
437.092141
 21
326.692138
  0
LINE
  5
B1
100
AcDbEntity
  8
M0
  6
CONTINUOUS
370
25
100
AcDbLine
 10
444.892141
 20
351.942138
 11
443.892141
 21
351.942138
  0
LINE
  5
B2
100
AcDbEntity
  8
M0
  6
CONTINUOUS
370
25
100
AcDbLine
 10
443.892141
 20
346.942138
 11
439.892141
 21
346.942138
  0
LINE
  5
B3
100
AcDbEntity
  8
M0
  6
CONTINUOUS
370
25
100
AcDbLine
 10
467.892141
 20
335.942138
 11
444.892141
 21
335.942138
  0
LINE
  5
B4
100
AcDbEntity
  8
M0
  6
CONTINUOUS
370
25
100
AcDbLine
 10
467.892141
 20
322.442138
 11
452.892141
 21
322.442138
  0
LINE
  5
B5
100
AcDbEntity
  8
M0
  6
CONTINUOUS
370
25
100
AcDbLine
 10
442.792141
 20
330.642138
 11
438.092141
 21
330.642138
  0
LINE
  5
B6
100
AcDbEntity
  8
M0
  6
CONTINUOUS
370
25
100
AcDbLine
 10
452.892141
 20
326.692138
 11
452.892141
 21
322.442138
  0
LINE
  5
B7
100
AcDbEntity
  8
M0
  6
CONTINUOUS
370
25
100
AcDbLine
 10
438.092141
 20
330.642138
 11
438.092141
 21
325.942138
  0
LINE
  5
B8
100
AcDbEntity
  8
M0
  6
CONTINUOUS
370
25
100
AcDbLine
 10
442.792141
 20
330.642138
 11
442.792141
 21
325.942138
  0
LINE
  5
B9
100
AcDbEntity
  8
M0
  6
CONTINUOUS
370
25
100
AcDbLine
 10
438.092141
 20
326.692138
 11
437.092141
 21
326.692138
  0
LINE
  5
BA
100
AcDbEntity
  8
M0
  6
CONTINUOUS
370
25
100
AcDbLine
 10
452.892141
 20
326.692138
 11
442.792141
 21
326.692138
  0
LINE
  5
BB
100
AcDbEntity
  8
M0
  6
CONTINUOUS
370
25
100
AcDbLine
 10
442.792141
 20
330.642138
 11
438.092141
 21
325.942138
  0
LINE
  5
BC
100
AcDbEntity
  8
M0
  6
CONTINUOUS
370
25
100
AcDbLine
 10
438.092141
 20
330.642138
 11
442.792141
 21
325.942138
  0
LINE
  5
BD
100
AcDbEntity
  8
M0
  6
CONTINUOUS
370
25
100
AcDbLine
 10
408.892141
 20
376.942138
 11
408.892141
 21
351.57798
  0
LINE
  5
BE
100
AcDbEntity
  8
M0
  6
CONTINUOUS
370
25
100
AcDbLine
 10
413.892141
 20
376.942138
 11
408.892141
 21
376.942138
  0
LINE
  5
BF
100
AcDbEntity
  8
M0
  6
CONTINUOUS
370
25
100
AcDbLine
 10
416.392141
 20
369.942138
 11
416.392141
 21
358.942138
  0
LINE
  5
C0
100
AcDbEntity
  8
M0
  6
CONTINUOUS
370
25
100
AcDbLine
 10
426.892141
 20
339.942138
 11
426.892141
 21
327.692138
  0
LINE
  5
C1
100
AcDbEntity
  8
M0
  6
CONTINUOUS
370
25
100
AcDbLine
 10
425.892141
 20
348.942138
 11
425.892141
 21
340.942138
  0
LINE
  5
C2
100
AcDbEntity
  8
M0
  6
CONTINUOUS
370
25
100
AcDbLine
 10
426.892141
 20
339.942138
 11
425.892141
 21
340.942138
  0
LINE
  5
C3
100
AcDbEntity
  8
M0
  6
CONTINUOUS
370
25
100
AcDbLine
 10
425.892141
 20
348.942138
 11
430.392141
 21
352.942138
  0
LINE
  5
C4
100
AcDbEntity
  8
M0
  6
CONTINUOUS
370
25
100
AcDbLine
 10
426.035412
 20
351.7454
 11
429.063413
 21
354.436957
  0
LINE
  5
C5
100
AcDbEntity
  8
M0
  6
CONTINUOUS
370
25
100
AcDbLine
 10
429.063413
 20
354.436957
 11
430.392141
 21
352.942138
  0
LINE
  5
C6
100
AcDbEntity
  8
M0
  6
CONTINUOUS
370
25
100
AcDbLine
 10
421.673603
 20
352.146656
 11
416.392141
 21
358.942138
  0
ARC
  5
C7
100
AcDbEntity
  8
M0
  6
CONTINUOUS
370
25
100
AcDbCircle
 10
424.042321
 20
353.987628
 40
3.0
100
AcDbArc
 50
217.854425
 51
311.633539
  0
LINE
  5
C8
100
AcDbEntity
  8
M0
  6
CONTINUOUS
370
25
100
AcDbLine
 10
419.592141
 20
339.442138
 11
416.892141
 21
339.442138
  0
LINE
  5
C9
100
AcDbEntity
  8
M0
  6
CONTINUOUS
370
25
100
AcDbLine
 10
416.892141
 20
344.442138
 11
416.892141
 21
339.442138
  0
LINE
  5
CA
100
AcDbEntity
  8
M0
  6
CONTINUOUS
370
25
100
AcDbLine
 10
419.892141
 20
339.142138
 11
419.892141
 21
330.492138
  0
ARC
  5
CB
100
AcDbEntity
  8
M0
  6
CONTINUOUS
370
25
100
AcDbCircle
 10
419.592141
 20
339.142138
 40
0.3
100
AcDbArc
 50
0.0
 51
90.0
  0
LINE
  5
CC
100
AcDbEntity
  8
M0
  6
CONTINUOUS
370
25
100
AcDbLine
 10
425.892141
 20
330.492138
 11
419.892141
 21
330.492138
  0
LINE
  5
CD
100
AcDbEntity
  8
M0
  6
CONTINUOUS
370
25
100
AcDbLine
 10
416.892141
 20
344.442138
 11
408.892141
 21
351.57798
  0
LINE
  5
CE
100
AcDbEntity
  8
M0
  6
CONTINUOUS
370
25
100
AcDbLine
 10
470.892141
 20
376.942138
 11
470.892141
 21
357.942138
  0
LINE
  5
CF
100
AcDbEntity
  8
M0
  6
CONTINUOUS
370
25
100
AcDbLine
 10
470.892141
 20
376.942138
 11
460.892141
 21
376.942138
  0
LINE
  5
D0
100
AcDbEntity
  8
M0
  6
CONTINUOUS
370
25
100
AcDbLine
 10
458.392141
 20
369.942138
 11
458.392141
 21
358.942138
  0
LINE
  5
D1
100
AcDbEntity
  8
M0
  6
CONTINUOUS
370
25
100
AcDbLine
 10
455.892141
 20
345.442138
 11
455.892141
 21
336.942138
  0
LINE
  5
D2
100
AcDbEntity
  8
M0
  6
CONTINUOUS
370
25
100
AcDbLine
 10
449.392141
 20
350.442138
 11
449.392141
 21
336.942138
  0
LINE
  5
D3
100
AcDbEntity
  8
M0
  6
CONTINUOUS
370
25
100
AcDbLine
 10
470.892141
 20
357.942138
 11
455.892141
 21
345.442138
  0
LINE
  5
D4
100
AcDbEntity
  8
M0
  6
CONTINUOUS
370
25
100
AcDbLine
 10
449.392141
 20
350.442138
 11
445.099248
 21
354.735031
  0
LINE
  5
D5
100
AcDbEntity
  8
M0
  6
CONTINUOUS
370
25
100
AcDbLine
 10
449.538822
 20
353.123885
 11
446.513461
 21
356.149245
  0
LINE
  5
D6
100
AcDbEntity
  8
M0
  6
CONTINUOUS
370
25
100
AcDbLine
 10
458.392141
 20
358.942138
 11
454.016617
 21
353.388588
  0
ARC
  5
D7
100
AcDbEntity
  8
M0
  6
CONTINUOUS
370
25
100
AcDbCircle
 10
451.660142
 20
355.245205
 40
3.0
100
AcDbArc
 50
225.0
 51
321.766175
  0
ARC
  5
D8
100
AcDbEntity
  8
M0
  6
CONTINUOUS
370
25
100
AcDbCircle
 10
445.806354
 20
355.442138
 40
1.0
100
AcDbArc
 50
45.0
 51
135.0
  0
ARC
  5
D9
100
AcDbEntity
  8
M0
  6
CONTINUOUS
370
25
100
AcDbCircle
 10
445.806354
 20
355.442138
 40
1.0
100
AcDbArc
 50
135.0
 51
225.0
  0
LINE
  5
DA
100
AcDbEntity
  8
M0
  6
CONTINUOUS
370
25
100
AcDbLine
 10
454.492141
 20
341.942138
 11
450.292141
 21
341.942138
  0
LINE
  5
DB
100
AcDbEntity
  8
M0
  6
CONTINUOUS
370
25
100
AcDbLine
 10
450.292141
 20
341.942138
 11
450.292141
 21
335.942138
  0
LINE
  5
DC
100
AcDbEntity
  8
M0
  6
CONTINUOUS
370
25
100
AcDbLine
 10
454.492141
 20
341.942138
 11
454.492141
 21
335.942138
  0
LINE
  5
DD
100
AcDbEntity
  8
M0
  6
CONTINUOUS
370
25
100
AcDbLine
 10
454.492141
 20
341.942138
 11
450.292141
 21
335.942138
  0
LINE
  5
DE
100
AcDbEntity
  8
M0
  6
CONTINUOUS
370
25
100
AcDbLine
 10
450.292141
 20
341.942138
 11
454.492141
 21
335.942138
  0
LINE
  5
DF
100
AcDbEntity
  8
M0
  6
CONTINUOUS
370
25
100
AcDbLine
 10
455.892141
 20
336.942138
 11
454.492141
 21
336.942138
  0
LINE
  5
E0
100
AcDbEntity
  8
M0
  6
CONTINUOUS
370
25
100
AcDbLine
 10
450.292141
 20
336.942138
 11
449.392141
 21
336.942138
  0
LINE
  5
E1
100
AcDbEntity
  8
M0
  6
CONTINUOUS
370
25
100
AcDbLine
 10
482.392141
 20
387.942138
 11
480.892141
 21
386.535339
  0
LINE
  5
E2
100
AcDbEntity
  8
M0
  6
CONTINUOUS
370
25
100
AcDbLine
 10
480.892141
 20
387.942138
 11
482.392141
 21
389.229383
  0
LINE
  5
E3
100
AcDbEntity
  8
M0
  6
CONTINUOUS
370
25
100
AcDbLine
 10
474.892141
 20
327.942138
 11
476.392141
 21
329.229383
  0
LINE
  5
E4
100
AcDbEntity
  8
M0
  6
CONTINUOUS
370
25
100
AcDbLine
 10
476.392141
 20
327.942138
 11
474.892141
 21
326.535339
  0
LINE
  5
E5
100
AcDbEntity
  8
M0
  6
CONTINUOUS
370
25
100
AcDbLine
 10
480.392141
 20
332.328885
 11
480.392141
 21
323.555383
  0
ARC
  5
E6
100
AcDbEntity
  8
M0
  6
CONTINUOUS
370
25
100
AcDbCircle
 10
477.618638
 20
323.555383
 40
2.773503
100
AcDbArc
 50
329.999999
 51
390.000001
  0
ARC
  5
E7
100
AcDbEntity
  8
M0
  6
CONTINUOUS
370
25
100
AcDbCircle
 10
468.095869
 20
327.942134
 40
12.296272
100
AcDbArc
 50
345.878651
 51
374.121349
  0
ARC
  5
E8
100
AcDbEntity
  8
M0
  6
CONTINUOUS
370
25
100
AcDbCircle
 10
477.618638
 20
332.328885
 40
2.773503
100
AcDbArc
 50
329.999999
 51
390.000001
  0
LINE
  5
E9
100
AcDbEntity
  8
M0
  6
CONTINUOUS
370
25
100
AcDbLine
 10
476.392141
 20
321.842134
 11
474.892141
 21
321.842134
  0
LINE
  5
EA
100
AcDbEntity
  8
M0
  6
CONTINUOUS
370
25
100
AcDbLine
 10
476.392141
 20
334.042134
 11
474.892141
 21
334.042134
  0
LINE
  5
EB
100
AcDbEntity
  8
M0
  6
CONTINUOUS
370
25
100
AcDbLine
 10
476.392141
 20
334.042134
 11
476.392141
 21
321.842134
  0
LINE
  5
EC
100
AcDbEntity
  8
M0
  6
CONTINUOUS
370
25
100
AcDbLine
 10
397.892141
 20
387.942138
 11
396.392141
 21
386.654893
  0
LINE
  5
ED
100
AcDbEntity
  8
M0
  6
CONTINUOUS
370
25
100
AcDbLine
 10
396.392141
 20
387.942138
 11
397.892141
 21
389.348937
  0
LINE
  5
EE
100
AcDbEntity
  8
M0
  6
CONTINUOUS
370
25
100
AcDbLine
 10
392.392141
 20
392.328885
 11
392.392141
 21
383.555383
  0
ARC
  5
EF
100
AcDbEntity
  8
M0
  6
CONTINUOUS
370
25
100
AcDbCircle
 10
395.165644
 20
383.555383
 40
2.773503
100
AcDbArc
 50
149.999999
 51
210.000001
  0
ARC
  5
F0
100
AcDbEntity
  8
M0
  6
CONTINUOUS
370
25
100
AcDbCircle
 10
404.688413
 20
387.942134
 40
12.296272
100
AcDbArc
 50
165.878651
 51
194.121349
  0
ARC
  5
F1
100
AcDbEntity
  8
M0
  6
CONTINUOUS
370
25
100
AcDbCircle
 10
395.165644
 20
392.328885
 40
2.773503
100
AcDbArc
 50
149.999999
 51
210.000001
  0
LINE
  5
F2
100
AcDbEntity
  8
M0
  6
CONTINUOUS
370
25
100
AcDbLine
 10
396.392141
 20
381.842134
 11
397.800018
 21
381.842134
  0
LINE
  5
F3
100
AcDbEntity
  8
M0
  6
CONTINUOUS
370
25
100
AcDbLine
 10
396.392141
 20
394.042134
 11
397.892141
 21
394.042134
  0
LINE
  5
F4
100
AcDbEntity
  8
M0
  6
CONTINUOUS
370
25
100
AcDbLine
 10
396.392141
 20
394.042134
 11
396.392141
 21
381.842134
  0
LINE
  5
F5
100
AcDbEntity
  8
M0
  6
CONTINUOUS
370
25
100
AcDbLine
 10
364.892141
 20
365.942138
 11
359.892141
 21
365.942138
  0
LINE
  5
F6
100
AcDbEntity
  8
M0
  6
CONTINUOUS
370
25
100
AcDbLine
 10
364.892141
 20
380.442138
 11
364.892141
 21
365.942138
  0
LINE
  5
F7
100
AcDbEntity
  8
M0
  6
CONTINUOUS
370
25
100
AcDbLine
 10
387.182643
 20
371.942138
 11
361.288853
 21
371.942138
  0
LINE
  5
F8
100
AcDbEntity
  8
M0
  6
CONTINUOUS
370
25
100
AcDbLine
 10
382.892141
 20
373.942138
 11
364.892141
 21
373.942138
  0
LINE
  5
F9
100
AcDbEntity
  8
M0
  6
CONTINUOUS
370
25
100
AcDbLine
 10
379.892141
 20
374.942138
 11
364.892141
 21
374.942138
  0
LINE
  5
FA
100
AcDbEntity
  8
M0
  6
CONTINUOUS
370
25
100
AcDbLine
 10
379.892141
 20
368.942138
 11
364.892141
 21
368.942138
  0
LINE
  5
FB
100
AcDbEntity
  8
M0
  6
CONTINUOUS
370
25
100
AcDbLine
 10
382.892141
 20
369.942138
 11
364.892141
 21
369.942138
  0
LINE
  5
FC
100
AcDbEntity
  8
M0
  6
CONTINUOUS
370
25
100
AcDbLine
 10
379.892141
 20
374.942138
 11
379.892141
 21
368.942138
  0
LINE
  5
FD
100
AcDbEntity
  8
M0
  6
CONTINUOUS
370
25
100
AcDbLine
 10
382.892141
 20
373.942138
 11
382.892141
 21
369.942138
  0
LINE
  5
FE
100
AcDbEntity
  8
M0
  6
CONTINUOUS
370
25
100
AcDbLine
 10
379.892141
 20
374.942138
 11
381.624192
 21
373.942138
  0
LINE
  5
FF
100
AcDbEntity
  8
M0
  6
CONTINUOUS
370
25
100
AcDbLine
 10
379.892141
 20
368.942138
 11
381.624192
 21
369.942138
  0
LINE
  5
100
100
AcDbEntity
  8
M0
  6
CONTINUOUS
370
25
100
AcDbLine
 10
480.892141
 20
215.942138
 11
482.392141
 21
217.229383
  0
LINE
  5
101
100
AcDbEntity
  8
M0
  6
CONTINUOUS
370
25
100
AcDbLine
 10
482.392141
 20
215.942138
 11
480.892141
 21
214.535339
  0
LINE
  5
102
100
AcDbEntity
  8
M0
  6
CONTINUOUS
370
25
100
AcDbLine
 10
468.892141
 20
194.442138
 11
466.892141
 21
192.442138
  0
LINE
  5
103
100
AcDbEntity
  8
M0
  6
CONTINUOUS
370
25
100
AcDbLine
 10
468.892141
 20
194.442138
 11
468.892141
 21
203.942138
  0
LINE
  5
104
100
AcDbEntity
  8
M0
  6
CONTINUOUS
370
25
100
AcDbLine
 10
486.392141
 20
211.555391
 11
486.392141
 21
220.328894
  0
ARC
  5
105
100
AcDbEntity
  8
M0
  6
CONTINUOUS
370
25
100
AcDbCircle
 10
483.618638
 20
220.328894
 40
2.773503
100
AcDbArc
 50
329.999999
 51
390.000001
  0
ARC
  5
106
100
AcDbEntity
  8
M0
  6
CONTINUOUS
370
25
100
AcDbCircle
 10
474.095869
 20
215.942142
 40
12.296272
100
AcDbArc
 50
345.878651
 51
374.121349
  0
ARC
  5
107
100
AcDbEntity
  8
M0
  6
CONTINUOUS
370
25
100
AcDbCircle
 10
483.618638
 20
211.555391
 40
2.773503
100
AcDbArc
 50
329.999999
 51
390.000001
  0
LINE
  5
108
100
AcDbEntity
  8
M0
  6
CONTINUOUS
370
25
100
AcDbLine
 10
482.392141
 20
222.042142
 11
480.892141
 21
222.042142
  0
LINE
  5
109
100
AcDbEntity
  8
M0
  6
CONTINUOUS
370
25
100
AcDbLine
 10
482.392141
 20
209.842142
 11
480.892141
 21
209.842142
  0
LINE
  5
10A
100
AcDbEntity
  8
M0
  6
CONTINUOUS
370
25
100
AcDbLine
 10
482.392141
 20
209.842142
 11
482.392141
 21
222.042142
  0
ARC
  5
10B
100
AcDbEntity
  8
M0
  6
CONTINUOUS
370
25
100
AcDbCircle
 10
478.892141
 20
205.942138
 40
2.0
100
AcDbArc
 50
270.0
 51
360.0
  0
LINE
  5
10C
100
AcDbEntity
  8
M0
  6
CONTINUOUS
370
25
100
AcDbLine
 10
480.892141
 20
222.942138
 11
485.892141
 21
249.942138
  0
LINE
  5
10D
100
AcDbEntity
  8
M0
  6
CONTINUOUS
370
25
100
AcDbLine
 10
469.392141
 20
203.942138
 11
469.392141
 21
301.942138
  0
LINE
  5
10E
100
AcDbEntity
  8
M0
  6
CONTINUOUS
370
25
100
AcDbLine
 10
480.892141
 20
205.942138
 11
480.892141
 21
301.942138
  0
LINE
  5
10F
100
AcDbEntity
  8
M0
  6
CONTINUOUS
370
25
100
AcDbLine
 10
478.892141
 20
203.942138
 11
468.892141
 21
203.942138
  0
LINE
  5
110
100
AcDbEntity
  8
M0
  6
CONTINUOUS
370
25
100
AcDbLine
 10
466.892141
 20
192.442138
 11
411.892141
 21
192.442138
  0
LINE
  5
111
100
AcDbEntity
  8
M0
  6
CONTINUOUS
370
25
100
AcDbLine
 10
411.892141
 20
192.442138
 11
409.892141
 21
194.442138
  0
LINE
  5
112
100
AcDbEntity
  8
M0
  6
CONTINUOUS
370
25
100
AcDbLine
 10
409.892141
 20
194.442138
 11
409.892141
 21
203.942138
  0
LINE
  5
113
100
AcDbEntity
  8
M0
  6
CONTINUOUS
370
25
100
AcDbLine
 10
396.392141
 20
209.842142
 11
396.392141
 21
222.042142
  0
LINE
  5
114
100
AcDbEntity
  8
M0
  6
CONTINUOUS
370
25
100
AcDbLine
 10
396.392141
 20
209.842142
 11
397.892141
 21
209.842142
  0
LINE
  5
115
100
AcDbEntity
  8
M0
  6
CONTINUOUS
370
25
100
AcDbLine
 10
396.392141
 20
222.042142
 11
397.800018
 21
222.042142
  0
ARC
  5
116
100
AcDbEntity
  8
M0
  6
CONTINUOUS
370
25
100
AcDbCircle
 10
395.165644
 20
211.555391
 40
2.773503
100
AcDbArc
 50
149.999999
 51
210.000001
  0
ARC
  5
117
100
AcDbEntity
  8
M0
  6
CONTINUOUS
370
25
100
AcDbCircle
 10
404.688413
 20
215.942142
 40
12.296272
100
AcDbArc
 50
165.878651
 51
194.121349
  0
ARC
  5
118
100
AcDbEntity
  8
M0
  6
CONTINUOUS
370
25
100
AcDbCircle
 10
395.165644
 20
220.328894
 40
2.773503
100
AcDbArc
 50
149.999999
 51
210.000001
  0
LINE
  5
119
100
AcDbEntity
  8
M0
  6
CONTINUOUS
370
25
100
AcDbLine
 10
392.392141
 20
211.555391
 11
392.392141
 21
220.328894
  0
LINE
  5
11A
100
AcDbEntity
  8
M0
  6
CONTINUOUS
370
25
100
AcDbLine
 10
396.392141
 20
215.942138
 11
397.892141
 21
217.348937
  0
LINE
  5
11B
100
AcDbEntity
  8
M0
  6
CONTINUOUS
370
25
100
AcDbLine
 10
397.892141
 20
215.942138
 11
396.392141
 21
214.654893
  0
ARC
  5
11C
100
AcDbEntity
  8
M0
  6
CONTINUOUS
370
25
100
AcDbCircle
 10
400.892141
 20
206.942138
 40
3.0
100
AcDbArc
 50
180.0
 51
270.0
  0
ARC
  5
11D
100
AcDbEntity
  8
M0
  6
CONTINUOUS
370
25
100
AcDbCircle
 10
395.892141
 20
221.442138
 40
2.0
100
AcDbArc
 50
0.0
 51
90.0
  0
LINE
  5
11E
100
AcDbEntity
  8
M0
  6
CONTINUOUS
370
25
100
AcDbLine
 10
397.892141
 20
206.942138
 11
397.892141
 21
301.942138
  0
LINE
  5
11F
100
AcDbEntity
  8
M0
  6
CONTINUOUS
370
25
100
AcDbLine
 10
409.892141
 20
203.942138
 11
400.892141
 21
203.942138
  0
LINE
  5
120
100
AcDbEntity
  8
M0
  6
CONTINUOUS
370
25
100
AcDbLine
 10
409.392141
 20
203.942138
 11
409.392141
 21
301.942138
  0
LINE
  5
121
100
AcDbEntity
  8
M0
  6
CONTINUOUS
370
25
100
AcDbLine
 10
395.892141
 20
223.442138
 11
364.892141
 21
223.442138
  0
LINE
  5
122
100
AcDbEntity
  8
M0
  6
CONTINUOUS
370
25
100
AcDbLine
 10
364.892141
 20
223.442138
 11
364.892141
 21
237.942138
  0
LINE
  5
123
100
AcDbEntity
  8
M0
  6
CONTINUOUS
370
25
100
AcDbLine
 10
364.892141
 20
237.942138
 11
359.892141
 21
237.942138
  0
LINE
  5
124
100
AcDbEntity
  8
M0
  6
CONTINUOUS
370
25
100
AcDbLine
 10
359.892141
 20
237.942138
 11
359.892141
 21
301.942138
  0
LINE
  5
125
100
AcDbEntity
  8
M0
  6
CONTINUOUS
370
25
100
AcDbLine
 10
359.892141
 20
259.442138
 11
353.392141
 21
259.442138
  0
LINE
  5
126
100
AcDbEntity
  8
M0
  6
CONTINUOUS
370
25
100
AcDbLine
 10
353.392141
 20
259.442138
 11
353.392141
 21
301.942138
  0
LINE
  5
127
100
AcDbEntity
  8
M0
  6
CONTINUOUS
370
25
100
AcDbLine
 10
389.375545
 20
235.269627
 11
359.892141
 21
239.692138
  0
ARC
  5
128
100
AcDbEntity
  8
M0
  6
CONTINUOUS
370
25
100
AcDbCircle
 10
387.892141
 20
225.380264
 40
10.0
100
AcDbArc
 50
0.0
 51
81.469234
  0
LINE
  5
129
100
AcDbEntity
  8
M0
  6
CONTINUOUS
370
25
100
AcDbLine
 10
485.892141
 20
249.942138
 11
485.892141
 21
253.16864
  0
ARC
  5
12A
100
AcDbEntity
  8
M0
  6
CONTINUOUS
370
25
100
AcDbCircle
 10
120.0
 20
301.942138
 40
109.5
100
AcDbArc
 50
61.962611
 51
419.079405
  0
ARC
  5
12B
100
AcDbEntity
  8
M0
  6
CONTINUOUS
370
25
100
AcDbCircle
 10
120.0
 20
301.942138
 40
78.5
100
AcDbArc
 50
40.831391
 51
79.168609
  0
ARC
  5
12C
100
AcDbEntity
  8
M0
  6
CONTINUOUS
370
25
100
AcDbCircle
 10
120.0
 20
301.942138
 40
64.0
100
AcDbArc
 50
141.562606
 51
158.437394
  0
CIRCLE
  5
12D
100
AcDbEntity
  8
M0
  6
CONTINUOUS
370
25
100
AcDbCircle
 10
120.0
 20
301.942138
 40
42.5
  0
ARC
  5
12E
100
AcDbEntity
  8
M0
  6
CONTINUOUS
370
25
100
AcDbCircle
 10
120.0
 20
301.942138
 40
16.0
100
AcDbArc
 50
108.209957
 51
431.790043
  0
CIRCLE
  5
12F
100
AcDbEntity
  8
M0
  6
CONTINUOUS
370
25
100
AcDbCircle
 10
120.0
 20
301.942138
 40
57.5
  0
CIRCLE
  5
130
100
AcDbEntity
  8
M0
  6
CONTINUOUS
370
25
100
AcDbCircle
 10
120.0
 20
301.942138
 40
52.5
  0
ARC
  5
131
100
AcDbEntity
  8
M0
  6
CONTINUOUS
370
25
100
AcDbCircle
 10
120.0
 20
301.942138
 40
63.0
100
AcDbArc
 50
100.738866
 51
139.247485
  0
LINE
  5
132
100
AcDbEntity
  8
M0
  6
CONTINUOUS
370
25
100
AcDbLine
 10
115.0
 20
321.442138
 11
125.0
 21
321.442138
  0
LINE
  5
133
100
AcDbEntity
  8
M0
  6
CONTINUOUS
370
25
100
AcDbLine
 10
125.0
 20
321.442138
 11
125.0
 21
317.140822
  0
LINE
  5
134
100
AcDbEntity
  8
M0
  6
CONTINUOUS
370
25
100
AcDbLine
 10
115.0
 20
321.442138
 11
115.0
 21
317.140822
  0
LINE
  5
135
100
AcDbEntity
  8
M0
  6
CONTINUOUS
370
25
100
AcDbLine
 10
130.0
 20
375.114879
 11
130.0
 21
372.058115
  0
LINE
  5
136
100
AcDbEntity
  8
M0
  6
CONTINUOUS
370
25
100
AcDbLine
 10
110.0
 20
375.114879
 11
110.0
 21
372.058116
  0
LINE
  5
137
100
AcDbEntity
  8
M0
  6
CONTINUOUS
370
25
100
AcDbLine
 10
61.630548
 20
347.188763
 11
64.277788
 21
345.660378
  0
LINE
  5
138
100
AcDbEntity
  8
M0
  6
CONTINUOUS
370
25
100
AcDbLine
 10
178.369452
 20
347.188763
 11
175.722219
 21
345.660382
  0
ARC
  5
139
100
AcDbEntity
  8
M0
  6
CONTINUOUS
370
25
100
AcDbCircle
 10
120.0
 20
301.942138
 40
78.5
100
AcDbArc
 50
100.831391
 51
139.168609
  0
ARC
  5
13A
100
AcDbEntity
  8
M0
  6
CONTINUOUS
370
25
100
AcDbCircle
 10
120.0
 20
301.942138
 40
67.5
100
AcDbArc
 50
101.291706
 51
138.708294
  0
CIRCLE
  5
13B
100
AcDbEntity
  8
M0
  6
CONTINUOUS
370
25
100
AcDbCircle
 10
120.0
 20
301.942138
 40
98.0
  0
ARC
  5
13C
100
AcDbEntity
  8
M0
  6
CONTINUOUS
370
25
100
AcDbCircle
 10
120.0
 20
301.942138
 40
67.5
100
AcDbArc
 50
41.291706
 51
78.708294
  0
ARC
  5
13D
100
AcDbEntity
  8
M0
  6
CONTINUOUS
370
25
100
AcDbCircle
 10
63.630548
 20
350.652864
 40
4.0
100
AcDbArc
 50
139.168609
 51
240.0
  0
ARC
  5
13E
100
AcDbEntity
  8
M0
  6
CONTINUOUS
370
25
100
AcDbCircle
 10
106.0
 20
375.114879
 40
4.0
100
AcDbArc
 50
0.0
 51
100.831391
  0
ARC
  5
13F
100
AcDbEntity
  8
M0
  6
CONTINUOUS
370
25
100
AcDbCircle
 10
134.0
 20
375.114879
 40
4.0
100
AcDbArc
 50
79.168609
 51
180.0
  0
ARC
  5
140
100
AcDbEntity
  8
M0
  6
CONTINUOUS
370
25
100
AcDbCircle
 10
173.722216
 20
349.124481
 40
4.0
100
AcDbArc
 50
282.427458
 51
300.0
  0
ARC
  5
141
100
AcDbEntity
  8
M0
  6
CONTINUOUS
370
25
100
AcDbCircle
 10
66.277784
 20
349.124481
 40
4.0
100
AcDbArc
 50
240.0
 51
318.708294
  0
ARC
  5
142
100
AcDbEntity
  8
M0
  6
CONTINUOUS
370
25
100
AcDbCircle
 10
134.0
 20
372.058113
 40
4.0
100
AcDbArc
 50
180.0
 51
258.708294
  0
ARC
  5
143
100
AcDbEntity
  8
M0
  6
CONTINUOUS
370
25
100
AcDbCircle
 10
106.0
 20
372.058113
 40
4.0
100
AcDbArc
 50
281.291706
 51
360.0
  0
ARC
  5
144
100
AcDbEntity
  8
M0
  6
CONTINUOUS
370
25
100
AcDbCircle
 10
176.369452
 20
350.652864
 40
4.0
100
AcDbArc
 50
300.0
 51
400.831391
  0
ARC
  5
145
100
AcDbEntity
  8
M0
  6
CONTINUOUS
370
25
100
AcDbCircle
 10
173.722216
 20
349.124481
 40
4.0
100
AcDbArc
 50
221.291706
 51
300.0
  0
ARC
  5
146
100
AcDbEntity
  8
M0
  6
CONTINUOUS
370
25
100
AcDbCircle
 10
120.0
 20
301.942138
 40
70.0
100
AcDbArc
 50
85.298877
 51
94.701123
  0
ARC
  5
147
100
AcDbEntity
  8
M0
  6
CONTINUOUS
370
25
100
AcDbCircle
 10
120.0
 20
371.942138
 40
8.5
100
AcDbArc
 50
356.519187
 51
543.480813
  0
CIRCLE
  5
148
100
AcDbEntity
  8
M0
  6
CONTINUOUS
370
25
100
AcDbCircle
 10
120.0
 20
371.942138
 40
3.0
  0
CIRCLE
  5
149
100
AcDbEntity
  8
M0
  6
CONTINUOUS
370
25
100
AcDbCircle
 10
120.0
 20
371.942138
 40
2.5
  0
ARC
  5
14A
100
AcDbEntity
  8
M0
  6
CONTINUOUS
370
25
100
AcDbCircle
 10
59.378222
 20
336.942138
 40
8.5
100
AcDbArc
 50
56.519187
 51
243.480813
  0
CIRCLE
  5
14B
100
AcDbEntity
  8
M0
  6
CONTINUOUS
370
25
100
AcDbCircle
 10
59.378222
 20
336.942138
 40
3.0
  0
CIRCLE
  5
14C
100
AcDbEntity
  8
M0
  6
CONTINUOUS
370
25
100
AcDbCircle
 10
59.378222
 20
336.942138
 40
2.5
  0
ARC
  5
14D
100
AcDbEntity
  8
M0
  6
CONTINUOUS
370
25
100
AcDbCircle
 10
120.0
 20
301.942138
 40
70.0
100
AcDbArc
 50
145.513484
 51
154.486516
  0
LINE
  5
14E
100
AcDbEntity
  8
M0
  6
CONTINUOUS
370
25
100
AcDbLine
 10
111.515681
 20
371.426067
 11
111.515681
 21
367.768742
  0
LINE
  5
14F
100
AcDbEntity
  8
M0
  6
CONTINUOUS
370
25
100
AcDbLine
 10
128.484319
 20
371.426067
 11
128.484319
 21
367.768742
  0
LINE
  5
150
100
AcDbEntity
  8
M0
  6
CONTINUOUS
370
25
100
AcDbLine
 10
64.075153
 20
344.045318
 11
67.245066
 21
342.215168
  0
LINE
  5
151
100
AcDbEntity
  8
M0
  6
CONTINUOUS
370
25
100
AcDbLine
 10
55.575153
 20
329.322886
 11
58.745066
 21
327.492736
  0
LINE
  5
152
100
AcDbEntity
  8
M0
  6
CONTINUOUS
370
25
100
AcDbLine
 10
63.52646
 20
334.547152
 11
54.672136
 21
339.659198
  0
CIRCLE
  5
153
100
AcDbEntity
  8
M0
  6
CONTINUOUS
370
25
100
AcDbCircle
 10
120.0
 20
387.942138
 40
5.0
  0
CIRCLE
  5
154
100
AcDbEntity
  8
M0
  6
CONTINUOUS
370
25
100
AcDbCircle
 10
45.521815
 20
344.942138
 40
5.0
  0
CIRCLE
  5
155
100
AcDbEntity
  8
M0
  6
CONTINUOUS
370
25
100
AcDbCircle
 10
45.521815
 20
258.942138
 40
5.0
  0
CIRCLE
  5
156
100
AcDbEntity
  8
M0
  6
CONTINUOUS
370
25
100
AcDbCircle
 10
120.0
 20
215.942138
 40
5.0
  0
CIRCLE
  5
157
100
AcDbEntity
  8
M0
  6
CONTINUOUS
370
25
100
AcDbCircle
 10
194.478185
 20
258.942138
 40
5.0
  0
CIRCLE
  5
158
100
AcDbEntity
  8
M0
  6
CONTINUOUS
370
25
100
AcDbCircle
 10
194.478185
 20
344.942138
 40
5.0
  0
LINE
  5
159
100
AcDbEntity
  8
M0
  6
CONTINUOUS
370
25
100
AcDbLine
 10
63.52646
 20
269.337124
 11
54.672136
 21
264.225079
  0
LINE
  5
15A
100
AcDbEntity
  8
M0
  6
CONTINUOUS
370
25
100
AcDbLine
 10
128.5
 20
232.45821
 11
128.5
 21
236.11851
  0
LINE
  5
15B
100
AcDbEntity
  8
M0
  6
CONTINUOUS
370
25
100
AcDbLine
 10
111.5
 20
232.45821
 11
111.5
 21
236.11851
  0
ARC
  5
15C
100
AcDbEntity
  8
M0
  6
CONTINUOUS
370
25
100
AcDbCircle
 10
120.0
 20
301.942138
 40
70.0
100
AcDbArc
 50
265.513484
 51
274.486516
  0
CIRCLE
  5
15D
100
AcDbEntity
  8
M0
  6
CONTINUOUS
370
25
100
AcDbCircle
 10
120.0
 20
231.942138
 40
2.5
  0
CIRCLE
  5
15E
100
AcDbEntity
  8
M0
  6
CONTINUOUS
370
25
100
AcDbCircle
 10
120.0
 20
231.942138
 40
3.0
  0
ARC
  5
15F
100
AcDbEntity
  8
M0
  6
CONTINUOUS
370
25
100
AcDbCircle
 10
120.0
 20
231.942138
 40
8.5
100
AcDbArc
 50
176.519187
 51
363.480813
  0
ARC
  5
160
100
AcDbEntity
  8
M0
  6
CONTINUOUS
370
25
100
AcDbCircle
 10
106.0
 20
231.826163
 40
4.0
100
AcDbArc
 50
0.0
 51
78.708294
  0
ARC
  5
161
100
AcDbEntity
  8
M0
  6
CONTINUOUS
370
25
100
AcDbCircle
 10
106.0
 20
228.769397
 40
4.0
100
AcDbArc
 50
259.168609
 51
360.0
  0
LINE
  5
162
100
AcDbEntity
  8
M0
  6
CONTINUOUS
370
25
100
AcDbLine
 10
110.0
 20
228.769397
 11
110.0
 21
231.826167
  0
ARC
  5
163
100
AcDbEntity
  8
M0
  6
CONTINUOUS
370
25
100
AcDbCircle
 10
120.0
 20
301.942138
 40
67.5
100
AcDbArc
 50
221.291706
 51
258.708294
  0
ARC
  5
164
100
AcDbEntity
  8
M0
  6
CONTINUOUS
370
25
100
AcDbCircle
 10
120.0
 20
301.942138
 40
78.5
100
AcDbArc
 50
220.831391
 51
259.168609
  0
LINE
  5
165
100
AcDbEntity
  8
M0
  6
CONTINUOUS
370
25
100
AcDbLine
 10
55.582993
 20
274.54781
 11
58.750329
 21
276.376472
  0
LINE
  5
166
100
AcDbEntity
  8
M0
  6
CONTINUOUS
370
25
100
AcDbLine
 10
64.067312
 20
259.852538
 11
67.234648
 21
261.6812
  0
CIRCLE
  5
167
100
AcDbEntity
  8
M0
  6
CONTINUOUS
370
25
100
AcDbCircle
 10
59.378222
 20
266.942138
 40
2.5
  0
CIRCLE
  5
168
100
AcDbEntity
  8
M0
  6
CONTINUOUS
370
25
100
AcDbCircle
 10
59.378222
 20
266.942138
 40
3.0
  0
ARC
  5
169
100
AcDbEntity
  8
M0
  6
CONTINUOUS
370
25
100
AcDbCircle
 10
59.378222
 20
266.942138
 40
8.5
100
AcDbArc
 50
116.519187
 51
303.480813
  0
ARC
  5
16A
100
AcDbEntity
  8
M0
  6
CONTINUOUS
370
25
100
AcDbCircle
 10
120.0
 20
301.942138
 40
70.0
100
AcDbArc
 50
205.298877
 51
214.701123
  0
ARC
  5
16B
100
AcDbEntity
  8
M0
  6
CONTINUOUS
370
25
100
AcDbCircle
 10
66.277784
 20
254.759795
 40
4.0
100
AcDbArc
 50
41.291706
 51
120.0
  0
ARC
  5
16C
100
AcDbEntity
  8
M0
  6
CONTINUOUS
370
25
100
AcDbCircle
 10
52.277784
 20
279.008506
 40
4.0
100
AcDbArc
 50
300.0
 51
378.708294
  0
ARC
  5
16D
100
AcDbEntity
  8
M0
  6
CONTINUOUS
370
25
100
AcDbCircle
 10
49.630548
 20
277.480123
 40
4.0
100
AcDbArc
 50
199.168609
 51
300.0
  0
ARC
  5
16E
100
AcDbEntity
  8
M0
  6
CONTINUOUS
370
25
100
AcDbCircle
 10
63.630548
 20
253.231412
 40
4.0
100
AcDbArc
 50
120.0
 51
220.831391
  0
LINE
  5
16F
100
AcDbEntity
  8
M0
  6
CONTINUOUS
370
25
100
AcDbLine
 10
61.630548
 20
256.695514
 11
64.277782
 21
258.223895
  0
LINE
  5
170
100
AcDbEntity
  8
M0
  6
CONTINUOUS
370
25
100
AcDbLine
 10
51.630548
 20
274.016022
 11
54.277783
 21
275.544404
  0
ARC
  5
171
100
AcDbEntity
  8
M0
  6
CONTINUOUS
370
25
100
AcDbCircle
 10
120.0
 20
301.942138
 40
67.5
100
AcDbArc
 50
161.291706
 51
198.708294
  0
ARC
  5
172
100
AcDbEntity
  8
M0
  6
CONTINUOUS
370
25
100
AcDbCircle
 10
120.0
 20
301.942138
 40
78.5
100
AcDbArc
 50
160.831391
 51
199.168609
  0
ARC
  5
173
100
AcDbEntity
  8
M0
  6
CONTINUOUS
370
25
100
AcDbCircle
 10
52.277784
 20
324.87577
 40
4.0
100
AcDbArc
 50
341.291706
 51
420.0
  0
ARC
  5
174
100
AcDbEntity
  8
M0
  6
CONTINUOUS
370
25
100
AcDbCircle
 10
49.630548
 20
326.404153
 40
4.0
100
AcDbArc
 50
60.0
 51
160.831391
  0
ARC
  5
175
100
AcDbEntity
  8
M0
  6
CONTINUOUS
370
25
100
AcDbCircle
 10
52.277784
 20
324.87577
 40
4.0
100
AcDbArc
 50
42.427458
 51
60.0
  0
LINE
  5
176
100
AcDbEntity
  8
M0
  6
CONTINUOUS
370
25
100
AcDbLine
 10
51.630548
 20
329.868255
 11
54.277781
 21
328.339873
  0
LINE
  5
177
100
AcDbEntity
  8
M0
  6
CONTINUOUS
370
25
100
AcDbLine
 10
176.47354
 20
334.547152
 11
185.327864
 21
339.659198
  0
LINE
  5
178
100
AcDbEntity
  8
M0
  6
CONTINUOUS
370
25
100
AcDbLine
 10
175.924847
 20
344.045318
 11
172.754934
 21
342.215168
  0
LINE
  5
179
100
AcDbEntity
  8
M0
  6
CONTINUOUS
370
25
100
AcDbLine
 10
184.424847
 20
329.322886
 11
181.254934
 21
327.492736
  0
ARC
  5
17A
100
AcDbEntity
  8
M0
  6
CONTINUOUS
370
25
100
AcDbCircle
 10
120.0
 20
301.942138
 40
70.0
100
AcDbArc
 50
25.513484
 51
34.486516
  0
CIRCLE
  5
17B
100
AcDbEntity
  8
M0
  6
CONTINUOUS
370
25
100
AcDbCircle
 10
180.621778
 20
336.942138
 40
2.5
  0
CIRCLE
  5
17C
100
AcDbEntity
  8
M0
  6
CONTINUOUS
370
25
100
AcDbCircle
 10
180.621778
 20
336.942138
 40
3.0
  0
ARC
  5
17D
100
AcDbEntity
  8
M0
  6
CONTINUOUS
370
25
100
AcDbCircle
 10
180.621778
 20
336.942138
 40
8.5
100
AcDbArc
 50
296.519187
 51
483.480813
  0
ARC
  5
17E
100
AcDbEntity
  8
M0
  6
CONTINUOUS
370
25
100
AcDbCircle
 10
187.722216
 20
324.87577
 40
4.0
100
AcDbArc
 50
120.0
 51
198.708294
  0
ARC
  5
17F
100
AcDbEntity
  8
M0
  6
CONTINUOUS
370
25
100
AcDbCircle
 10
190.369452
 20
326.404153
 40
4.0
100
AcDbArc
 50
19.168609
 51
120.0
  0
LINE
  5
180
100
AcDbEntity
  8
M0
  6
CONTINUOUS
370
25
100
AcDbLine
 10
188.369452
 20
329.868255
 11
185.722212
 21
328.33987
  0
ARC
  5
181
100
AcDbEntity
  8
M0
  6
CONTINUOUS
370
25
100
AcDbCircle
 10
120.0
 20
301.942138
 40
67.5
100
AcDbArc
 50
341.291706
 51
378.708294
  0
ARC
  5
182
100
AcDbEntity
  8
M0
  6
CONTINUOUS
370
25
100
AcDbCircle
 10
120.0
 20
301.942138
 40
78.5
100
AcDbArc
 50
340.831391
 51
379.168609
  0
LINE
  5
183
100
AcDbEntity
  8
M0
  6
CONTINUOUS
370
25
100
AcDbLine
 10
175.932688
 20
259.852538
 11
172.765352
 21
261.6812
  0
LINE
  5
184
100
AcDbEntity
  8
M0
  6
CONTINUOUS
370
25
100
AcDbLine
 10
184.417007
 20
274.54781
 11
181.249671
 21
276.376472
  0
CIRCLE
  5
185
100
AcDbEntity
  8
M0
  6
CONTINUOUS
370
25
100
AcDbCircle
 10
180.621778
 20
266.942138
 40
2.5
  0
CIRCLE
  5
186
100
AcDbEntity
  8
M0
  6
CONTINUOUS
370
25
100
AcDbCircle
 10
180.621778
 20
266.942138
 40
3.0
  0
ARC
  5
187
100
AcDbEntity
  8
M0
  6
CONTINUOUS
370
25
100
AcDbCircle
 10
180.621778
 20
266.942138
 40
8.5
100
AcDbArc
 50
236.519187
 51
423.480813
  0
ARC
  5
188
100
AcDbEntity
  8
M0
  6
CONTINUOUS
370
25
100
AcDbCircle
 10
120.0
 20
301.942138
 40
70.0
100
AcDbArc
 50
325.298877
 51
334.701123
  0
ARC
  5
189
100
AcDbEntity
  8
M0
  6
CONTINUOUS
370
25
100
AcDbCircle
 10
187.722216
 20
279.008506
 40
4.0
100
AcDbArc
 50
161.291706
 51
240.0
  0
ARC
  5
18A
100
AcDbEntity
  8
M0
  6
CONTINUOUS
370
25
100
AcDbCircle
 10
173.722216
 20
254.759795
 40
4.0
100
AcDbArc
 50
60.0
 51
138.708294
  0
ARC
  5
18B
100
AcDbEntity
  8
M0
  6
CONTINUOUS
370
25
100
AcDbCircle
 10
176.369452
 20
253.231412
 40
4.0
100
AcDbArc
 50
319.168609
 51
420.0
  0
ARC
  5
18C
100
AcDbEntity
  8
M0
  6
CONTINUOUS
370
25
100
AcDbCircle
 10
190.369452
 20
277.480123
 40
4.0
100
AcDbArc
 50
240.0
 51
340.831391
  0
LINE
  5
18D
100
AcDbEntity
  8
M0
  6
CONTINUOUS
370
25
100
AcDbLine
 10
188.369452
 20
274.016022
 11
185.722218
 21
275.544403
  0
LINE
  5
18E
100
AcDbEntity
  8
M0
  6
CONTINUOUS
370
25
100
AcDbLine
 10
178.369452
 20
256.695514
 11
175.722217
 21
258.223896
  0
ARC
  5
18F
100
AcDbEntity
  8
M0
  6
CONTINUOUS
370
25
100
AcDbCircle
 10
120.0
 20
301.942138
 40
67.5
100
AcDbArc
 50
281.291706
 51
318.708294
  0
ARC
  5
190
100
AcDbEntity
  8
M0
  6
CONTINUOUS
370
25
100
AcDbCircle
 10
120.0
 20
301.942138
 40
78.5
100
AcDbArc
 50
280.831391
 51
319.168609
  0
ARC
  5
191
100
AcDbEntity
  8
M0
  6
CONTINUOUS
370
25
100
AcDbCircle
 10
134.0
 20
231.826163
 40
4.0
100
AcDbArc
 50
101.291706
 51
180.0
  0
ARC
  5
192
100
AcDbEntity
  8
M0
  6
CONTINUOUS
370
25
100
AcDbCircle
 10
134.0
 20
228.769397
 40
4.0
100
AcDbArc
 50
180.0
 51
280.831391
  0
ARC
  5
193
100
AcDbEntity
  8
M0
  6
CONTINUOUS
370
25
100
AcDbCircle
 10
134.0
 20
231.826163
 40
4.0
100
AcDbArc
 50
162.427458
 51
180.0
  0
LINE
  5
194
100
AcDbEntity
  8
M0
  6
CONTINUOUS
370
25
100
AcDbLine
 10
130.0
 20
228.769397
 11
130.0
 21
231.826159
  0
LINE
  5
195
100
AcDbEntity
  8
M0
  6
CONTINUOUS
370
25
100
AcDbLine
 10
176.47354
 20
269.337124
 11
185.327864
 21
264.225079
  0
LINE
  5
196
100
AcDbEntity
  8
M0
  6
CONTINUOUS
370
25
100
AcDbLine
 10
120.0
 20
293.150685
 11
120.0
 21
310.733591
  0
LINE
  5
197
100
AcDbEntity
  8
M0
  6
CONTINUOUS
370
25
100
AcDbLine
 10
408.268937
 20
400.934455
 11
409.892141
 21
400.934455
  0
LINE
  5
198
100
AcDbEntity
  8
M0
  6
CONTINUOUS
370
25
100
AcDbLine
 10
401.268937
 20
442.300789
 11
401.268937
 21
433.809861
  0
LINE
  5
199
100
AcDbEntity
  8
M0
  6
CONTINUOUS
370
25
100
AcDbLine
 10
404.268937
 20
441.984306
 11
404.268937
 21
431.681512
  0
LINE
  5
19A
100
AcDbEntity
  8
M0
  6
CONTINUOUS
370
25
100
AcDbLine
 10
401.268937
 20
429.22435
 11
404.268937
 21
426.825121
  0
LINE
  5
19B
100
AcDbEntity
  8
M0
  6
CONTINUOUS
370
25
100
AcDbLine
 10
401.268937
 20
433.809861
 11
404.268937
 21
431.681512
  0
LINE
  5
19C
100
AcDbEntity
  8
M0
  6
CONTINUOUS
370
25
100
AcDbLine
 10
408.268937
 20
403.779105
 11
409.892141
 21
403.779105
  0
ARC
  5
19D
100
AcDbEntity
  8
M0
  6
CONTINUOUS
370
25
100
AcDbCircle
 10
376.510614
 20
431.187806
 40
30.138035
100
AcDbArc
 50
30.332966
 51
50.529028
  0
ARC
  5
19E
100
AcDbEntity
  8
M0
  6
CONTINUOUS
370
25
100
AcDbCircle
 10
376.510614
 20
431.187806
 40
27.138035
100
AcDbArc
 50
24.173331
 51
51.991271
  0
LINE
  5
19F
100
AcDbEntity
  8
M0
  6
CONTINUOUS
370
25
100
AcDbLine
 10
401.268937
 20
429.22435
 11
401.268937
 21
407.934455
  0
LINE
  5
1A0
100
AcDbEntity
  8
M0
  6
CONTINUOUS
370
25
100
AcDbLine
 10
404.268937
 20
426.825121
 11
404.268937
 21
407.779105
  0
ARC
  5
1A1
100
AcDbEntity
  8
M0
  6
CONTINUOUS
370
25
100
AcDbCircle
 10
423.870495
 20
437.645881
 40
23.075931
100
AcDbArc
 50
133.020109
 51
168.362362
  0
ARC
  5
1A2
100
AcDbEntity
  8
M0
  6
CONTINUOUS
370
25
100
AcDbCircle
 10
423.870495
 20
437.645881
 40
20.075931
100
AcDbArc
 50
131.486816
 51
167.519882
  0
LINE
  5
1A3
100
AcDbEntity
  8
M0
  6
CONTINUOUS
370
25
100
AcDbLine
 10
711.878085
 20
311.863582
 11
711.878085
 21
292.020695
  0
CIRCLE
  5
1A4
100
AcDbEntity
  8
M0
  6
CONTINUOUS
370
25
100
AcDbCircle
 10
711.878085
 20
301.942138
 40
109.5
  0
LINE
  5
1A5
100
AcDbEntity
  8
M0
  6
CONTINUOUS
370
25
100
AcDbLine
 10
706.878085
 20
321.442138
 11
706.878085
 21
317.140822
  0
LINE
  5
1A6
100
AcDbEntity
  8
M0
  6
CONTINUOUS
370
25
100
AcDbLine
 10
716.878085
 20
321.442138
 11
716.878085
 21
317.140822
  0
LINE
  5
1A7
100
AcDbEntity
  8
M0
  6
CONTINUOUS
370
25
100
AcDbLine
 10
706.878085
 20
321.442138
 11
716.878085
 21
321.442138
  0
ARC
  5
1A8
100
AcDbEntity
  8
M0
  6
CONTINUOUS
370
25
100
AcDbCircle
 10
711.878085
 20
301.942138
 40
16.0
100
AcDbArc
 50
108.209957
 51
431.790043
  0
ARC
  5
1A9
100
AcDbEntity
  8
M0
  6
CONTINUOUS
370
25
100
AcDbCircle
 10
711.878085
 20
301.942138
 40
20.0
100
AcDbArc
 50
77.161432
 51
102.838568
  0
ARC
  5
1AA
100
AcDbEntity
  8
M0
  6
CONTINUOUS
370
25
100
AcDbCircle
 10
711.878085
 20
301.942138
 40
43.0
100
AcDbArc
 50
47.718932
 51
72.281068
  0
ARC
  5
1AB
100
AcDbEntity
  8
M0
  6
CONTINUOUS
370
25
100
AcDbCircle
 10
711.878085
 20
301.942138
 40
52.0
100
AcDbArc
 50
46.60155
 51
73.39845
  0
CIRCLE
  5
1AC
100
AcDbEntity
  8
M0
  6
CONTINUOUS
370
25
100
AcDbCircle
 10
711.878085
 20
301.942138
 40
98.0
  0
CIRCLE
  5
1AD
100
AcDbEntity
  8
M0
  6
CONTINUOUS
370
25
100
AcDbCircle
 10
711.878085
 20
301.942138
 40
79.0
  0
CIRCLE
  5
1AE
100
AcDbEntity
  8
M0
  6
CONTINUOUS
370
25
100
AcDbCircle
 10
711.878085
 20
387.942138
 40
5.0
  0
CIRCLE
  5
1AF
100
AcDbEntity
  8
M0
  6
CONTINUOUS
370
25
100
AcDbCircle
 10
734.394746
 20
314.942138
 40
5.0
  0
ARC
  5
1B0
100
AcDbEntity
  8
M0
  6
CONTINUOUS
370
25
100
AcDbCircle
 10
711.878085
 20
301.942138
 40
20.0
100
AcDbArc
 50
104.477512
 51
435.522488
  0
CIRCLE
  5
1B1
100
AcDbEntity
  8
M0
  6
CONTINUOUS
370
25
100
AcDbCircle
 10
637.3999
 20
344.942138
 40
5.0
  0
CIRCLE
  5
1B2
100
AcDbEntity
  8
M0
  6
CONTINUOUS
370
25
100
AcDbCircle
 10
637.3999
 20
258.942138
 40
5.0
  0
CIRCLE
  5
1B3
100
AcDbEntity
  8
M0
  6
CONTINUOUS
370
25
100
AcDbCircle
 10
711.878085
 20
215.942138
 40
5.0
  0
CIRCLE
  5
1B4
100
AcDbEntity
  8
M0
  6
CONTINUOUS
370
25
100
AcDbCircle
 10
786.35627
 20
258.942138
 40
5.0
  0
CIRCLE
  5
1B5
100
AcDbEntity
  8
M0
  6
CONTINUOUS
370
25
100
AcDbCircle
 10
786.35627
 20
344.942138
 40
5.0
  0
CIRCLE
  5
1B6
100
AcDbEntity
  8
M0
  6
CONTINUOUS
370
25
100
AcDbCircle
 10
689.361425
 20
314.942138
 40
5.0
  0
CIRCLE
  5
1B7
100
AcDbEntity
  8
M0
  6
CONTINUOUS
370
25
100
AcDbCircle
 10
689.361425
 20
288.942138
 40
5.0
  0
CIRCLE
  5
1B8
100
AcDbEntity
  8
M0
  6
CONTINUOUS
370
25
100
AcDbCircle
 10
734.394746
 20
288.942138
 40
5.0
  0
LINE
  5
1B9
100
AcDbEntity
  8
M0
  6
CONTINUOUS
370
25
100
AcDbLine
 10
722.878085
 20
348.899566
 11
722.878085
 21
345.759943
  0
LINE
  5
1BA
100
AcDbEntity
  8
M0
  6
CONTINUOUS
370
25
100
AcDbLine
 10
744.325417
 20
333.37732
 11
747.04441
 21
334.947131
  0
ARC
  5
1BB
100
AcDbEntity
  8
M0
  6
CONTINUOUS
370
25
100
AcDbCircle
 10
725.878085
 20
348.899566
 40
3.0
100
AcDbArc
 50
73.39845
 51
180.0
  0
ARC
  5
1BC
100
AcDbEntity
  8
M0
  6
CONTINUOUS
370
25
100
AcDbCircle
 10
725.878085
 20
345.759943
 40
3.0
100
AcDbArc
 50
180.0
 51
252.281068
  0
ARC
  5
1BD
100
AcDbEntity
  8
M0
  6
CONTINUOUS
370
25
100
AcDbCircle
 10
742.825417
 20
335.975396
 40
3.0
100
AcDbArc
 50
227.718932
 51
300.0
  0
ARC
  5
1BE
100
AcDbEntity
  8
M0
  6
CONTINUOUS
370
25
100
AcDbCircle
 10
745.54441
 20
337.545208
 40
3.0
100
AcDbArc
 50
300.0
 51
406.60155
  0
ARC
  5
1BF
100
AcDbEntity
  8
M0
  6
CONTINUOUS
370
25
100
AcDbCircle
 10
697.878085
 20
348.899566
 40
3.0
100
AcDbArc
 50
0.0
 51
106.60155
  0
ARC
  5
1C0
100
AcDbEntity
  8
M0
  6
CONTINUOUS
370
25
100
AcDbCircle
 10
697.878085
 20
345.759943
 40
3.0
100
AcDbArc
 50
287.718932
 51
360.0
  0
ARC
  5
1C1
100
AcDbEntity
  8
M0
  6
CONTINUOUS
370
25
100
AcDbCircle
 10
680.930753
 20
335.975396
 40
3.0
100
AcDbArc
 50
240.0
 51
312.281068
  0
ARC
  5
1C2
100
AcDbEntity
  8
M0
  6
CONTINUOUS
370
25
100
AcDbCircle
 10
678.21176
 20
337.545208
 40
3.0
100
AcDbArc
 50
133.39845
 51
240.0
  0
LINE
  5
1C3
100
AcDbEntity
  8
M0
  6
CONTINUOUS
370
25
100
AcDbLine
 10
700.878085
 20
345.759943
 11
700.878085
 21
348.899566
  0
LINE
  5
1C4
100
AcDbEntity
  8
M0
  6
CONTINUOUS
370
25
100
AcDbLine
 10
676.71176
 20
334.947131
 11
679.430753
 21
333.37732
  0
ARC
  5
1C5
100
AcDbEntity
  8
M0
  6
CONTINUOUS
370
25
100
AcDbCircle
 10
711.878085
 20
301.942138
 40
52.0
100
AcDbArc
 50
106.60155
 51
133.39845
  0
ARC
  5
1C6
100
AcDbEntity
  8
M0
  6
CONTINUOUS
370
25
100
AcDbCircle
 10
711.878085
 20
301.942138
 40
43.0
100
AcDbArc
 50
107.718932
 51
132.281068
  0
ARC
  5
1C7
100
AcDbEntity
  8
M0
  6
CONTINUOUS
370
25
100
AcDbCircle
 10
664.21176
 20
313.296496
 40
3.0
100
AcDbArc
 50
60.0
 51
166.60155
  0
ARC
  5
1C8
100
AcDbEntity
  8
M0
  6
CONTINUOUS
370
25
100
AcDbCircle
 10
666.930753
 20
311.726685
 40
3.0
100
AcDbArc
 50
347.718932
 51
420.0
  0
ARC
  5
1C9
100
AcDbEntity
  8
M0
  6
CONTINUOUS
370
25
100
AcDbCircle
 10
666.930753
 20
292.157591
 40
3.0
100
AcDbArc
 50
300.0
 51
372.281068
  0
ARC
  5
1CA
100
AcDbEntity
  8
M0
  6
CONTINUOUS
370
25
100
AcDbCircle
 10
664.21176
 20
290.58778
 40
3.0
100
AcDbArc
 50
193.39845
 51
300.0
  0
LINE
  5
1CB
100
AcDbEntity
  8
M0
  6
CONTINUOUS
370
25
100
AcDbLine
 10
668.430753
 20
314.324761
 11
665.71176
 21
315.894572
  0
LINE
  5
1CC
100
AcDbEntity
  8
M0
  6
CONTINUOUS
370
25
100
AcDbLine
 10
665.71176
 20
287.989704
 11
668.430753
 21
289.559515
  0
ARC
  5
1CD
100
AcDbEntity
  8
M0
  6
CONTINUOUS
370
25
100
AcDbCircle
 10
711.878085
 20
301.942138
 40
52.0
100
AcDbArc
 50
166.60155
 51
193.39845
  0
ARC
  5
1CE
100
AcDbEntity
  8
M0
  6
CONTINUOUS
370
25
100
AcDbCircle
 10
711.878085
 20
301.942138
 40
43.0
100
AcDbArc
 50
167.718932
 51
192.281068
  0
ARC
  5
1CF
100
AcDbEntity
  8
M0
  6
CONTINUOUS
370
25
100
AcDbCircle
 10
678.21176
 20
266.339069
 40
3.0
100
AcDbArc
 50
120.0
 51
226.60155
  0
ARC
  5
1D0
100
AcDbEntity
  8
M0
  6
CONTINUOUS
370
25
100
AcDbCircle
 10
680.930753
 20
267.90888
 40
3.0
100
AcDbArc
 50
47.718932
 51
120.0
  0
ARC
  5
1D1
100
AcDbEntity
  8
M0
  6
CONTINUOUS
370
25
100
AcDbCircle
 10
697.878085
 20
258.124334
 40
3.0
100
AcDbArc
 50
0.0
 51
72.281068
  0
ARC
  5
1D2
100
AcDbEntity
  8
M0
  6
CONTINUOUS
370
25
100
AcDbCircle
 10
697.878085
 20
254.984711
 40
3.0
100
AcDbArc
 50
253.39845
 51
360.0
  0
LINE
  5
1D3
100
AcDbEntity
  8
M0
  6
CONTINUOUS
370
25
100
AcDbLine
 10
679.430753
 20
270.506956
 11
676.71176
 21
268.937145
  0
LINE
  5
1D4
100
AcDbEntity
  8
M0
  6
CONTINUOUS
370
25
100
AcDbLine
 10
700.878085
 20
254.984711
 11
700.878085
 21
258.124334
  0
ARC
  5
1D5
100
AcDbEntity
  8
M0
  6
CONTINUOUS
370
25
100
AcDbCircle
 10
711.878085
 20
301.942138
 40
52.0
100
AcDbArc
 50
226.60155
 51
253.39845
  0
ARC
  5
1D6
100
AcDbEntity
  8
M0
  6
CONTINUOUS
370
25
100
AcDbCircle
 10
711.878085
 20
301.942138
 40
43.0
100
AcDbArc
 50
227.718932
 51
252.281068
  0
ARC
  5
1D7
100
AcDbEntity
  8
M0
  6
CONTINUOUS
370
25
100
AcDbCircle
 10
725.878085
 20
254.984711
 40
3.0
100
AcDbArc
 50
180.0
 51
286.60155
  0
ARC
  5
1D8
100
AcDbEntity
  8
M0
  6
CONTINUOUS
370
25
100
AcDbCircle
 10
725.878085
 20
258.124334
 40
3.0
100
AcDbArc
 50
107.718932
 51
180.0
  0
ARC
  5
1D9
100
AcDbEntity
  8
M0
  6
CONTINUOUS
370
25
100
AcDbCircle
 10
742.825417
 20
267.90888
 40
3.0
100
AcDbArc
 50
60.0
 51
132.281068
  0
ARC
  5
1DA
100
AcDbEntity
  8
M0
  6
CONTINUOUS
370
25
100
AcDbCircle
 10
745.54441
 20
266.339069
 40
3.0
100
AcDbArc
 50
313.39845
 51
420.0
  0
LINE
  5
1DB
100
AcDbEntity
  8
M0
  6
CONTINUOUS
370
25
100
AcDbLine
 10
722.878085
 20
258.124334
 11
722.878085
 21
254.984711
  0
LINE
  5
1DC
100
AcDbEntity
  8
M0
  6
CONTINUOUS
370
25
100
AcDbLine
 10
747.04441
 20
268.937145
 11
744.325417
 21
270.506956
  0
ARC
  5
1DD
100
AcDbEntity
  8
M0
  6
CONTINUOUS
370
25
100
AcDbCircle
 10
711.878085
 20
301.942138
 40
52.0
100
AcDbArc
 50
286.60155
 51
313.39845
  0
ARC
  5
1DE
100
AcDbEntity
  8
M0
  6
CONTINUOUS
370
25
100
AcDbCircle
 10
711.878085
 20
301.942138
 40
43.0
100
AcDbArc
 50
287.718932
 51
312.281068
  0
ARC
  5
1DF
100
AcDbEntity
  8
M0
  6
CONTINUOUS
370
25
100
AcDbCircle
 10
759.54441
 20
290.58778
 40
3.0
100
AcDbArc
 50
240.0
 51
346.60155
  0
ARC
  5
1E0
100
AcDbEntity
  8
M0
  6
CONTINUOUS
370
25
100
AcDbCircle
 10
756.825417
 20
292.157591
 40
3.0
100
AcDbArc
 50
167.718932
 51
240.0
  0
ARC
  5
1E1
100
AcDbEntity
  8
M0
  6
CONTINUOUS
370
25
100
AcDbCircle
 10
756.825417
 20
311.726685
 40
3.0
100
AcDbArc
 50
120.0
 51
192.281068
  0
ARC
  5
1E2
100
AcDbEntity
  8
M0
  6
CONTINUOUS
370
25
100
AcDbCircle
 10
759.54441
 20
313.296496
 40
3.0
100
AcDbArc
 50
13.39845
 51
120.0
  0
LINE
  5
1E3
100
AcDbEntity
  8
M0
  6
CONTINUOUS
370
25
100
AcDbLine
 10
755.325417
 20
289.559515
 11
758.04441
 21
287.989704
  0
LINE
  5
1E4
100
AcDbEntity
  8
M0
  6
CONTINUOUS
370
25
100
AcDbLine
 10
758.04441
 20
315.894572
 11
755.325417
 21
314.324761
  0
ARC
  5
1E5
100
AcDbEntity
  8
M0
  6
CONTINUOUS
370
25
100
AcDbCircle
 10
711.878085
 20
301.942138
 40
52.0
100
AcDbArc
 50
346.60155
 51
373.39845
  0
ARC
  5
1E6
100
AcDbEntity
  8
M0
  6
CONTINUOUS
370
25
100
AcDbCircle
 10
711.878085
 20
301.942138
 40
43.0
100
AcDbArc
 50
347.718932
 51
372.281068
  0
CIRCLE
  5
1E7
100
AcDbEntity
  8
M0
  6
CONTINUOUS
370
25
100
AcDbCircle
 10
711.878085
 20
301.942138
 40
43.0
  0
LINE
  5
1E8
100
AcDbEntity
  8
M0
  6
CONTINUOUS
370
25
100
AcDbLine
 10
340.304183
 20
301.942138
 11
357.145825
 21
301.942138
  0
LINE
  5
1E9
100
AcDbEntity
  8
M0
  6
CONTINUOUS
370
25
100
AcDbLine
 10
701.956642
 20
301.942138
 11
721.799529
 21
301.942138
  0
LINE
  5
1EA
100
AcDbEntity
  8
M0
  6
CONTINUOUS
370
25
100
AcDbLine
 10
419.892141
 20
339.442138
 11
419.892141
 21
330.442138
  0
LINE
  5
1EB
100
AcDbEntity
  8
M0
  6
CONTINUOUS
370
25
100
AcDbLine
 10
419.892141
 20
330.442138
 11
425.392141
 21
330.442138
  0
LINE
  5
1EC
100
AcDbEntity
  8
M0
  6
CONTINUOUS
370
25
100
AcDbLine
 10
425.392141
 20
330.442138
 11
425.392141
 21
323.442138
  0
LINE
  5
1ED
100
AcDbEntity
  8
M0
  6
CONTINUOUS
370
25
100
AcDbLine
 10
430.592141
 20
326.942138
 11
430.592141
 21
323.442138
  0
LINE
  5
1EE
100
AcDbEntity
  8
M0
  6
CONTINUOUS
370
25
100
AcDbLine
 10
433.092141
 20
326.942138
 11
433.092141
 21
325.942138
  0
LINE
  5
1EF
100
AcDbEntity
  8
M0
  6
CONTINUOUS
370
25
100
AcDbLine
 10
425.392141
 20
323.442138
 11
430.592141
 21
323.442138
  0
LINE
  5
1F0
100
AcDbEntity
  8
M0
  6
CONTINUOUS
370
25
100
AcDbLine
 10
430.592141
 20
326.942138
 11
433.092141
 21
326.942138
  0
LINE
  5
1F1
100
AcDbEntity
  8
M0
  6
CONTINUOUS
370
25
100
AcDbLine
 10
474.892141
 20
344.942138
 11
474.892141
 21
301.942138
  0
LINE
  5
1F2
100
AcDbEntity
  8
M0
  6
CONTINUOUS
370
25
100
AcDbLine
 10
465.892141
 20
346.942138
 11
465.892141
 21
335.942138
  0
LINE
  5
1F3
100
AcDbEntity
  8
M0
  6
CONTINUOUS
370
25
100
AcDbLine
 10
467.892141
 20
335.942138
 11
467.892141
 21
321.942138
  0
LINE
  5
1F4
100
AcDbEntity
  8
M0
  6
CONTINUOUS
370
25
100
AcDbLine
 10
485.892141
 20
353.942138
 11
474.892141
 21
344.942138
  0
LINE
  5
1F5
100
AcDbEntity
  8
M0
  6
CONTINUOUS
370
25
100
AcDbLine
 10
465.892141
 20
346.942138
 11
478.581194
 21
355.476648
  0
ARC
  5
1F6
100
AcDbEntity
  8
M0
  6
CONTINUOUS
370
25
100
AcDbCircle
 10
476.348805
 20
358.79575
 40
4.0
100
AcDbArc
 50
303.924319
 51
370.491477
  0
LINE
  5
1F7
100
AcDbEntity
  8
M0
  6
CONTINUOUS
370
25
100
AcDbLine
 10
397.892141
 20
258.942138
 11
396.392141
 21
257.654893
  0
LINE
  5
1F8
100
AcDbEntity
  8
M0
  6
CONTINUOUS
370
25
100
AcDbLine
 10
396.392141
 20
258.942138
 11
397.892141
 21
260.348937
  0
LINE
  5
1F9
100
AcDbEntity
  8
M0
  6
CONTINUOUS
370
25
100
AcDbLine
 10
392.392141
 20
254.555391
 11
392.392141
 21
263.328894
  0
ARC
  5
1FA
100
AcDbEntity
  8
M0
  6
CONTINUOUS
370
25
100
AcDbCircle
 10
395.165644
 20
263.328894
 40
2.773503
100
AcDbArc
 50
149.999999
 51
210.000001
  0
ARC
  5
1FB
100
AcDbEntity
  8
M0
  6
CONTINUOUS
370
25
100
AcDbCircle
 10
404.688413
 20
258.942142
 40
12.296272
100
AcDbArc
 50
165.878651
 51
194.121349
  0
ARC
  5
1FC
100
AcDbEntity
  8
M0
  6
CONTINUOUS
370
25
100
AcDbCircle
 10
395.165644
 20
254.555391
 40
2.773503
100
AcDbArc
 50
149.999999
 51
210.000001
  0
LINE
  5
1FD
100
AcDbEntity
  8
M0
  6
CONTINUOUS
370
25
100
AcDbLine
 10
396.392141
 20
265.042142
 11
397.800018
 21
265.042142
  0
LINE
  5
1FE
100
AcDbEntity
  8
M0
  6
CONTINUOUS
370
25
100
AcDbLine
 10
396.392141
 20
252.842142
 11
397.892141
 21
252.842142
  0
LINE
  5
1FF
100
AcDbEntity
  8
M0
  6
CONTINUOUS
370
25
100
AcDbLine
 10
396.392141
 20
252.842142
 11
396.392141
 21
265.042142
  0
LINE
  5
200
100
AcDbEntity
  8
M0
  6
CONTINUOUS
370
25
100
AcDbLine
 10
482.392141
 20
252.842142
 11
482.392141
 21
265.042142
  0
LINE
  5
201
100
AcDbEntity
  8
M0
  6
CONTINUOUS
370
25
100
AcDbLine
 10
482.392141
 20
252.842142
 11
480.892141
 21
252.842142
  0
LINE
  5
202
100
AcDbEntity
  8
M0
  6
CONTINUOUS
370
25
100
AcDbLine
 10
482.392141
 20
265.042142
 11
480.892141
 21
265.042142
  0
ARC
  5
203
100
AcDbEntity
  8
M0
  6
CONTINUOUS
370
25
100
AcDbCircle
 10
483.618638
 20
254.555391
 40
2.773503
100
AcDbArc
 50
329.999999
 51
390.000001
  0
ARC
  5
204
100
AcDbEntity
  8
M0
  6
CONTINUOUS
370
25
100
AcDbCircle
 10
474.095869
 20
258.942142
 40
12.296272
100
AcDbArc
 50
345.878651
 51
374.121349
  0
ARC
  5
205
100
AcDbEntity
  8
M0
  6
CONTINUOUS
370
25
100
AcDbCircle
 10
483.618638
 20
263.328894
 40
2.773503
100
AcDbArc
 50
329.999999
 51
390.000001
  0
LINE
  5
206
100
AcDbEntity
  8
M0
  6
CONTINUOUS
370
25
100
AcDbLine
 10
486.392141
 20
254.555391
 11
486.392141
 21
263.328894
  0
LINE
  5
207
100
AcDbEntity
  8
M0
  6
CONTINUOUS
370
25
100
AcDbLine
 10
482.392141
 20
258.942138
 11
480.892141
 21
257.535339
  0
LINE
  5
208
100
AcDbEntity
  8
M0
  6
CONTINUOUS
370
25
100
AcDbLine
 10
480.892141
 20
258.942138
 11
482.392141
 21
260.229383
  0
LINE
  5
209
100
AcDbEntity
  8
M0
  6
CONTINUOUS
370
25
100
AcDbLine
 10
485.892141
 20
264.715645
 11
485.892141
 21
301.942138
  0
LINE
  5
20A
100
AcDbEntity
  8
M0
  6
CONTINUOUS
370
25
100
AcDbLine
 10
382.892141
 20
373.942138
 11
384.046841
 21
371.942138
  0
LINE
  5
20B
100
AcDbEntity
  8
M0
  6
CONTINUOUS
370
25
100
AcDbLine
 10
382.892141
 20
369.942138
 11
384.046841
 21
371.942138
  0
LINE
  5
20C
100
AcDbEntity
  8
M0
  6
CONTINUOUS
370
25
100
AcDbLine
 10
120.0
 20
378.626838
 11
120.0
 21
366.375915
  0
LINE
  5
20D
100
AcDbEntity
  8
M0
  6
CONTINUOUS
370
25
100
AcDbLine
 10
120.0
 20
225.490305
 11
120.0
 21
236.209862
  0
LINE
  5
20E
100
AcDbEntity
  8
M0
  6
CONTINUOUS
370
25
100
AcDbLine
 10
481.652804
 20
301.942138
 11
499.594373
 21
301.942138
  0
LINE
  5
20F
100
AcDbEntity
  8
M0
  6
CONTINUOUS
370
25
100
AcDbLine
 10
640.289393
 20
431.452599
 11
659.53487
 21
398.121334
  0
LINE
  5
210
100
AcDbEntity
  8
M0
  6
CONTINUOUS
370
25
100
AcDbLine
 10
640.289393
 20
431.452599
 11
635.015947
 21
429.553165
  0
LINE
  5
211
100
AcDbEntity
  8
M0
  6
CONTINUOUS
370
25
100
AcDbLine
 10
635.015947
 20
429.553165
 11
654.756116
 21
395.362322
  0
LINE
  5
212
100
AcDbEntity
  8
M0
  6
CONTINUOUS
370
25
100
AcDbLine
 10
637.65267
 20
430.502882
 11
657.128041
 21
396.771894
  0
LINE
  5
213
100
AcDbEntity
  8
M0
  6
CONTINUOUS
370
25
100
AcDbLine
 10
632.988229
 20
433.063738
 11
638.399615
 21
434.725915
  0
LINE
  5
214
100
AcDbEntity
  8
M0
  6
CONTINUOUS
370
25
100
AcDbLine
 10
638.399615
 20
434.725915
 11
634.184169
 21
442.027079
  0
LINE
  5
215
100
AcDbEntity
  8
M0
  6
CONTINUOUS
370
25
100
AcDbLine
 10
631.795311
 20
440.647831
 11
635.693922
 21
433.894826
  0
LINE
  5
216
100
AcDbEntity
  8
M0
  6
CONTINUOUS
370
25
100
AcDbLine
 10
632.988229
 20
433.063738
 11
629.405927
 21
439.268279
  0
LINE
  5
217
100
AcDbEntity
  8
M0
  6
CONTINUOUS
370
25
100
AcDbLine
 10
612.952444
 20
446.165279
 11
619.849444
 21
446.165279
  0
LINE
  5
218
100
AcDbEntity
  8
M0
  6
CONTINUOUS
370
25
100
AcDbLine
 10
636.438108
 20
459.724781
 11
632.989608
 21
453.751979
  0
LINE
  5
219
100
AcDbEntity
  8
M0
  6
CONTINUOUS
370
25
100
AcDbLine
 10
634.184169
 20
453.062279
 11
631.795048
 21
454.441679
  0
LINE
  5
21A
100
AcDbEntity
  8
M0
  6
CONTINUOUS
370
25
100
AcDbLine
 10
619.849444
 20
447.544679
 11
619.849444
 21
444.785879
  0
ARC
  5
21B
100
AcDbEntity
  8
M0
  6
CONTINUOUS
370
25
100
AcDbCircle
 10
642.961864
 20
447.544679
 40
13.125029
100
AcDbArc
 50
148.299131
 51
211.700869
  0
ARC
  5
21C
100
AcDbEntity
  8
M0
  6
CONTINUOUS
370
25
100
AcDbCircle
 10
619.878868
 20
433.80225
 40
13.742461
100
AcDbArc
 50
29.875866
 51
90.122679
  0
ARC
  5
21D
100
AcDbEntity
  8
M0
  6
CONTINUOUS
370
25
100
AcDbCircle
 10
619.431262
 20
433.026356
 40
11.766956
100
AcDbArc
 50
32.037372
 51
87.963356
  0
ARC
  5
21E
100
AcDbEntity
  8
M0
  6
CONTINUOUS
370
25
100
AcDbCircle
 10
645.300274
 20
447.544679
 40
12.410146
100
AcDbArc
 50
153.601996
 51
206.398004
  0
LINE
  5
21F
100
AcDbEntity
  8
M0
  6
CONTINUOUS
370
25
100
AcDbLine
 10
395.86056
 20
454.60013
 11
393.221715
 21
452.570324
  0
LINE
  5
220
100
AcDbEntity
  8
M0
  6
CONTINUOUS
370
25
100
AcDbLine
 10
408.126826
 20
454.517024
 11
410.571241
 21
452.684924
  0
LINE
  5
221
100
AcDbEntity
  8
M0
  6
CONTINUOUS
370
25
100
AcDbLine
 10
394.644498
 20
453.664732
 11
390.56301
 21
457.191381
  0
LINE
  5
222
100
AcDbEntity
  8
M0
  6
CONTINUOUS
370
25
100
AcDbLine
 10
409.309711
 20
453.630447
 11
412.957557
 21
456.819827
  0
ARC
  5
223
100
AcDbEntity
  8
M0
  6
CONTINUOUS
370
25
100
AcDbCircle
 10
408.268937
 20
407.779105
 40
4.0
100
AcDbArc
 50
180.0
 51
270.0
  0
ARC
  5
224
100
AcDbEntity
  8
M0
  6
CONTINUOUS
370
25
100
AcDbCircle
 10
408.268937
 20
407.934455
 40
7.0
100
AcDbArc
 50
180.0
 51
270.0
  0
LINE
  5
225
100
AcDbEntity
  8
M0
  6
CONTINUOUS
370
25
100
AcDbLine
 10
359.892141
 20
364.942138
 11
389.375545
 21
369.364649
  0
ARC
  5
226
100
AcDbEntity
  8
M0
  6
CONTINUOUS
370
25
100
AcDbCircle
 10
387.892141
 20
379.254012
 40
10.0
100
AcDbArc
 50
278.530766
 51
360.0
  0
LINE
  5
227
100
AcDbEntity
  8
M0
  6
CONTINUOUS
370
25
100
AcDbLine
 10
359.892141
 20
357.442138
 11
359.892141
 21
341.442138
  0
LINE
  5
228
100
AcDbEntity
  8
M0
  6
CONTINUOUS
370
25
100
AcDbLine
 10
439.892141
 20
346.942138
 11
439.892141
 21
334.942138
  0
LINE
  5
229
100
AcDbEntity
  8
M0
  6
CONTINUOUS
370
25
100
AcDbLine
 10
443.892141
 20
351.942138
 11
443.892141
 21
346.942138
  0
LINE
  5
22A
100
AcDbEntity
  8
M0
  6
CONTINUOUS
370
25
100
AcDbLine
 10
444.892141
 20
351.942138
 11
444.892141
 21
335.942138
  0
LINE
  5
22B
100
AcDbEntity
  8
M0
  6
CONTINUOUS
370
25
100
AcDbLine
 10
425.892141
 20
327.692138
 11
426.892141
 21
327.692138
  0
LINE
  5
22C
100
AcDbEntity
  8
M0
  6
CONTINUOUS
370
25
100
AcDbLine
 10
425.892141
 20
330.492138
 11
425.892141
 21
327.692138
  0
ARC
  5
22D
100
AcDbEntity
  8
M0
  6
CONTINUOUS
370
25
100
AcDbCircle
 10
107.515681
 20
367.768742
 40
4.0
100
AcDbArc
 50
280.738866
 51
360.0
  0
ARC
  5
22E
100
AcDbEntity
  8
M0
  6
CONTINUOUS
370
25
100
AcDbCircle
 10
132.484319
 20
367.768742
 40
4.0
100
AcDbArc
 50
180.0
 51
259.261134
  0
ARC
  5
22F
100
AcDbEntity
  8
M0
  6
CONTINUOUS
370
25
100
AcDbCircle
 10
170.754934
 20
345.67927
 40
4.0
100
AcDbArc
 50
220.752515
 51
300.0
  0
ARC
  5
230
100
AcDbEntity
  8
M0
  6
CONTINUOUS
370
25
100
AcDbCircle
 10
183.254934
 20
324.028635
 40
4.0
100
AcDbArc
 50
120.0
 51
199.247485
  0
ARC
  5
231
100
AcDbEntity
  8
M0
  6
CONTINUOUS
370
25
100
AcDbCircle
 10
69.245066
 20
345.67927
 40
4.0
100
AcDbArc
 50
240.0
 51
319.247485
  0
ARC
  5
232
100
AcDbEntity
  8
M0
  6
CONTINUOUS
370
25
100
AcDbCircle
 10
120.0
 20
301.942138
 40
64.0
100
AcDbArc
 50
81.576255
 51
98.423745
  0
ARC
  5
233
100
AcDbEntity
  8
M0
  6
CONTINUOUS
370
25
100
AcDbCircle
 10
120.0
 20
301.942138
 40
63.0
100
AcDbArc
 50
220.738866
 51
259.247485
  0
ARC
  5
234
100
AcDbEntity
  8
M0
  6
CONTINUOUS
370
25
100
AcDbCircle
 10
56.750329
 20
279.840574
 40
4.0
100
AcDbArc
 50
300.0
 51
379.261134
  0
ARC
  5
235
100
AcDbEntity
  8
M0
  6
CONTINUOUS
370
25
100
AcDbCircle
 10
69.234648
 20
258.217099
 40
4.0
100
AcDbArc
 50
40.738866
 51
120.0
  0
ARC
  5
236
100
AcDbEntity
  8
M0
  6
CONTINUOUS
370
25
100
AcDbCircle
 10
107.5
 20
236.11851
 40
4.0
100
AcDbArc
 50
0.0
 51
79.247485
  0
ARC
  5
237
100
AcDbEntity
  8
M0
  6
CONTINUOUS
370
25
100
AcDbCircle
 10
170.765352
 20
258.217099
 40
4.0
100
AcDbArc
 50
60.0
 51
139.261134
  0
ARC
  5
238
100
AcDbEntity
  8
M0
  6
CONTINUOUS
370
25
100
AcDbCircle
 10
120.0
 20
301.942138
 40
63.0
100
AcDbArc
 50
160.752515
 51
199.261134
  0
ARC
  5
239
100
AcDbEntity
  8
M0
  6
CONTINUOUS
370
25
100
AcDbCircle
 10
56.745066
 20
324.028635
 40
4.0
100
AcDbArc
 50
340.752515
 51
420.0
  0
ARC
  5
23A
100
AcDbEntity
  8
M0
  6
CONTINUOUS
370
25
100
AcDbCircle
 10
120.0
 20
301.942138
 40
64.0
100
AcDbArc
 50
201.576255
 51
218.423745
  0
ARC
  5
23B
100
AcDbEntity
  8
M0
  6
CONTINUOUS
370
25
100
AcDbCircle
 10
120.0
 20
301.942138
 40
64.0
100
AcDbArc
 50
261.562606
 51
278.437394
  0
ARC
  5
23C
100
AcDbEntity
  8
M0
  6
CONTINUOUS
370
25
100
AcDbCircle
 10
120.0
 20
301.942138
 40
63.0
100
AcDbArc
 50
40.752515
 51
79.261134
  0
ARC
  5
23D
100
AcDbEntity
  8
M0
  6
CONTINUOUS
370
25
100
AcDbCircle
 10
120.0
 20
301.942138
 40
63.0
100
AcDbArc
 50
340.738866
 51
379.247485
  0
ARC
  5
23E
100
AcDbEntity
  8
M0
  6
CONTINUOUS
370
25
100
AcDbCircle
 10
120.0
 20
301.942138
 40
63.0
100
AcDbArc
 50
280.752515
 51
319.261134
  0
ARC
  5
23F
100
AcDbEntity
  8
M0
  6
CONTINUOUS
370
25
100
AcDbCircle
 10
132.5
 20
236.11851
 40
4.0
100
AcDbArc
 50
100.752515
 51
180.0
  0
ARC
  5
240
100
AcDbEntity
  8
M0
  6
CONTINUOUS
370
25
100
AcDbCircle
 10
120.0
 20
301.942138
 40
64.0
100
AcDbArc
 50
21.562606
 51
38.437394
  0
ARC
  5
241
100
AcDbEntity
  8
M0
  6
CONTINUOUS
370
25
100
AcDbCircle
 10
120.0
 20
301.942138
 40
64.0
100
AcDbArc
 50
321.576255
 51
338.423745
  0
ARC
  5
242
100
AcDbEntity
  8
M0
  6
CONTINUOUS
370
25
100
AcDbCircle
 10
183.249671
 20
279.840574
 40
4.0
100
AcDbArc
 50
160.738866
 51
240.0
  0
TEXT
  5
243
100
AcDbEntity
  8
M0
100
AcDbText
 10
716.064416
 20
114.03741
 40
11.2
  1
ＰＨＢ－５
 41
1.0
  7
STANDARD
100
AcDbText
  0
TEXT
  5
244
100
AcDbEntity
  8
M0
100
AcDbText
 10
707.206445
 20
94.441462
 40
9.24
  1
（ＳＤＫ６３４４）
 41
1.0
  7
STANDARD
100
AcDbText
  0
LINE
  5
245
100
AcDbEntity
  8
M0
  6
CONTINUOUS
370
25
100
AcDbLine
 10
482.392141
 20
387.942134
 11
482.392141
 21
393.715637
  0
LINE
  5
246
100
AcDbEntity
  8
M0
  6
CONTINUOUS
370
25
100
AcDbLine
 10
482.392141
 20
393.715637
 11
486.020562
 21
393.715637
  0
LINE
  5
247
100
AcDbEntity
  8
M0
  6
CONTINUOUS
370
25
100
AcDbLine
 10
486.020562
 20
382.168631
 11
482.392141
 21
382.168631
  0
LINE
  5
248
100
AcDbEntity
  8
M0
  6
CONTINUOUS
370
25
100
AcDbLine
 10
482.392141
 20
382.168631
 11
482.392141
 21
387.942134
  0
LINE
  5
249
100
AcDbEntity
  8
M0
  6
CONTINUOUS
370
25
100
AcDbLine
 10
486.020562
 20
390.942134
 11
482.392141
 21
390.942134
  0
LINE
  5
24A
100
AcDbEntity
  8
M0
  6
CONTINUOUS
370
25
100
AcDbLine
 10
482.392141
 20
384.942134
 11
486.020562
 21
384.942134
  0
LINE
  5
24B
100
AcDbEntity
  8
M0
  6
CONTINUOUS
370
25
100
AcDbLine
 10
476.392141
 20
324.942134
 11
480.020562
 21
324.942134
  0
LINE
  5
24C
100
AcDbEntity
  8
M0
  6
CONTINUOUS
370
25
100
AcDbLine
 10
480.020562
 20
330.942134
 11
476.392141
 21
330.942134
  0
LINE
  5
24D
100
AcDbEntity
  8
M0
  6
CONTINUOUS
370
25
100
AcDbLine
 10
480.020562
 20
322.168631
 11
476.392141
 21
322.168631
  0
LINE
  5
24E
100
AcDbEntity
  8
M0
  6
CONTINUOUS
370
25
100
AcDbLine
 10
476.392141
 20
322.168631
 11
476.392141
 21
327.942134
  0
LINE
  5
24F
100
AcDbEntity
  8
M0
  6
CONTINUOUS
370
25
100
AcDbLine
 10
476.392141
 20
327.942134
 11
476.392141
 21
333.715637
  0
LINE
  5
250
100
AcDbEntity
  8
M0
  6
CONTINUOUS
370
25
100
AcDbLine
 10
476.392141
 20
333.715637
 11
480.020562
 21
333.715637
  0
LINE
  5
251
100
AcDbEntity
  8
M0
  6
CONTINUOUS
370
25
100
AcDbLine
 10
396.392141
 20
384.942134
 11
392.76372
 21
384.942134
  0
LINE
  5
252
100
AcDbEntity
  8
M0
  6
CONTINUOUS
370
25
100
AcDbLine
 10
392.76372
 20
390.942134
 11
396.392141
 21
390.942134
  0
LINE
  5
253
100
AcDbEntity
  8
M0
  6
CONTINUOUS
370
25
100
AcDbLine
 10
392.76372
 20
382.168631
 11
396.392141
 21
382.168631
  0
LINE
  5
254
100
AcDbEntity
  8
M0
  6
CONTINUOUS
370
25
100
AcDbLine
 10
396.392141
 20
382.168631
 11
396.392141
 21
387.942134
  0
LINE
  5
255
100
AcDbEntity
  8
M0
  6
CONTINUOUS
370
25
100
AcDbLine
 10
396.392141
 20
387.942134
 11
396.392141
 21
393.715637
  0
LINE
  5
256
100
AcDbEntity
  8
M0
  6
CONTINUOUS
370
25
100
AcDbLine
 10
396.392141
 20
393.715637
 11
392.76372
 21
393.715637
  0
LINE
  5
257
100
AcDbEntity
  8
M0
  6
CONTINUOUS
370
25
100
AcDbLine
 10
482.392141
 20
218.942142
 11
486.020562
 21
218.942142
  0
LINE
  5
258
100
AcDbEntity
  8
M0
  6
CONTINUOUS
370
25
100
AcDbLine
 10
486.020562
 20
212.942142
 11
482.392141
 21
212.942142
  0
LINE
  5
259
100
AcDbEntity
  8
M0
  6
CONTINUOUS
370
25
100
AcDbLine
 10
486.020562
 20
221.715645
 11
482.392141
 21
221.715645
  0
LINE
  5
25A
100
AcDbEntity
  8
M0
  6
CONTINUOUS
370
25
100
AcDbLine
 10
482.392141
 20
221.715645
 11
482.392141
 21
215.942142
  0
LINE
  5
25B
100
AcDbEntity
  8
M0
  6
CONTINUOUS
370
25
100
AcDbLine
 10
482.392141
 20
215.942142
 11
482.392141
 21
210.16864
  0
LINE
  5
25C
100
AcDbEntity
  8
M0
  6
CONTINUOUS
370
25
100
AcDbLine
 10
482.392141
 20
210.16864
 11
486.020562
 21
210.16864
  0
LINE
  5
25D
100
AcDbEntity
  8
M0
  6
CONTINUOUS
370
25
100
AcDbLine
 10
396.392141
 20
215.942142
 11
396.392141
 21
210.16864
  0
LINE
  5
25E
100
AcDbEntity
  8
M0
  6
CONTINUOUS
370
25
100
AcDbLine
 10
396.392141
 20
210.16864
 11
392.76372
 21
210.16864
  0
LINE
  5
25F
100
AcDbEntity
  8
M0
  6
CONTINUOUS
370
25
100
AcDbLine
 10
392.76372
 20
221.715645
 11
396.392141
 21
221.715645
  0
LINE
  5
260
100
AcDbEntity
  8
M0
  6
CONTINUOUS
370
25
100
AcDbLine
 10
396.392141
 20
221.715645
 11
396.392141
 21
215.942142
  0
LINE
  5
261
100
AcDbEntity
  8
M0
  6
CONTINUOUS
370
25
100
AcDbLine
 10
392.76372
 20
212.942142
 11
396.392141
 21
212.942142
  0
LINE
  5
262
100
AcDbEntity
  8
M0
  6
CONTINUOUS
370
25
100
AcDbLine
 10
396.392141
 20
218.942142
 11
392.76372
 21
218.942142
  0
LINE
  5
263
100
AcDbEntity
  8
M0
  6
CONTINUOUS
370
25
100
AcDbLine
 10
115.0
 20
385.055387
 11
120.0
 21
382.168635
  0
LINE
  5
264
100
AcDbEntity
  8
M0
  6
CONTINUOUS
370
25
100
AcDbLine
 10
120.0
 20
382.168635
 11
125.0
 21
385.055387
  0
LINE
  5
265
100
AcDbEntity
  8
M0
  6
CONTINUOUS
370
25
100
AcDbLine
 10
125.0
 20
385.055387
 11
125.0
 21
390.828889
  0
LINE
  5
266
100
AcDbEntity
  8
M0
  6
CONTINUOUS
370
25
100
AcDbLine
 10
125.0
 20
390.828889
 11
120.0
 21
393.715641
  0
LINE
  5
267
100
AcDbEntity
  8
M0
  6
CONTINUOUS
370
25
100
AcDbLine
 10
120.0
 20
393.715641
 11
115.0
 21
390.828889
  0
LINE
  5
268
100
AcDbEntity
  8
M0
  6
CONTINUOUS
370
25
100
AcDbLine
 10
115.0
 20
390.828889
 11
115.0
 21
385.055387
  0
LINE
  5
269
100
AcDbEntity
  8
M0
  6
CONTINUOUS
370
25
100
AcDbLine
 10
45.521815
 20
339.168635
 11
50.521815
 21
342.055387
  0
LINE
  5
26A
100
AcDbEntity
  8
M0
  6
CONTINUOUS
370
25
100
AcDbLine
 10
50.521815
 20
342.055387
 11
50.521815
 21
347.828889
  0
LINE
  5
26B
100
AcDbEntity
  8
M0
  6
CONTINUOUS
370
25
100
AcDbLine
 10
50.521815
 20
347.828889
 11
45.521815
 21
350.715641
  0
LINE
  5
26C
100
AcDbEntity
  8
M0
  6
CONTINUOUS
370
25
100
AcDbLine
 10
45.521815
 20
350.715641
 11
40.521815
 21
347.828889
  0
LINE
  5
26D
100
AcDbEntity
  8
M0
  6
CONTINUOUS
370
25
100
AcDbLine
 10
40.521815
 20
347.828889
 11
40.521815
 21
342.055387
  0
LINE
  5
26E
100
AcDbEntity
  8
M0
  6
CONTINUOUS
370
25
100
AcDbLine
 10
40.521815
 20
342.055387
 11
45.521815
 21
339.168635
  0
LINE
  5
26F
100
AcDbEntity
  8
M0
  6
CONTINUOUS
370
25
100
AcDbLine
 10
50.521815
 20
256.055387
 11
50.521815
 21
261.828889
  0
LINE
  5
270
100
AcDbEntity
  8
M0
  6
CONTINUOUS
370
25
100
AcDbLine
 10
50.521815
 20
261.828889
 11
45.521815
 21
264.715641
  0
LINE
  5
271
100
AcDbEntity
  8
M0
  6
CONTINUOUS
370
25
100
AcDbLine
 10
45.521815
 20
264.715641
 11
40.521815
 21
261.828889
  0
LINE
  5
272
100
AcDbEntity
  8
M0
  6
CONTINUOUS
370
25
100
AcDbLine
 10
40.521815
 20
261.828889
 11
40.521815
 21
256.055387
  0
LINE
  5
273
100
AcDbEntity
  8
M0
  6
CONTINUOUS
370
25
100
AcDbLine
 10
40.521815
 20
256.055387
 11
45.521815
 21
253.168635
  0
LINE
  5
274
100
AcDbEntity
  8
M0
  6
CONTINUOUS
370
25
100
AcDbLine
 10
45.521815
 20
253.168635
 11
50.521815
 21
256.055387
  0
LINE
  5
275
100
AcDbEntity
  8
M0
  6
CONTINUOUS
370
25
100
AcDbLine
 10
125.0
 20
218.828889
 11
120.0
 21
221.715641
  0
LINE
  5
276
100
AcDbEntity
  8
M0
  6
CONTINUOUS
370
25
100
AcDbLine
 10
120.0
 20
221.715641
 11
115.0
 21
218.828889
  0
LINE
  5
277
100
AcDbEntity
  8
M0
  6
CONTINUOUS
370
25
100
AcDbLine
 10
115.0
 20
218.828889
 11
115.0
 21
213.055387
  0
LINE
  5
278
100
AcDbEntity
  8
M0
  6
CONTINUOUS
370
25
100
AcDbLine
 10
115.0
 20
213.055387
 11
120.0
 21
210.168635
  0
LINE
  5
279
100
AcDbEntity
  8
M0
  6
CONTINUOUS
370
25
100
AcDbLine
 10
120.0
 20
210.168635
 11
125.0
 21
213.055387
  0
LINE
  5
27A
100
AcDbEntity
  8
M0
  6
CONTINUOUS
370
25
100
AcDbLine
 10
125.0
 20
213.055387
 11
125.0
 21
218.828889
  0
LINE
  5
27B
100
AcDbEntity
  8
M0
  6
CONTINUOUS
370
25
100
AcDbLine
 10
194.478185
 20
264.715641
 11
189.478185
 21
261.828889
  0
LINE
  5
27C
100
AcDbEntity
  8
M0
  6
CONTINUOUS
370
25
100
AcDbLine
 10
189.478185
 20
261.828889
 11
189.478185
 21
256.055387
  0
LINE
  5
27D
100
AcDbEntity
  8
M0
  6
CONTINUOUS
370
25
100
AcDbLine
 10
189.478185
 20
256.055387
 11
194.478185
 21
253.168635
  0
LINE
  5
27E
100
AcDbEntity
  8
M0
  6
CONTINUOUS
370
25
100
AcDbLine
 10
194.478185
 20
253.168635
 11
199.478185
 21
256.055387
  0
LINE
  5
27F
100
AcDbEntity
  8
M0
  6
CONTINUOUS
370
25
100
AcDbLine
 10
199.478185
 20
256.055387
 11
199.478185
 21
261.828889
  0
LINE
  5
280
100
AcDbEntity
  8
M0
  6
CONTINUOUS
370
25
100
AcDbLine
 10
199.478185
 20
261.828889
 11
194.478185
 21
264.715641
  0
LINE
  5
281
100
AcDbEntity
  8
M0
  6
CONTINUOUS
370
25
100
AcDbLine
 10
189.478185
 20
347.828889
 11
189.478185
 21
342.055387
  0
LINE
  5
282
100
AcDbEntity
  8
M0
  6
CONTINUOUS
370
25
100
AcDbLine
 10
189.478185
 20
342.055387
 11
194.478185
 21
339.168635
  0
LINE
  5
283
100
AcDbEntity
  8
M0
  6
CONTINUOUS
370
25
100
AcDbLine
 10
194.478185
 20
339.168635
 11
199.478185
 21
342.055387
  0
LINE
  5
284
100
AcDbEntity
  8
M0
  6
CONTINUOUS
370
25
100
AcDbLine
 10
199.478185
 20
342.055387
 11
199.478185
 21
347.828889
  0
LINE
  5
285
100
AcDbEntity
  8
M0
  6
CONTINUOUS
370
25
100
AcDbLine
 10
199.478185
 20
347.828889
 11
194.478185
 21
350.715641
  0
LINE
  5
286
100
AcDbEntity
  8
M0
  6
CONTINUOUS
370
25
100
AcDbLine
 10
194.478185
 20
350.715641
 11
189.478185
 21
347.828889
  0
LINE
  5
287
100
AcDbEntity
  8
M0
  6
CONTINUOUS
370
25
100
AcDbLine
 10
706.878085
 20
385.055387
 11
711.878085
 21
382.168635
  0
LINE
  5
288
100
AcDbEntity
  8
M0
  6
CONTINUOUS
370
25
100
AcDbLine
 10
711.878085
 20
382.168635
 11
716.878085
 21
385.055387
  0
LINE
  5
289
100
AcDbEntity
  8
M0
  6
CONTINUOUS
370
25
100
AcDbLine
 10
716.878085
 20
385.055387
 11
716.878085
 21
390.828889
  0
LINE
  5
28A
100
AcDbEntity
  8
M0
  6
CONTINUOUS
370
25
100
AcDbLine
 10
716.878085
 20
390.828889
 11
711.878085
 21
393.715641
  0
LINE
  5
28B
100
AcDbEntity
  8
M0
  6
CONTINUOUS
370
25
100
AcDbLine
 10
711.878085
 20
393.715641
 11
706.878085
 21
390.828889
  0
LINE
  5
28C
100
AcDbEntity
  8
M0
  6
CONTINUOUS
370
25
100
AcDbLine
 10
706.878085
 20
390.828889
 11
706.878085
 21
385.055387
  0
LINE
  5
28D
100
AcDbEntity
  8
M0
  6
CONTINUOUS
370
25
100
AcDbLine
 10
729.394746
 20
312.055387
 11
734.394746
 21
309.168635
  0
LINE
  5
28E
100
AcDbEntity
  8
M0
  6
CONTINUOUS
370
25
100
AcDbLine
 10
734.394746
 20
309.168635
 11
739.394746
 21
312.055387
  0
LINE
  5
28F
100
AcDbEntity
  8
M0
  6
CONTINUOUS
370
25
100
AcDbLine
 10
739.394746
 20
312.055387
 11
739.394746
 21
317.828889
  0
LINE
  5
290
100
AcDbEntity
  8
M0
  6
CONTINUOUS
370
25
100
AcDbLine
 10
739.394746
 20
317.828889
 11
734.394746
 21
320.715641
  0
LINE
  5
291
100
AcDbEntity
  8
M0
  6
CONTINUOUS
370
25
100
AcDbLine
 10
734.394746
 20
320.715641
 11
729.394746
 21
317.828889
  0
LINE
  5
292
100
AcDbEntity
  8
M0
  6
CONTINUOUS
370
25
100
AcDbLine
 10
729.394746
 20
317.828889
 11
729.394746
 21
312.055387
  0
LINE
  5
293
100
AcDbEntity
  8
M0
  6
CONTINUOUS
370
25
100
AcDbLine
 10
637.3999
 20
339.168635
 11
642.3999
 21
342.055387
  0
LINE
  5
294
100
AcDbEntity
  8
M0
  6
CONTINUOUS
370
25
100
AcDbLine
 10
642.3999
 20
342.055387
 11
642.3999
 21
347.828889
  0
LINE
  5
295
100
AcDbEntity
  8
M0
  6
CONTINUOUS
370
25
100
AcDbLine
 10
642.3999
 20
347.828889
 11
637.3999
 21
350.715641
  0
LINE
  5
296
100
AcDbEntity
  8
M0
  6
CONTINUOUS
370
25
100
AcDbLine
 10
637.3999
 20
350.715641
 11
632.3999
 21
347.828889
  0
LINE
  5
297
100
AcDbEntity
  8
M0
  6
CONTINUOUS
370
25
100
AcDbLine
 10
632.3999
 20
347.828889
 11
632.3999
 21
342.055387
  0
LINE
  5
298
100
AcDbEntity
  8
M0
  6
CONTINUOUS
370
25
100
AcDbLine
 10
632.3999
 20
342.055387
 11
637.3999
 21
339.168635
  0
LINE
  5
299
100
AcDbEntity
  8
M0
  6
CONTINUOUS
370
25
100
AcDbLine
 10
642.3999
 20
256.055387
 11
642.3999
 21
261.828889
  0
LINE
  5
29A
100
AcDbEntity
  8
M0
  6
CONTINUOUS
370
25
100
AcDbLine
 10
642.3999
 20
261.828889
 11
637.3999
 21
264.715641
  0
LINE
  5
29B
100
AcDbEntity
  8
M0
  6
CONTINUOUS
370
25
100
AcDbLine
 10
637.3999
 20
264.715641
 11
632.3999
 21
261.828889
  0
LINE
  5
29C
100
AcDbEntity
  8
M0
  6
CONTINUOUS
370
25
100
AcDbLine
 10
632.3999
 20
261.828889
 11
632.3999
 21
256.055387
  0
LINE
  5
29D
100
AcDbEntity
  8
M0
  6
CONTINUOUS
370
25
100
AcDbLine
 10
632.3999
 20
256.055387
 11
637.3999
 21
253.168635
  0
LINE
  5
29E
100
AcDbEntity
  8
M0
  6
CONTINUOUS
370
25
100
AcDbLine
 10
637.3999
 20
253.168635
 11
642.3999
 21
256.055387
  0
LINE
  5
29F
100
AcDbEntity
  8
M0
  6
CONTINUOUS
370
25
100
AcDbLine
 10
716.878085
 20
218.828889
 11
711.878085
 21
221.715641
  0
LINE
  5
2A0
100
AcDbEntity
  8
M0
  6
CONTINUOUS
370
25
100
AcDbLine
 10
711.878085
 20
221.715641
 11
706.878085
 21
218.828889
  0
LINE
  5
2A1
100
AcDbEntity
  8
M0
  6
CONTINUOUS
370
25
100
AcDbLine
 10
706.878085
 20
218.828889
 11
706.878085
 21
213.055387
  0
LINE
  5
2A2
100
AcDbEntity
  8
M0
  6
CONTINUOUS
370
25
100
AcDbLine
 10
706.878085
 20
213.055387
 11
711.878085
 21
210.168635
  0
LINE
  5
2A3
100
AcDbEntity
  8
M0
  6
CONTINUOUS
370
25
100
AcDbLine
 10
711.878085
 20
210.168635
 11
716.878085
 21
213.055387
  0
LINE
  5
2A4
100
AcDbEntity
  8
M0
  6
CONTINUOUS
370
25
100
AcDbLine
 10
716.878085
 20
213.055387
 11
716.878085
 21
218.828889
  0
LINE
  5
2A5
100
AcDbEntity
  8
M0
  6
CONTINUOUS
370
25
100
AcDbLine
 10
786.35627
 20
264.715641
 11
781.35627
 21
261.828889
  0
LINE
  5
2A6
100
AcDbEntity
  8
M0
  6
CONTINUOUS
370
25
100
AcDbLine
 10
781.35627
 20
261.828889
 11
781.35627
 21
256.055387
  0
LINE
  5
2A7
100
AcDbEntity
  8
M0
  6
CONTINUOUS
370
25
100
AcDbLine
 10
781.35627
 20
256.055387
 11
786.35627
 21
253.168635
  0
LINE
  5
2A8
100
AcDbEntity
  8
M0
  6
CONTINUOUS
370
25
100
AcDbLine
 10
786.35627
 20
253.168635
 11
791.35627
 21
256.055387
  0
LINE
  5
2A9
100
AcDbEntity
  8
M0
  6
CONTINUOUS
370
25
100
AcDbLine
 10
791.35627
 20
256.055387
 11
791.35627
 21
261.828889
  0
LINE
  5
2AA
100
AcDbEntity
  8
M0
  6
CONTINUOUS
370
25
100
AcDbLine
 10
791.35627
 20
261.828889
 11
786.35627
 21
264.715641
  0
LINE
  5
2AB
100
AcDbEntity
  8
M0
  6
CONTINUOUS
370
25
100
AcDbLine
 10
781.35627
 20
347.828889
 11
781.35627
 21
342.055387
  0
LINE
  5
2AC
100
AcDbEntity
  8
M0
  6
CONTINUOUS
370
25
100
AcDbLine
 10
781.35627
 20
342.055387
 11
786.35627
 21
339.168635
  0
LINE
  5
2AD
100
AcDbEntity
  8
M0
  6
CONTINUOUS
370
25
100
AcDbLine
 10
786.35627
 20
339.168635
 11
791.35627
 21
342.055387
  0
LINE
  5
2AE
100
AcDbEntity
  8
M0
  6
CONTINUOUS
370
25
100
AcDbLine
 10
791.35627
 20
342.055387
 11
791.35627
 21
347.828889
  0
LINE
  5
2AF
100
AcDbEntity
  8
M0
  6
CONTINUOUS
370
25
100
AcDbLine
 10
791.35627
 20
347.828889
 11
786.35627
 21
350.715641
  0
LINE
  5
2B0
100
AcDbEntity
  8
M0
  6
CONTINUOUS
370
25
100
AcDbLine
 10
786.35627
 20
350.715641
 11
781.35627
 21
347.828889
  0
LINE
  5
2B1
100
AcDbEntity
  8
M0
  6
CONTINUOUS
370
25
100
AcDbLine
 10
694.361425
 20
312.055387
 11
694.361425
 21
317.828889
  0
LINE
  5
2B2
100
AcDbEntity
  8
M0
  6
CONTINUOUS
370
25
100
AcDbLine
 10
694.361425
 20
317.828889
 11
689.361425
 21
320.715641
  0
LINE
  5
2B3
100
AcDbEntity
  8
M0
  6
CONTINUOUS
370
25
100
AcDbLine
 10
689.361425
 20
320.715641
 11
684.361425
 21
317.828889
  0
LINE
  5
2B4
100
AcDbEntity
  8
M0
  6
CONTINUOUS
370
25
100
AcDbLine
 10
684.361425
 20
317.828889
 11
684.361425
 21
312.055387
  0
LINE
  5
2B5
100
AcDbEntity
  8
M0
  6
CONTINUOUS
370
25
100
AcDbLine
 10
684.361425
 20
312.055387
 11
689.361425
 21
309.168635
  0
LINE
  5
2B6
100
AcDbEntity
  8
M0
  6
CONTINUOUS
370
25
100
AcDbLine
 10
689.361425
 20
309.168635
 11
694.361425
 21
312.055387
  0
LINE
  5
2B7
100
AcDbEntity
  8
M0
  6
CONTINUOUS
370
25
100
AcDbLine
 10
694.361425
 20
291.828889
 11
689.361425
 21
294.715641
  0
LINE
  5
2B8
100
AcDbEntity
  8
M0
  6
CONTINUOUS
370
25
100
AcDbLine
 10
689.361425
 20
294.715641
 11
684.361425
 21
291.828889
  0
LINE
  5
2B9
100
AcDbEntity
  8
M0
  6
CONTINUOUS
370
25
100
AcDbLine
 10
684.361425
 20
291.828889
 11
684.361425
 21
286.055387
  0
LINE
  5
2BA
100
AcDbEntity
  8
M0
  6
CONTINUOUS
370
25
100
AcDbLine
 10
684.361425
 20
286.055387
 11
689.361425
 21
283.168635
  0
LINE
  5
2BB
100
AcDbEntity
  8
M0
  6
CONTINUOUS
370
25
100
AcDbLine
 10
689.361425
 20
283.168635
 11
694.361425
 21
286.055387
  0
LINE
  5
2BC
100
AcDbEntity
  8
M0
  6
CONTINUOUS
370
25
100
AcDbLine
 10
694.361425
 20
286.055387
 11
694.361425
 21
291.828889
  0
LINE
  5
2BD
100
AcDbEntity
  8
M0
  6
CONTINUOUS
370
25
100
AcDbLine
 10
729.394746
 20
291.828889
 11
729.394746
 21
286.055387
  0
LINE
  5
2BE
100
AcDbEntity
  8
M0
  6
CONTINUOUS
370
25
100
AcDbLine
 10
729.394746
 20
286.055387
 11
734.394746
 21
283.168635
  0
LINE
  5
2BF
100
AcDbEntity
  8
M0
  6
CONTINUOUS
370
25
100
AcDbLine
 10
734.394746
 20
283.168635
 11
739.394746
 21
286.055387
  0
LINE
  5
2C0
100
AcDbEntity
  8
M0
  6
CONTINUOUS
370
25
100
AcDbLine
 10
739.394746
 20
286.055387
 11
739.394746
 21
291.828889
  0
LINE
  5
2C1
100
AcDbEntity
  8
M0
  6
CONTINUOUS
370
25
100
AcDbLine
 10
739.394746
 20
291.828889
 11
734.394746
 21
294.715641
  0
LINE
  5
2C2
100
AcDbEntity
  8
M0
  6
CONTINUOUS
370
25
100
AcDbLine
 10
734.394746
 20
294.715641
 11
729.394746
 21
291.828889
  0
LINE
  5
2C3
100
AcDbEntity
  8
M0
  6
CONTINUOUS
370
25
100
AcDbLine
 10
396.392141
 20
261.942142
 11
392.76372
 21
261.942142
  0
LINE
  5
2C4
100
AcDbEntity
  8
M0
  6
CONTINUOUS
370
25
100
AcDbLine
 10
392.76372
 20
255.942142
 11
396.392141
 21
255.942142
  0
LINE
  5
2C5
100
AcDbEntity
  8
M0
  6
CONTINUOUS
370
25
100
AcDbLine
 10
392.76372
 20
264.715645
 11
396.392141
 21
264.715645
  0
LINE
  5
2C6
100
AcDbEntity
  8
M0
  6
CONTINUOUS
370
25
100
AcDbLine
 10
396.392141
 20
264.715645
 11
396.392141
 21
258.942142
  0
LINE
  5
2C7
100
AcDbEntity
  8
M0
  6
CONTINUOUS
370
25
100
AcDbLine
 10
396.392141
 20
258.942142
 11
396.392141
 21
253.16864
  0
LINE
  5
2C8
100
AcDbEntity
  8
M0
  6
CONTINUOUS
370
25
100
AcDbLine
 10
396.392141
 20
253.16864
 11
392.76372
 21
253.16864
  0
LINE
  5
2C9
100
AcDbEntity
  8
M0
  6
CONTINUOUS
370
25
100
AcDbLine
 10
482.392141
 20
258.942142
 11
482.392141
 21
253.16864
  0
LINE
  5
2CA
100
AcDbEntity
  8
M0
  6
CONTINUOUS
370
25
100
AcDbLine
 10
482.392141
 20
253.16864
 11
486.020562
 21
253.16864
  0
LINE
  5
2CB
100
AcDbEntity
  8
M0
  6
CONTINUOUS
370
25
100
AcDbLine
 10
486.020562
 20
264.715645
 11
482.392141
 21
264.715645
  0
LINE
  5
2CC
100
AcDbEntity
  8
M0
  6
CONTINUOUS
370
25
100
AcDbLine
 10
482.392141
 20
264.715645
 11
482.392141
 21
258.942142
  0
LINE
  5
2CD
100
AcDbEntity
  8
M0
  6
CONTINUOUS
370
25
100
AcDbLine
 10
486.020562
 20
255.942142
 11
482.392141
 21
255.942142
  0
LINE
  5
2CE
100
AcDbEntity
  8
M0
  6
CONTINUOUS
370
25
100
AcDbLine
 10
482.392141
 20
261.942142
 11
486.020562
 21
261.942142
  0
LINE
  5
2CF
100
AcDbEntity
  8
M0
  6
CONTINUOUS
370
25
100
AcDbLine
 10
193.248407
 20
430.793252
 11
170.286914
 21
391.023771
  0
LINE
  5
2D0
100
AcDbEntity
  8
M0
  6
CONTINUOUS
370
25
100
AcDbLine
 10
195.885819
 20
429.844225
 11
190.612373
 21
431.743659
  0
LINE
  5
2D1
100
AcDbEntity
  8
M0
  6
CONTINUOUS
370
25
100
AcDbLine
 10
197.913537
 20
433.354798
 11
192.502151
 21
435.016975
  0
LINE
  5
2D2
100
AcDbEntity
  8
M0
  6
CONTINUOUS
370
25
100
AcDbLine
 10
192.502151
 20
435.016975
 11
196.717598
 21
442.318139
  0
LINE
  5
2D3
100
AcDbEntity
  8
M0
  6
CONTINUOUS
370
25
100
AcDbLine
 10
197.913537
 20
433.354798
 11
201.495839
 21
439.559339
  0
LINE
  5
2D4
100
AcDbEntity
  8
M0
  6
CONTINUOUS
370
25
100
AcDbLine
 10
199.106718
 20
440.938739
 11
195.207155
 21
434.186576
  0
LINE
  5
2D5
100
AcDbEntity
  8
M0
  6
CONTINUOUS
370
25
100
AcDbLine
 10
211.052322
 20
446.456339
 11
217.949322
 21
446.456339
  0
LINE
  5
2D6
100
AcDbEntity
  8
M0
  6
CONTINUOUS
370
25
100
AcDbLine
 10
197.912158
 20
454.043039
 11
194.463658
 21
460.015841
  0
LINE
  5
2D7
100
AcDbEntity
  8
M0
  6
CONTINUOUS
370
25
100
AcDbLine
 10
211.052322
 20
447.835739
 11
211.052322
 21
445.076939
  0
LINE
  5
2D8
100
AcDbEntity
  8
M0
  6
CONTINUOUS
370
25
100
AcDbLine
 10
199.106718
 20
454.732739
 11
196.717598
 21
453.353339
  0
ARC
  5
2D9
100
AcDbEntity
  8
M0
  6
CONTINUOUS
370
25
100
AcDbCircle
 10
187.161114
 20
447.835739
 40
11.034957
100
AcDbArc
 50
329.999272
 51
390.000728
  0
ARC
  5
2DA
100
AcDbEntity
  8
M0
  6
CONTINUOUS
370
25
100
AcDbCircle
 10
211.052322
 20
434.041739
 40
11.0352
100
AcDbArc
 50
90.0
 51
149.999272
  0
ARC
  5
2DB
100
AcDbEntity
  8
M0
  6
CONTINUOUS
370
25
100
AcDbCircle
 10
187.161114
 20
447.835739
 40
13.793697
100
AcDbArc
 50
329.999272
 51
390.000728
  0
ARC
  5
2DC
100
AcDbEntity
  8
M0
  6
CONTINUOUS
370
25
100
AcDbCircle
 10
211.052322
 20
434.041739
 40
13.794
100
AcDbArc
 50
90.0
 51
149.999272
  0
LINE
  5
2DD
100
AcDbEntity
  8
M0
  6
CONTINUOUS
370
25
100
AcDbLine
 10
172.705002
 20
389.694029
 11
195.885819
 21
429.844225
  0
LINE
  5
2DE
100
AcDbEntity
  8
M0
  6
CONTINUOUS
370
25
100
AcDbLine
 10
167.881241
 20
392.375583
 11
190.612373
 21
431.743659
  0
ARC
  5
2DF
100
AcDbEntity
  8
M0
  6
CONTINUOUS
370
25
100
AcDbCircle
 10
171.510442
 20
390.383729
 40
1.379193
100
AcDbArc
 50
151.179164
 51
331.179164
  0
ARC
  5
2E0
100
AcDbEntity
  8
M0
  6
CONTINUOUS
370
25
100
AcDbCircle
 10
169.092354
 20
391.713471
 40
1.379858
100
AcDbArc
 50
151.128982
 51
331.179164
  0
ARC
  5
2E1
100
AcDbEntity
  8
M0
  6
CONTINUOUS
370
25
100
AcDbCircle
 10
171.151798
 20
392.521799
 40
5.5176
100
AcDbArc
 50
90.0
 51
390.000728
  0
ENDSEC
  0
SECTION
  2
OBJECTS
  0
DICTIONARY
  5
C
100
AcDbDictionary
  3
ACAD_GROUP
350
D
  3
ACAD_MLINESTYLE
350
E
  0
DICTIONARY
  5
D
102
{ACAD_REACTORS
330
C
102
}
100
AcDbDictionary
  0
DICTIONARY
  5
E
102
{ACAD_REACTORS
330
C
102
}
100
AcDbDictionary
  3
STANDARD
350
13
  0
MLINESTYLE
  5
13
102
{ACAD_REACTORS
330
E
102
}
100
AcDbMlineStyle
  2
STANDARD
 70
     0
  3

 62
     0
 51
90.0
 52
90.0
 71
     2
 49
0.5
 62
   256
  6
BYLAYER
 49
-0.5
 62
   256
  6
BYLAYER
  0
ENDSEC
  0
EOF
