  0
SECTION
  2
HEADER
  9
$ACADVER
  1
AC1015
  9
$INSBASE
 10
0.0
 20
0.0
  9
$VIEWCTR
 10
7.531722
 20
4.5
  9
$VIEWSIZE
 40
9.0
  9
$SNAPMODE
 70
     0
  9
$SNAPUNIT
 10
1.0
 20
1.0
  9
$SNAPBASE
 10
0.0
 20
0.0
  9
$SNAPANG
 50
0.0
  9
$SNAPSTYLE
 70
     0
  9
$SNAPISOPAIR
 70
     0
  9
$GRIDMODE
 70
     0
  9
$GRIDUNIT
 10
0.0
 20
0.0
  9
$ORTHOMODE
 70
     0
  9
$REGENMODE
 70
     1
  9
$FILLMODE
 70
     1
  9
$QTEXTMODE
 70
     0
  9
$DRAGMODE
 70
     2
  9
$LTSCALE
 40
1.0
  9
$OSMODE
 70
     0
  9
$ATTMODE
 70
     1
  9
$TEXTSIZE
 40
0.2
  9
$TRACEWID
 40
0.05
  9
$TEXTSTYLE
  7
STANDARD
  9
$CELTYPE
  6
BYLAYER
  9
$CECOLOR
 62
   256
  9
$DIMSCALE
 40
1.0
  9
$DIMASZ
 40
0.18
  9
$DIMEXO
 40
0.0625
  9
$DIMDLI
 40
0.38
  9
$DIMRND
 40
0.0
  9
$DIMDLE
 40
0.0
  9
$DIMEXE
 40
0.18
  9
$DIMTP
 40
0.0
  9
$DIMTM
 40
0.0
  9
$DIMTXT
 40
0.18
  9
$DIMCEN
 40
0.09
  9
$DIMTSZ
 40
0.0
  9
$DIMADEC
 70
     0
  9
$DIMALTRND
 40
0.000000
  9
$DIMAZIN
 70
     0
  9
$DIMDSEP
 70
    46
  9
$DIMATFIT
 70
     3
  9
$DIMFRAC
 70
     0
  9
$DIMLDRBLK
  1

  9
$DIMLUNIT
 70
     2
  9
$DIMLWD
 70
   13
  9
$DIMLWE
 70
   13
  9
$DIMTMOVE
 70
     0
  9
$CELWEIGHT
370
    25
  9
$LWDISPLAY
290
    1
  9
$EXTNAMES
290
    1
  9
$DIMTOL
 70
     0
  9
$DIMLIM
 70
     0
  9
$DIMTIH
 70
     1
  9
$DIMTOH
 70
     1
  9
$DIMSE1
 70
     0
  9
$DIMSE2
 70
     0
  9
$DIMTAD
 70
     0
  9
$DIMZIN
 70
     0
  9
$DIMBLK
  1

  9
$LUNITS
 70
     2
  9
$LUPREC
 70
     4
  9
$AXISMODE
 70
     0
  9
$AXISUNIT
 10
0.0
 20
0.0
  9
$SKETCHINC
 40
0.1
  9
$FILLETRAD
 40
0.0
  9
$AUNITS
 70
     0
  9
$AUPREC
 70
     0
  9
$MENU
  1
ACAD
  9
$ELEVATION
 40
0.0
  9
$THICKNESS
 40
0.0
  9
$VIEWDIR
 10
0.0
 20
0.0
 30
1.0
  9
$LIMCHECK
 70
     0
  9
$BLIPMODE
 70
     1
  9
$CHAMFERA
 40
0.0
  9
$CHAMFERB
 40
0.0
  9
$FASTZOOM
 70
     1
  9
$SKPOLY
 70
     0
  9
$TDCREATE
 40
0000000.0000000000
  9
$TDUPDATE
 40
0000000.0000000000
  9
$TDINDWG
 40
0.0000000000
  9
$TDUSRTIMER
 40
0.0000000000
  9
$USRTIMER
 70
     1
  9
$ANGBASE
 50
0.0
  9
$ANGDIR
 70
     0
  9
$PDMODE
 70
     0
  9
$PDSIZE
 40
0.0
  9
$PLINEWID
 40
0.0
  9
$COORDS
 70
     0
  9
$USERI1
 70
     0
  9
$USERI2
 70
     0
  9
$USERI3
 70
     0
  9
$USERI4
 70
     0
  9
$USERI5
 70
     0
  9
$USERR1
 40
0.0
  9
$USERR2
 40
0.0
  9
$USERR3
 40
0.0
  9
$USERR4
 40
0.0
  9
$USERR5
 40
0.0
  9
$CLAYER
  8
M1
  9
$EXTMIN
 10
361.423877
 20
309.792952
  9
$EXTMAX
 10
1471.506367
 20
857.408179
  9
$LIMMIN
 10
0.0
 20
0.0
  9
$LIMMAX
 10
841.0
 20
594.0
  9
$HANDSEED
  5
33B
  0
ENDSEC
  0
SECTION
  2
CLASSES
  0
ENDSEC
  0
SECTION
  2
TABLES
  0
TABLE
  2
VPORT
  5
8
100
AcDbSymbolTable
 70
     2
  0
VPORT
  5
14
100
AcDbSymbolTableRecord
100
AcDbViewportTableRecord
  2
*ACTIVE
 70
     0
 10
0.0
 20
0.0
 11
1.0
 21
1.0
 12
484.0
 22
297.0
 13
0.0
 23
0.0
 14
1.0
 24
1.0
 15
0.0
 25
0.0
 16
0.0
 26
0.0
 36
1.0
 17
0.0
 27
0.0
 37
0.0
 40
594.0
 41
2.0
 42
50.0
 43
0.0
 44
0.0
 50
0.0
 51
0.0
 71
     0
 72
   100
 73
     1
 74
     1
 75
     0
 76
     0
 77
     0
 78
     0
  0
ENDTAB
  0
TABLE
  2
LTYPE
  5
5
100
AcDbSymbolTable
 70
     5
  0
LTYPE
  5
15
100
AcDbSymbolTableRecord
100
AcDbLinetypeTableRecord
  2
BYBLOCK
 70
     0
  3

 72
    65
 73
     0
 40
0.0
  0
LTYPE
  5
16
100
AcDbSymbolTableRecord
100
AcDbLinetypeTableRecord
  2
BYLAYER
 70
     0
  3

 72
    65
 73
     0
 40
0.0
  0
LTYPE
  5
17
100
AcDbSymbolTableRecord
100
AcDbLinetypeTableRecord
  2
CONTINUOUS
 70
    64
  3
Solid line
 72
    65
 73
     0
 40
0.0
  0
LTYPE
  5
18
100
AcDbSymbolTableRecord
100
AcDbLinetypeTableRecord
  2
DASHED
 70
    64
  3
__ __ __ __ __ __ __ __ __ __ __ __ __ __ __ __
 72
    65
 73
     2
 40
0.75
 49
0.5
 74
     0
 49
-0.25
 74
     0
  0
LTYPE
  5
19
100
AcDbSymbolTableRecord
100
AcDbLinetypeTableRecord
  2
DASHDOT
 70
    64
  3
__ . __ . __ . __ . __ . __ . __ . __ . __ . __
 72
    65
 73
     4
 40
1.0
 49
0.5
 74
     0
 49
-0.25
 74
     0
 49
0.0
 74
     0
 49
-0.25
 74
     0
  0
LTYPE
  5
1A
100
AcDbSymbolTableRecord
100
AcDbLinetypeTableRecord
  2
DIVIDE
 70
    64
  3
____ . . ____ . . ____ . . ____ . . ____ . . __
 72
    65
 73
     6
 40
1.25
 49
0.5
 74
     0
 49
-0.25
 74
     0
 49
0.0
 74
     0
 49
-0.25
 74
     0
 49
0.0
 74
     0
 49
-0.25
 74
     0
  0
LTYPE
  5
1B
100
AcDbSymbolTableRecord
100
AcDbLinetypeTableRecord
  2
DOT
 70
    64
  3
. . . . . . . . . . . . . . . . . . . . . . . .
 72
    65
 73
     2
 40
0.25
 49
0.0
 74
     0
 49
-0.25
 74
     0
  0
ENDTAB
  0
TABLE
  2
LAYER
  5
2
100
AcDbSymbolTable
 70
   102
  0
LAYER
  5
F
100
AcDbSymbolTableRecord
100
AcDbLayerTableRecord
  2
0
 70
     0
 62
     7
  6
CONTINUOUS
370
     -3
390
F
  0
LAYER
  5
1C
100
AcDbSymbolTableRecord
100
AcDbLayerTableRecord
  2
M1
 70
     0
 62
     3
  6
CONTINUOUS
370
     -3
390
F
  0
ENDTAB
  0
TABLE
  2
STYLE
  5
3
100
AcDbSymbolTable
 70
     2
  0
STYLE
  5
10
100
AcDbSymbolTableRecord
100
AcDbTextStyleTableRecord
  2
STANDARD
 70
     0
 40
0.0
 41
1.0
 50
0.0
 71
     0
 42
0.2
  3
txt
  4
BIGFONT
  0
ENDTAB
  0
TABLE
  2
VIEW
  5
6
100
AcDbSymbolTable
 70
     0
  0
ENDTAB
  0
TABLE
  2
UCS
  5
7
100
AcDbSymbolTable
 70
     0
  0
ENDTAB
  0
TABLE
  2
APPID
  5
9
100
AcDbSymbolTable
 70
     1
  0
APPID
  5
11
100
AcDbSymbolTableRecord
100
AcDbRegAppTableRecord
  2
ACAD
 70
     0
  0
ENDTAB
  0
TABLE
  2
DIMSTYLE
  5
A
100
AcDbSymbolTable
 70
     2
100
AcDbDimStyleTable
 71
     1
  0
DIMSTYLE
105
23
100
AcDbSymbolTableRecord
100
AcDbDimStyleTableRecord
  2
STANDARD
 70
     0
  3

  4

  5

  6
_OPEN
  7
_OPEN
 40
1.0
 41
6.0
 42
0.5
 43
8.0
 44
1.5
 45
0.0
 46
0.0
 47
0.0
 48
0.0
140
6.3
141
0.09
142
0.0
143
0.03937
144
1.0
145
0.0
146
1.0
147
1.0
148
0.000000
 71
     0
 72
     0
 73
     0
 74
     0
 75
     0
 76
     0
 77
     3
 78
     8
170
     0
171
     2
172
     0
173
     1
174
     0
175
     0
176
     0
177
     0
178
     0
270
     2
271
     2
272
     4
273
     2
274
     2
340
10
275
     0
278
    46
280
     0
281
     0
282
     0
283
     1
284
     0
285
     0
286
     0
287
     3
288
     0
371
   13
372
   13
  0
DIMSTYLE
105
24
100
AcDbSymbolTableRecord
100
AcDbDimStyleTableRecord
  2
LEADSTYL
 70
     0
  3

  4

  5

  6
_OPEN
  7
_OPEN
 40
1.0
 41
6.0
 42
0.0625
 43
0.38
 44
0.18
 45
0.0
 46
0.0
 47
0.0
 48
0.0
140
6.3
141
0.09
142
0.0
143
25.4
144
1.0
145
0.0
146
1.0
147
1.0
 71
     0
 72
     0
 73
     1
 74
     1
 75
     0
 76
     0
 77
     0
 78
     0
170
     0
171
     2
172
     0
173
     1
174
     0
175
     0
176
     0
177
     0
178
     0
270
     2
271
     4
272
     4
273
     2
274
     2
340
10
275
     0
280
     0
281
     0
282
     0
283
     1
284
     0
285
     0
286
     0
287
     3
288
     0
  0
ENDTAB
  0
TABLE
  2
BLOCK_RECORD
  5
1
100
AcDbSymbolTable
 70
     6
  0
BLOCK_RECORD
  5
1D
100
AcDbSymbolTableRecord
100
AcDbBlockTableRecord
  2
*MODEL_SPACE
  0
BLOCK_RECORD
  5
20
100
AcDbSymbolTableRecord
100
AcDbBlockTableRecord
  2
*PAPER_SPACE
  0
BLOCK_RECORD
  5
25
100
AcDbSymbolTableRecord
100
AcDbBlockTableRecord
  2
_NONE
  0
BLOCK_RECORD
  5
29
100
AcDbSymbolTableRecord
100
AcDbBlockTableRecord
  2
_OPEN
  0
BLOCK_RECORD
  5
2F
100
AcDbSymbolTableRecord
100
AcDbBlockTableRecord
  2
_CLOSED
  0
BLOCK_RECORD
  5
36
100
AcDbSymbolTableRecord
100
AcDbBlockTableRecord
  2
_ORIGIN
  0
BLOCK_RECORD
  5
3B
100
AcDbSymbolTableRecord
100
AcDbBlockTableRecord
  2
_DOT
  0
BLOCK_RECORD
  5
43
100
AcDbSymbolTableRecord
100
AcDbBlockTableRecord
  2
_OBLIQUE
  0
ENDTAB
  0
ENDSEC
  0
SECTION
  2
BLOCKS
  0
BLOCK
  5
1E
100
AcDbEntity
  8
0
100
AcDbBlockBegin
  2
*MODEL_SPACE
 70
     0
 10
0.0
 20
0.0
 30
0.0
  3
*MODEL_SPACE
  1

  0
ENDBLK
  5
1F
100
AcDbEntity
  8
0
100
AcDbBlockEnd
  0
BLOCK
  5
21
100
AcDbEntity
 67
     1
  8
0
100
AcDbBlockBegin
  2
*PAPER_SPACE
 70
     0
 10
0.0
 20
0.0
 30
0.0
  3
*PAPER_SPACE
  1

  0
ENDBLK
  5
22
100
AcDbEntity
 67
     1
  8
0
100
AcDbBlockEnd
  0
BLOCK
  5
26
100
AcDbEntity
  8
0
100
AcDbBlockBegin
  2
_NONE
 70
     0
 10
0.0
 20
0.0
  0
CIRCLE
  5
27
100
AcDbEntity
  8
0
 62
     0
370
13
100
AcDbCircle
 10
0.0
 20
0.0
 40
0.25
  0
ENDBLK
  5
28
100
AcDbEntity
  8
0
100
AcDbBlockEnd
  0
BLOCK
  5
2A
100
AcDbEntity
  8
0
100
AcDbBlockBegin
  2
_OPEN
 70
     0
 10
0.0
 20
0.0
  0
LINE
  5
2B
100
AcDbEntity
  8
0
 62
     0
370
13
100
AcDbLine
 10
-0.965926
 20
0.25882
 11
0.0
 21
0.0
  0
LINE
  5
2C
100
AcDbEntity
  8
0
 62
     0
370
13
100
AcDbLine
 10
0.0
 20
0.0
 11
-0.965926
 21
-0.25882
  0
LINE
  5
2D
100
AcDbEntity
  8
0
 62
     0
370
13
100
AcDbLine
 10
0.0
 20
0.0
 11
-1.0
 21
0.0
  0
ENDBLK
  5
2E
100
AcDbEntity
  8
0
100
AcDbBlockEnd
  0
BLOCK
  5
30
100
AcDbEntity
  8
0
100
AcDbBlockBegin
  2
_CLOSED
 70
     0
 10
0.0
 20
0.0
  0
LINE
  5
31
100
AcDbEntity
  8
0
 62
     0
370
13
100
AcDbLine
 10
-0.965926
 20
0.25882
 11
0.0
 21
0.0
  0
LINE
  5
32
100
AcDbEntity
  8
0
 62
     0
370
13
100
AcDbLine
 10
0.0
 20
0.0
 11
-0.965926
 21
-0.25882
  0
LINE
  5
33
100
AcDbEntity
  8
0
 62
     0
370
13
100
AcDbLine
 10
-0.965926
 20
0.25882
 11
-0.965926
 21
-0.25882
  0
LINE
  5
34
100
AcDbEntity
  8
0
 62
     0
370
13
100
AcDbLine
 10
0.0
 20
0.0
 11
-1.0
 21
0.0
  0
ENDBLK
  5
35
100
AcDbEntity
  8
0
100
AcDbBlockEnd
  0
BLOCK
  5
37
100
AcDbEntity
  8
0
100
AcDbBlockBegin
  2
_ORIGIN
 70
     0
 10
0.0
 20
0.0
  0
CIRCLE
  5
38
100
AcDbEntity
  8
0
 62
     0
370
13
100
AcDbCircle
 10
0.0
 20
0.0
 40
0.5
  0
LINE
  5
39
100
AcDbEntity
  8
0
 62
     0
370
13
100
AcDbLine
 10
0.0
 20
0.0
 11
-1.0
 21
0.0
  0
ENDBLK
  5
3A
100
AcDbEntity
  8
0
100
AcDbBlockEnd
  0
BLOCK
  5
3C
100
AcDbEntity
  8
0
100
AcDbBlockBegin
  2
_DOT
 70
     0
 10
0.0
 20
0.0
  0
POLYLINE
  5
3D
100
AcDbEntity
  8
0
 62
     0
100
AcDb2dPolyline
 66
     1
 70
     1
 40
0.5
 41
0.5
  0
VERTEX
  5
3E
100
AcDbEntity
  8
0
 62
     0
100
AcDbVertex
100
AcDb2dVertex
 10
-0.25
 20
0.0
 42
1.0
  0
VERTEX
  5
3F
100
AcDbEntity
  8
0
 62
     0
100
AcDbVertex
100
AcDb2dVertex
 10
0.25
 20
0.0
 42
1.0
  0
SEQEND
  5
40
100
AcDbEntity
  8
0
 62
     0
  0
LINE
  5
41
100
AcDbEntity
  8
0
 62
     0
370
13
100
AcDbLine
 10
-0.5
 20
0.0
 11
-1.0
 21
0.0
  0
ENDBLK
  5
42
100
AcDbEntity
  8
0
100
AcDbBlockEnd
  0
BLOCK
  5
44
100
AcDbEntity
  8
0
100
AcDbBlockBegin
  2
_OBLIQUE
 70
     0
 10
0.0
 20
0.0
  0
LINE
  5
45
100
AcDbEntity
  8
0
 62
     0
370
13
100
AcDbLine
 10
-0.353553
 20
-0.353553
 11
0.353553
 21
0.353553
  0
ENDBLK
  5
46
100
AcDbEntity
  8
0
100
AcDbBlockEnd
  0
ENDSEC
  0
SECTION
  2
ENTITIES
  0
LINE
  5
47
100
AcDbEntity
  8
M1
  6
CONTINUOUS
370
25
 62
     7
100
AcDbLine
 10
536.423618
 20
692.489173
 11
536.423618
 21
686.446692
  0
LINE
  5
48
100
AcDbEntity
  8
M1
  6
CONTINUOUS
370
25
 62
     7
100
AcDbLine
 10
521.423618
 20
692.489173
 11
521.423618
 21
686.446692
  0
LINE
  5
49
100
AcDbEntity
  8
M1
  6
CONTINUOUS
370
25
 62
     7
100
AcDbLine
 10
521.423618
 20
692.489173
 11
536.423618
 21
692.489173
  0
LINE
  5
4A
100
AcDbEntity
  8
M1
  6
CONTINUOUS
370
25
 62
     7
100
AcDbLine
 10
513.923618
 20
769.948188
 11
513.923618
 21
758.781867
  0
LINE
  5
4B
100
AcDbEntity
  8
M1
  6
CONTINUOUS
370
25
 62
     7
100
AcDbLine
 10
543.923618
 20
769.948188
 11
543.923618
 21
758.781867
  0
LINE
  5
4C
100
AcDbEntity
  8
M1
  6
CONTINUOUS
370
25
 62
     7
100
AcDbLine
 10
508.873569
 20
770.484382
 11
508.873569
 21
762.682868
  0
LINE
  5
4D
100
AcDbEntity
  8
M1
  6
CONTINUOUS
370
25
 62
     7
100
AcDbLine
 10
443.256626
 20
732.60047
 11
450.013584
 21
728.699775
  0
LINE
  5
4E
100
AcDbEntity
  8
M1
  6
CONTINUOUS
370
13
 62
     7
100
AcDbLine
 10
425.770664
 20
719.544471
 11
440.986606
 21
710.759589
  0
LINE
  5
4F
100
AcDbEntity
  8
M1
  6
CONTINUOUS
370
25
 62
     7
100
AcDbLine
 10
423.206577
 20
622.104987
 11
429.963657
 21
626.005774
  0
LINE
  5
50
100
AcDbEntity
  8
M1
  6
CONTINUOUS
370
25
 62
     7
100
AcDbLine
 10
423.206577
 20
697.87287
 11
429.963657
 21
693.972175
  0
LINE
  5
51
100
AcDbEntity
  8
M1
  6
CONTINUOUS
370
25
 62
     7
100
AcDbLine
 10
441.196567
 20
727.958991
 11
450.866611
 21
722.375892
  0
LINE
  5
52
100
AcDbEntity
  8
M1
  6
CONTINUOUS
370
25
 62
     7
100
AcDbLine
 10
426.19559
 20
701.978278
 11
435.866611
 21
696.395087
  0
LINE
  5
53
100
AcDbEntity
  8
M1
  6
CONTINUOUS
370
13
 62
     7
100
AcDbLine
 10
425.770664
 20
600.433692
 11
440.986606
 21
609.218573
  0
LINE
  5
54
100
AcDbEntity
  8
M1
  6
CONTINUOUS
370
25
 62
     7
100
AcDbLine
 10
508.873569
 20
549.493873
 11
508.873569
 21
557.295386
  0
LINE
  5
55
100
AcDbEntity
  8
M1
  6
CONTINUOUS
370
25
 62
     7
100
AcDbLine
 10
443.256626
 20
587.377875
 11
450.012607
 21
591.278693
  0
LINE
  5
56
100
AcDbEntity
  8
M1
  6
CONTINUOUS
370
25
 62
     7
100
AcDbLine
 10
426.19559
 20
618.00019
 11
435.866611
 21
623.583289
  0
LINE
  5
57
100
AcDbEntity
  8
M1
  6
CONTINUOUS
370
25
 62
     7
100
AcDbLine
 10
441.196567
 20
592.018866
 11
450.866611
 21
597.601966
  0
LINE
  5
58
100
AcDbEntity
  8
M1
  6
CONTINUOUS
370
25
 62
     7
100
AcDbLine
 10
614.59061
 20
587.377692
 11
607.833652
 21
591.278479
  0
LINE
  5
59
100
AcDbEntity
  8
M1
  6
CONTINUOUS
370
25
 62
     7
100
AcDbLine
 10
548.973667
 20
549.493873
 11
548.973667
 21
557.295386
  0
LINE
  5
5A
100
AcDbEntity
  8
M1
  6
CONTINUOUS
370
25
 62
     7
100
AcDbLine
 10
513.923618
 20
550.030066
 11
513.923618
 21
561.196387
  0
LINE
  5
5B
100
AcDbEntity
  8
M1
  6
CONTINUOUS
370
25
 62
     7
100
AcDbLine
 10
543.923618
 20
550.030066
 11
543.923618
 21
561.196387
  0
LINE
  5
5C
100
AcDbEntity
  8
M1
  6
CONTINUOUS
370
13
 62
     7
100
AcDbLine
 10
632.075595
 20
600.433875
 11
616.86063
 21
609.218787
  0
LINE
  5
5D
100
AcDbEntity
  8
M1
  6
CONTINUOUS
370
25
 62
     7
100
AcDbLine
 10
634.640659
 20
697.872779
 11
627.883579
 21
693.972083
  0
LINE
  5
5E
100
AcDbEntity
  8
M1
  6
CONTINUOUS
370
25
 62
     7
100
AcDbLine
 10
634.640659
 20
622.105292
 11
627.883579
 21
626.005988
  0
LINE
  5
5F
100
AcDbEntity
  8
M1
  6
CONTINUOUS
370
25
 62
     7
100
AcDbLine
 10
616.650669
 20
592.019263
 11
606.980625
 21
597.602393
  0
LINE
  5
60
100
AcDbEntity
  8
M1
  6
CONTINUOUS
370
25
 62
     7
100
AcDbLine
 10
631.650669
 20
617.999976
 11
621.980625
 21
623.583167
  0
LINE
  5
61
100
AcDbEntity
  8
M1
  6
CONTINUOUS
370
13
 62
     7
100
AcDbLine
 10
632.076572
 20
719.543982
 11
616.86063
 21
710.759192
  0
LINE
  5
62
100
AcDbEntity
  8
M1
  6
CONTINUOUS
370
25
 62
     7
100
AcDbLine
 10
548.973667
 20
770.484382
 11
548.973667
 21
762.682868
  0
LINE
  5
63
100
AcDbEntity
  8
M1
  6
CONTINUOUS
370
25
 62
     7
100
AcDbLine
 10
614.59061
 20
732.600165
 11
607.833652
 21
728.699469
  0
LINE
  5
64
100
AcDbEntity
  8
M1
  6
CONTINUOUS
370
25
 62
     7
100
AcDbLine
 10
631.650669
 20
701.978187
 11
621.980625
 21
696.394965
  0
LINE
  5
65
100
AcDbEntity
  8
M1
  6
CONTINUOUS
370
25
 62
     7
100
AcDbLine
 10
616.650669
 20
727.958991
 11
606.980625
 21
722.37577
  0
LINE
  5
66
100
AcDbEntity
  8
M1
  6
CONTINUOUS
370
25
 62
     7
100
AcDbLine
 10
814.259554
 20
719.989173
 11
814.259554
 21
659.989081
  0
LINE
  5
67
100
AcDbEntity
  8
M1
  6
CONTINUOUS
370
25
 62
     7
100
AcDbLine
 10
970.259554
 20
827.489173
 11
889.259554
 21
827.489173
  0
LINE
  5
68
100
AcDbEntity
  8
M1
  6
CONTINUOUS
370
25
 62
     7
100
AcDbLine
 10
819.259554
 20
719.989173
 11
814.259554
 21
719.989173
  0
LINE
  5
69
100
AcDbEntity
  8
M1
  6
CONTINUOUS
370
25
 62
     7
100
AcDbLine
 10
819.259554
 20
753.989081
 11
819.259554
 21
740.989081
  0
LINE
  5
6A
100
AcDbEntity
  8
M1
  6
CONTINUOUS
370
25
 62
     7
100
AcDbLine
 10
902.759554
 20
714.989173
 11
902.759554
 21
700.039191
  0
LINE
  5
6B
100
AcDbEntity
  8
M1
  6
CONTINUOUS
370
25
 62
     7
100
AcDbLine
 10
929.759554
 20
697.989173
 11
929.759554
 21
697.489173
  0
LINE
  5
6C
100
AcDbEntity
  8
M1
  6
CONTINUOUS
370
25
 62
     7
100
AcDbLine
 10
944.259554
 20
697.489173
 11
944.259554
 21
659.989081
  0
LINE
  5
6D
100
AcDbEntity
  8
M1
  6
CONTINUOUS
370
25
 62
     7
100
AcDbLine
 10
944.259554
 20
697.489173
 11
929.759554
 21
697.489173
  0
LINE
  5
6E
100
AcDbEntity
  8
M1
  6
CONTINUOUS
370
25
 62
     7
100
AcDbLine
 10
924.759554
 20
718.489173
 11
924.759554
 21
697.989173
  0
LINE
  5
6F
100
AcDbEntity
  8
M1
  6
CONTINUOUS
370
25
 62
     7
100
AcDbLine
 10
929.759554
 20
697.989173
 11
924.759554
 21
697.989173
  0
LINE
  5
70
100
AcDbEntity
  8
M1
  6
CONTINUOUS
370
25
 62
     7
100
AcDbLine
 10
944.259554
 20
687.489173
 11
904.259554
 21
687.489173
  0
LINE
  5
71
100
AcDbEntity
  8
M1
  6
CONTINUOUS
370
25
 62
     7
100
AcDbLine
 10
854.259554
 20
688.989173
 11
854.259554
 21
659.989081
  0
LINE
  5
72
100
AcDbEntity
  8
M1
  6
CONTINUOUS
370
25
 62
     7
100
AcDbLine
 10
904.259554
 20
688.989173
 11
904.259554
 21
659.989081
  0
LINE
  5
73
100
AcDbEntity
  8
M1
  6
CONTINUOUS
370
25
 62
     7
100
AcDbLine
 10
904.259554
 20
688.989173
 11
854.259554
 21
688.989173
  0
LINE
  5
74
100
AcDbEntity
  8
M1
  6
CONTINUOUS
370
25
 62
     7
100
AcDbLine
 10
886.659578
 20
722.827063
 11
886.659578
 21
712.989173
  0
LINE
  5
75
100
AcDbEntity
  8
M1
  6
CONTINUOUS
370
25
 62
     7
100
AcDbLine
 10
886.659578
 20
712.989173
 11
883.259554
 21
712.989173
  0
LINE
  5
76
100
AcDbEntity
  8
M1
  6
CONTINUOUS
370
25
 62
     7
100
AcDbLine
 10
854.259554
 20
687.489173
 11
814.259554
 21
687.489173
  0
LINE
  5
77
100
AcDbEntity
  8
M1
  6
CONTINUOUS
370
25
 62
     7
100
AcDbLine
 10
924.759554
 20
700.039191
 11
902.759554
 21
700.039191
  0
LINE
  5
78
100
AcDbEntity
  8
M1
  6
CONTINUOUS
370
25
 62
     7
100
AcDbLine
 10
886.659578
 20
714.989173
 11
902.759554
 21
714.989173
  0
LINE
  5
79
100
AcDbEntity
  8
M1
  6
CONTINUOUS
370
25
 62
     7
100
AcDbLine
 10
824.259554
 20
754.989081
 11
820.259554
 21
754.989081
  0
LINE
  5
7A
100
AcDbEntity
  8
M1
  6
CONTINUOUS
370
25
 62
     7
100
AcDbLine
 10
866.759554
 20
781.989173
 11
825.259554
 21
781.989173
  0
LINE
  5
7B
100
AcDbEntity
  8
M1
  6
CONTINUOUS
370
25
 62
     7
100
AcDbLine
 10
824.259554
 20
780.989173
 11
824.259554
 21
754.989081
  0
LINE
  5
7C
100
AcDbEntity
  8
M1
  6
CONTINUOUS
370
25
 62
     7
100
AcDbLine
 10
886.759554
 20
808.989173
 11
869.759554
 21
808.989173
  0
LINE
  5
7D
100
AcDbEntity
  8
M1
  6
CONTINUOUS
370
25
 62
     7
100
AcDbLine
 10
883.259554
 20
802.989173
 11
883.259554
 21
784.989173
  0
LINE
  5
7E
100
AcDbEntity
  8
M1
  6
CONTINUOUS
370
25
 62
     7
100
AcDbLine
 10
866.759554
 20
805.989173
 11
866.759554
 21
760.590186
  0
LINE
  5
7F
100
AcDbEntity
  8
M1
  6
CONTINUOUS
370
25
 62
     7
100
AcDbLine
 10
883.259554
 20
784.989173
 11
880.759554
 21
784.989173
  0
LINE
  5
80
100
AcDbEntity
  8
M1
  6
CONTINUOUS
370
25
 62
     7
100
AcDbLine
 10
878.759554
 20
782.989173
 11
878.759554
 21
744.989081
  0
LINE
  5
81
100
AcDbEntity
  8
M1
  6
CONTINUOUS
370
25
 62
     7
100
AcDbLine
 10
879.259554
 20
744.989081
 11
858.259554
 21
744.989081
  0
LINE
  5
82
100
AcDbEntity
  8
M1
  6
CONTINUOUS
370
25
 62
     7
100
AcDbLine
 10
847.259676
 20
740.989081
 11
847.259676
 21
714.989173
  0
LINE
  5
83
100
AcDbEntity
  8
M1
  6
CONTINUOUS
370
25
 62
     7
100
AcDbLine
 10
854.259554
 20
740.989081
 11
854.259554
 21
714.989173
  0
LINE
  5
84
100
AcDbEntity
  8
M1
  6
CONTINUOUS
370
25
 62
     7
100
AcDbLine
 10
883.259554
 20
740.989081
 11
883.259554
 21
712.989173
  0
LINE
  5
85
100
AcDbEntity
  8
M1
  6
CONTINUOUS
370
25
 62
     7
100
AcDbLine
 10
854.259554
 20
739.989081
 11
847.259676
 21
739.989081
  0
LINE
  5
86
100
AcDbEntity
  8
M1
  6
CONTINUOUS
370
25
 62
     7
100
AcDbLine
 10
825.259798
 20
781.989051
 11
824.259798
 21
780.989051
  0
LINE
  5
87
100
AcDbEntity
  8
M1
  6
CONTINUOUS
370
25
 62
     7
100
AcDbLine
 10
820.259554
 20
754.989081
 11
819.259554
 21
753.989081
  0
LINE
  5
88
100
AcDbEntity
  8
M1
  6
CONTINUOUS
370
25
 62
     7
100
AcDbLine
 10
854.259554
 20
720.017188
 11
847.259676
 21
720.017188
  0
LINE
  5
89
100
AcDbEntity
  8
M1
  6
CONTINUOUS
370
25
 62
     7
100
AcDbLine
 10
843.259676
 20
744.989081
 11
823.259554
 21
744.989081
  0
LINE
  5
8A
100
AcDbEntity
  8
M1
  6
CONTINUOUS
370
25
 62
     7
100
AcDbLine
 10
819.259554
 20
740.989081
 11
819.259554
 21
718.989173
  0
LINE
  5
8B
100
AcDbEntity
  8
M1
  6
CONTINUOUS
370
25
 62
     7
100
AcDbLine
 10
883.259554
 20
714.989173
 11
823.259554
 21
714.989173
  0
LINE
  5
8C
100
AcDbEntity
  8
M1
  6
CONTINUOUS
370
25
 62
     7
100
AcDbLine
 10
886.659578
 20
722.827063
 11
883.259554
 21
722.827063
  0
LINE
  5
8D
100
AcDbEntity
  8
M1
  6
CONTINUOUS
370
25
 62
     7
100
AcDbLine
 10
863.178499
 20
756.612189
 11
819.259554
 21
751.989173
  0
LINE
  5
8E
100
AcDbEntity
  8
M1
  6
CONTINUOUS
370
13
 62
     7
100
AcDbLine
 10
855.051973
 20
769.989173
 11
818.552767
 21
769.989173
  0
LINE
  5
8F
100
AcDbEntity
  8
M1
  6
CONTINUOUS
370
13
 62
     7
100
AcDbLine
 10
844.259554
 20
774.989173
 11
824.259554
 21
774.989173
  0
LINE
  5
90
100
AcDbEntity
  8
M1
  6
CONTINUOUS
370
13
 62
     7
100
AcDbLine
 10
844.259554
 20
764.989081
 11
824.259554
 21
764.989081
  0
LINE
  5
91
100
AcDbEntity
  8
M1
  6
CONTINUOUS
370
25
 62
     7
100
AcDbLine
 10
844.259554
 20
774.989173
 11
844.259554
 21
764.989081
  0
LINE
  5
92
100
AcDbEntity
  8
M1
  6
CONTINUOUS
370
25
 62
     7
100
AcDbLine
 10
849.259676
 20
765.989081
 11
824.259554
 21
765.989081
  0
LINE
  5
93
100
AcDbEntity
  8
M1
  6
CONTINUOUS
370
25
 62
     7
100
AcDbLine
 10
849.259676
 20
773.989173
 11
824.259554
 21
773.989173
  0
LINE
  5
94
100
AcDbEntity
  8
M1
  6
CONTINUOUS
370
13
 62
     7
100
AcDbLine
 10
844.259554
 20
774.989295
 11
845.99167
 21
773.989295
  0
LINE
  5
95
100
AcDbEntity
  8
M1
  6
CONTINUOUS
370
13
 62
     7
100
AcDbLine
 10
844.259554
 20
764.989386
 11
845.99167
 21
765.989386
  0
LINE
  5
96
100
AcDbEntity
  8
M1
  6
CONTINUOUS
370
25
 62
     7
100
AcDbLine
 10
849.259798
 20
773.989051
 11
851.569063
 21
769.989173
  0
LINE
  5
97
100
AcDbEntity
  8
M1
  6
CONTINUOUS
370
25
 62
     7
100
AcDbLine
 10
849.259554
 20
765.989264
 11
851.569002
 21
769.989264
  0
LINE
  5
98
100
AcDbEntity
  8
M1
  6
CONTINUOUS
370
25
 62
     7
100
AcDbLine
 10
849.259676
 20
773.989173
 11
849.259676
 21
765.989081
  0
LINE
  5
99
100
AcDbEntity
  8
M1
  6
CONTINUOUS
370
25
 62
     7
100
AcDbLine
 10
976.259554
 20
802.989173
 11
976.259554
 21
786.489173
  0
LINE
  5
9A
100
AcDbEntity
  8
M1
  6
CONTINUOUS
370
25
 62
     7
100
AcDbLine
 10
965.259676
 20
779.989173
 11
894.259554
 21
779.989173
  0
LINE
  5
9B
100
AcDbEntity
  8
M1
  6
CONTINUOUS
370
25
 62
     7
100
AcDbLine
 10
972.259554
 20
825.489173
 11
972.259554
 21
802.989173
  0
LINE
  5
9C
100
AcDbEntity
  8
M1
  6
CONTINUOUS
370
25
 62
     7
100
AcDbLine
 10
976.259554
 20
802.989173
 11
971.907564
 21
802.989173
  0
LINE
  5
9D
100
AcDbEntity
  8
M1
  6
CONTINUOUS
370
25
 62
     7
100
AcDbLine
 10
976.259554
 20
802.989173
 11
972.259554
 21
802.989173
  0
LINE
  5
9E
100
AcDbEntity
  8
M1
  6
CONTINUOUS
370
25
 62
     7
100
AcDbLine
 10
887.259554
 20
802.989173
 11
883.259554
 21
802.989173
  0
LINE
  5
9F
100
AcDbEntity
  8
M1
  6
CONTINUOUS
370
25
 62
     7
100
AcDbLine
 10
976.259798
 20
786.48899
 11
965.259798
 21
779.98899
  0
LINE
  5
A0
100
AcDbEntity
  8
M1
  6
CONTINUOUS
370
25
 62
     7
100
AcDbLine
 10
887.259554
 20
825.489173
 11
887.259554
 21
802.989173
  0
LINE
  5
A1
100
AcDbEntity
  8
M1
  6
CONTINUOUS
370
25
 62
     7
100
AcDbLine
 10
894.259554
 20
779.98899
 11
883.259554
 21
786.48899
  0
LINE
  5
A2
100
AcDbEntity
  8
M1
  6
CONTINUOUS
370
25
 62
     7
100
AcDbLine
 10
972.259554
 20
825.489051
 11
970.259554
 21
827.489051
  0
LINE
  5
A3
100
AcDbEntity
  8
M1
  6
CONTINUOUS
370
25
 62
     7
100
AcDbLine
 10
889.259798
 20
827.489051
 11
887.259798
 21
825.489051
  0
LINE
  5
A4
100
AcDbEntity
  8
M1
  6
CONTINUOUS
370
25
 62
     7
100
AcDbLine
 10
957.759554
 20
766.489173
 11
901.759554
 21
766.489173
  0
LINE
  5
A5
100
AcDbEntity
  8
M1
  6
CONTINUOUS
370
25
 62
     7
100
AcDbLine
 10
900.759554
 20
765.489173
 11
900.759554
 21
763.477179
  0
LINE
  5
A6
100
AcDbEntity
  8
M1
  6
CONTINUOUS
370
25
 62
     7
100
AcDbLine
 10
958.759554
 20
765.489173
 11
958.759554
 21
763.477179
  0
LINE
  5
A7
100
AcDbEntity
  8
M1
  6
CONTINUOUS
370
25
 62
     7
100
AcDbLine
 10
925.759554
 20
740.508979
 11
925.759554
 21
719.989173
  0
LINE
  5
A8
100
AcDbEntity
  8
M1
  6
CONTINUOUS
370
25
 62
     7
100
AcDbLine
 10
933.759554
 20
740.508979
 11
933.759554
 21
719.989173
  0
LINE
  5
A9
100
AcDbEntity
  8
M1
  6
CONTINUOUS
370
25
 62
     7
100
AcDbLine
 10
957.574861
 20
761.088782
 11
935.734163
 21
744.489875
  0
LINE
  5
AA
100
AcDbEntity
  8
M1
  6
CONTINUOUS
370
25
 62
     7
100
AcDbLine
 10
923.785188
 20
744.489783
 11
901.944612
 21
761.088691
  0
LINE
  5
AB
100
AcDbEntity
  8
M1
  6
CONTINUOUS
370
25
 62
     7
100
AcDbLine
 10
978.759554
 20
778.989173
 11
880.759554
 21
778.989173
  0
LINE
  5
AC
100
AcDbEntity
  8
M1
  6
CONTINUOUS
370
25
 62
     7
100
AcDbLine
 10
915.759554
 20
740.989081
 11
915.759554
 21
700.039191
  0
LINE
  5
AD
100
AcDbEntity
  8
M1
  6
CONTINUOUS
370
25
 62
     7
100
AcDbLine
 10
880.759554
 20
778.989173
 11
880.759554
 21
747.489173
  0
LINE
  5
AE
100
AcDbEntity
  8
M1
  6
CONTINUOUS
370
25
 62
     7
100
AcDbLine
 10
894.259554
 20
778.989173
 11
894.259554
 21
767.489173
  0
LINE
  5
AF
100
AcDbEntity
  8
M1
  6
CONTINUOUS
370
25
 62
     7
100
AcDbLine
 10
897.259554
 20
767.489173
 11
897.259554
 21
745.989081
  0
LINE
  5
B0
100
AcDbEntity
  8
M1
  6
CONTINUOUS
370
25
 62
     7
100
AcDbLine
 10
965.259676
 20
767.489173
 11
894.259554
 21
767.489173
  0
LINE
  5
B1
100
AcDbEntity
  8
M1
  6
CONTINUOUS
370
25
 62
     7
100
AcDbLine
 10
915.759676
 20
726.989173
 11
897.259554
 21
745.989264
  0
LINE
  5
B2
100
AcDbEntity
  8
M1
  6
CONTINUOUS
370
25
 62
     7
100
AcDbLine
 10
899.959566
 20
728.989173
 11
899.959566
 21
714.989173
  0
LINE
  5
B3
100
AcDbEntity
  8
M1
  6
CONTINUOUS
370
25
 62
     7
100
AcDbLine
 10
887.759554
 20
747.489173
 11
887.759554
 21
739.989081
  0
LINE
  5
B4
100
AcDbEntity
  8
M1
  6
CONTINUOUS
370
25
 62
     7
100
AcDbLine
 10
899.959566
 20
728.989173
 11
887.759554
 21
739.989173
  0
LINE
  5
B5
100
AcDbEntity
  8
M1
  6
CONTINUOUS
370
25
 62
     7
100
AcDbLine
 10
887.759554
 20
747.489173
 11
880.759554
 21
747.489173
  0
LINE
  5
B6
100
AcDbEntity
  8
M1
  6
CONTINUOUS
370
25
 62
     7
100
AcDbLine
 10
989.759554
 20
808.989173
 11
972.259554
 21
808.989173
  0
LINE
  5
B7
100
AcDbEntity
  8
M1
  6
CONTINUOUS
370
25
 62
     7
100
AcDbLine
 10
992.759554
 20
805.989173
 11
992.759554
 21
776.989173
  0
LINE
  5
B8
100
AcDbEntity
  8
M1
  6
CONTINUOUS
370
25
 62
     7
100
AcDbLine
 10
982.992281
 20
786.489173
 11
976.259554
 21
786.489173
  0
LINE
  5
B9
100
AcDbEntity
  8
M1
  6
CONTINUOUS
370
25
 62
     7
100
AcDbLine
 10
969.759554
 20
716.989173
 11
969.759554
 21
708.989173
  0
LINE
  5
BA
100
AcDbEntity
  8
M1
  6
CONTINUOUS
370
25
 62
     7
100
AcDbLine
 10
985.982698
 20
783.730689
 11
989.387361
 21
741.596778
  0
LINE
  5
BB
100
AcDbEntity
  8
M1
  6
CONTINUOUS
370
25
 62
     7
100
AcDbLine
 10
986.490877
 20
733.720282
 11
969.759676
 21
716.989081
  0
LINE
  5
BC
100
AcDbEntity
  8
M1
  6
CONTINUOUS
370
25
 62
     7
100
AcDbLine
 10
992.759798
 20
776.989051
 11
1000.643099
 21
738.010474
  0
LINE
  5
BD
100
AcDbEntity
  8
M1
  6
CONTINUOUS
370
25
 62
     7
100
AcDbLine
 10
982.759554
 20
714.989173
 11
982.759554
 21
659.989081
  0
LINE
  5
BE
100
AcDbEntity
  8
M1
  6
CONTINUOUS
370
25
 62
     7
100
AcDbLine
 10
997.61606
 20
728.672767
 11
982.759554
 21
714.989173
  0
LINE
  5
BF
100
AcDbEntity
  8
M1
  6
CONTINUOUS
370
25
 62
     7
100
AcDbLine
 10
972.759554
 20
708.989173
 11
947.759554
 21
708.989173
  0
LINE
  5
C0
100
AcDbEntity
  8
M1
  6
CONTINUOUS
370
25
 62
     7
100
AcDbLine
 10
972.759554
 20
708.989173
 11
972.759554
 21
694.989173
  0
LINE
  5
C1
100
AcDbEntity
  8
M1
  6
CONTINUOUS
370
25
 62
     7
100
AcDbLine
 10
982.759554
 20
694.989173
 11
952.759554
 21
694.989173
  0
LINE
  5
C2
100
AcDbEntity
  8
M1
  6
CONTINUOUS
370
25
 62
     7
100
AcDbLine
 10
931.759554
 20
719.989173
 11
931.759554
 21
698.489173
  0
LINE
  5
C3
100
AcDbEntity
  8
M1
  6
CONTINUOUS
370
25
 62
     7
100
AcDbLine
 10
933.759554
 20
719.989173
 11
925.759554
 21
719.989173
  0
LINE
  5
C4
100
AcDbEntity
  8
M1
  6
CONTINUOUS
370
25
 62
     7
100
AcDbLine
 10
944.759554
 20
738.989081
 11
933.759554
 21
738.989081
  0
LINE
  5
C5
100
AcDbEntity
  8
M1
  6
CONTINUOUS
370
25
 62
     7
100
AcDbLine
 10
944.759554
 20
740.989081
 11
944.759554
 21
738.989081
  0
LINE
  5
C6
100
AcDbEntity
  8
M1
  6
CONTINUOUS
370
25
 62
     7
100
AcDbLine
 10
946.759554
 20
742.989081
 11
946.759554
 21
736.989081
  0
LINE
  5
C7
100
AcDbEntity
  8
M1
  6
CONTINUOUS
370
25
 62
     7
100
AcDbLine
 10
945.759554
 20
736.989081
 11
945.759554
 21
710.989173
  0
LINE
  5
C8
100
AcDbEntity
  8
M1
  6
CONTINUOUS
370
25
 62
     7
100
AcDbLine
 10
952.759554
 20
698.489173
 11
952.759554
 21
694.989173
  0
LINE
  5
C9
100
AcDbEntity
  8
M1
  6
CONTINUOUS
370
25
 62
     7
100
AcDbLine
 10
952.759554
 20
698.489173
 11
938.759554
 21
698.489173
  0
LINE
  5
CA
100
AcDbEntity
  8
M1
  6
CONTINUOUS
370
25
 62
     7
100
AcDbLine
 10
934.759554
 20
703.489173
 11
934.759554
 21
697.489173
  0
LINE
  5
CB
100
AcDbEntity
  8
M1
  6
CONTINUOUS
370
25
 62
     7
100
AcDbLine
 10
938.759554
 20
703.489173
 11
938.759554
 21
697.489173
  0
LINE
  5
CC
100
AcDbEntity
  8
M1
  6
CONTINUOUS
370
25
 62
     7
100
AcDbLine
 10
938.759554
 20
703.489173
 11
934.759554
 21
703.489173
  0
LINE
  5
CD
100
AcDbEntity
  8
M1
  6
CONTINUOUS
370
25
 62
     7
100
AcDbLine
 10
946.759798
 20
742.98899
 11
944.759798
 21
740.98899
  0
LINE
  5
CE
100
AcDbEntity
  8
M1
  6
CONTINUOUS
370
25
 62
     7
100
AcDbLine
 10
946.759554
 20
736.989081
 11
945.759554
 21
736.989081
  0
LINE
  5
CF
100
AcDbEntity
  8
M1
  6
CONTINUOUS
370
25
 62
     7
100
AcDbLine
 10
934.759554
 20
698.489173
 11
931.759554
 21
698.489173
  0
LINE
  5
D0
100
AcDbEntity
  8
M1
  6
CONTINUOUS
370
25
 62
     7
100
AcDbLine
 10
938.759493
 20
703.489264
 11
934.759371
 21
697.489264
  0
LINE
  5
D1
100
AcDbEntity
  8
M1
  6
CONTINUOUS
370
25
 62
     7
100
AcDbLine
 10
934.759554
 20
703.489173
 11
938.759554
 21
697.489081
  0
LINE
  5
D2
100
AcDbEntity
  8
M1
  6
CONTINUOUS
370
25
 62
     7
100
AcDbLine
 10
916.759554
 20
740.574866
 11
916.759554
 21
700.039191
  0
LINE
  5
D3
100
AcDbEntity
  8
M1
  6
CONTINUOUS
370
25
 62
     7
100
AcDbLine
 10
920.052461
 20
745.281989
 11
915.759554
 21
740.989081
  0
LINE
  5
D4
100
AcDbEntity
  8
M1
  6
CONTINUOUS
370
25
 62
     7
100
AcDbLine
 10
920.759798
 20
744.574866
 11
916.759798
 21
740.574866
  0
LINE
  5
D5
100
AcDbEntity
  8
M1
  6
CONTINUOUS
370
25
 62
     7
100
AcDbLine
 10
928.759554
 20
719.489173
 11
925.759554
 21
719.489173
  0
LINE
  5
D6
100
AcDbEntity
  8
M1
  6
CONTINUOUS
370
25
 62
     7
100
AcDbLine
 10
928.759554
 20
719.489173
 11
928.759554
 21
697.989173
  0
LINE
  5
D7
100
AcDbEntity
  8
M1
  6
CONTINUOUS
370
25
 62
     7
100
AcDbLine
 10
925.759554
 20
719.489081
 11
924.759676
 21
718.489081
  0
LINE
  5
D8
100
AcDbEntity
  8
M1
  6
CONTINUOUS
370
25
 62
     7
100
AcDbLine
 10
965.259676
 20
778.989173
 11
965.259676
 21
767.489173
  0
LINE
  5
D9
100
AcDbEntity
  8
M1
  6
CONTINUOUS
370
25
 62
     7
100
AcDbLine
 10
978.759554
 20
778.989173
 11
978.759554
 21
739.989081
  0
LINE
  5
DA
100
AcDbEntity
  8
M1
  6
CONTINUOUS
370
25
 62
     7
100
AcDbLine
 10
962.259554
 20
767.489173
 11
962.259554
 21
745.989081
  0
LINE
  5
DB
100
AcDbEntity
  8
M1
  6
CONTINUOUS
370
25
 62
     7
100
AcDbLine
 10
953.759554
 20
740.989081
 11
953.759554
 21
708.989173
  0
LINE
  5
DC
100
AcDbEntity
  8
M1
  6
CONTINUOUS
370
25
 62
     7
100
AcDbLine
 10
962.259798
 20
745.988868
 11
953.759798
 21
737.988868
  0
LINE
  5
DD
100
AcDbEntity
  8
M1
  6
CONTINUOUS
370
25
 62
     7
100
AcDbLine
 10
957.559664
 20
715.989173
 11
953.759554
 21
715.989173
  0
LINE
  5
DE
100
AcDbEntity
  8
M1
  6
CONTINUOUS
370
25
 62
     7
100
AcDbLine
 10
959.759554
 20
728.989173
 11
959.759554
 21
709.989173
  0
LINE
  5
DF
100
AcDbEntity
  8
M1
  6
CONTINUOUS
370
25
 62
     7
100
AcDbLine
 10
957.559664
 20
715.989173
 11
957.559664
 21
708.989173
  0
LINE
  5
E0
100
AcDbEntity
  8
M1
  6
CONTINUOUS
370
25
 62
     7
100
AcDbLine
 10
978.759554
 20
739.989081
 11
971.759554
 21
739.989081
  0
LINE
  5
E1
100
AcDbEntity
  8
M1
  6
CONTINUOUS
370
25
 62
     7
100
AcDbLine
 10
971.75931
 20
739.989478
 11
959.75931
 21
728.989478
  0
LINE
  5
E2
100
AcDbEntity
  8
M1
  6
CONTINUOUS
370
25
 62
     7
100
AcDbLine
 10
957.559603
 20
715.989264
 11
953.759554
 21
708.989264
  0
LINE
  5
E3
100
AcDbEntity
  8
M1
  6
CONTINUOUS
370
25
 62
     7
100
AcDbLine
 10
953.759554
 20
715.989173
 11
957.559664
 21
708.989173
  0
LINE
  5
E4
100
AcDbEntity
  8
M1
  6
CONTINUOUS
370
25
 62
     7
100
AcDbLine
 10
959.759554
 20
709.989173
 11
957.559664
 21
709.989173
  0
LINE
  5
E5
100
AcDbEntity
  8
M1
  6
CONTINUOUS
370
25
 62
     7
100
AcDbLine
 10
952.759554
 20
740.574866
 11
952.759554
 21
708.989173
  0
LINE
  5
E6
100
AcDbEntity
  8
M1
  6
CONTINUOUS
370
25
 62
     7
100
AcDbLine
 10
953.759798
 20
740.989081
 11
945.759798
 21
748.989081
  0
LINE
  5
E7
100
AcDbEntity
  8
M1
  6
CONTINUOUS
370
25
 62
     7
100
AcDbLine
 10
952.759554
 20
740.574866
 11
945.052461
 21
748.282081
  0
LINE
  5
E8
100
AcDbEntity
  8
M1
  6
CONTINUOUS
370
25
 62
     7
100
AcDbLine
 10
945.759676
 20
748.98899
 11
945.052583
 21
748.281867
  0
LINE
  5
E9
100
AcDbEntity
  8
M1
  6
CONTINUOUS
370
25
 62
     7
100
AcDbLine
 10
944.259554
 20
692.489173
 11
814.259554
 21
692.489173
  0
LINE
  5
EA
100
AcDbEntity
  8
M1
  6
CONTINUOUS
370
25
 62
     7
100
AcDbLine
 10
995.259554
 20
805.381507
 11
995.259554
 21
784.5969
  0
LINE
  5
EB
100
AcDbEntity
  8
M1
  6
CONTINUOUS
370
25
 62
     7
100
AcDbLine
 10
995.259554
 20
804.189063
 11
992.759554
 21
804.189063
  0
LINE
  5
EC
100
AcDbEntity
  8
M1
  6
CONTINUOUS
370
25
 62
     7
100
AcDbLine
 10
992.759554
 20
785.789161
 11
995.259554
 21
785.789161
  0
LINE
  5
ED
100
AcDbEntity
  8
M1
  6
CONTINUOUS
370
25
 62
     7
100
AcDbLine
 10
995.259676
 20
794.989051
 11
992.759676
 21
792.405005
  0
LINE
  5
EE
100
AcDbEntity
  8
M1
  6
CONTINUOUS
370
25
 62
     7
100
AcDbLine
 10
992.759798
 20
794.989051
 11
995.259798
 21
797.365394
  0
LINE
  5
EF
100
AcDbEntity
  8
M1
  6
CONTINUOUS
370
25
 62
     7
100
AcDbLine
 10
1002.759554
 20
803.185279
 11
1002.759554
 21
786.793006
  0
LINE
  5
F0
100
AcDbEntity
  8
M1
  6
CONTINUOUS
370
25
 62
     7
100
AcDbLine
 10
856.759554
 20
803.185279
 11
856.759554
 21
786.793006
  0
LINE
  5
F1
100
AcDbEntity
  8
M1
  6
CONTINUOUS
370
25
 62
     7
100
AcDbLine
 10
866.759798
 20
794.98899
 11
864.259798
 21
792.612708
  0
LINE
  5
F2
100
AcDbEntity
  8
M1
  6
CONTINUOUS
370
25
 62
     7
100
AcDbLine
 10
864.259798
 20
794.98899
 11
866.759798
 21
797.573157
  0
LINE
  5
F3
100
AcDbEntity
  8
M1
  6
CONTINUOUS
370
25
 62
     7
100
AcDbLine
 10
866.759554
 20
785.789161
 11
864.259554
 21
785.789161
  0
LINE
  5
F4
100
AcDbEntity
  8
M1
  6
CONTINUOUS
370
25
 62
     7
100
AcDbLine
 10
864.259554
 20
804.189063
 11
866.759554
 21
804.189063
  0
LINE
  5
F5
100
AcDbEntity
  8
M1
  6
CONTINUOUS
370
25
 62
     7
100
AcDbLine
 10
864.259554
 20
805.381507
 11
864.259554
 21
784.5969
  0
LINE
  5
F6
100
AcDbEntity
  8
M1
  6
CONTINUOUS
370
25
 62
     7
100
AcDbLine
 10
984.759554
 20
710.189185
 11
984.759554
 21
694.789191
  0
LINE
  5
F7
100
AcDbEntity
  8
M1
  6
CONTINUOUS
370
25
 62
     7
100
AcDbLine
 10
984.759554
 20
710.189185
 11
982.759554
 21
710.189185
  0
LINE
  5
F8
100
AcDbEntity
  8
M1
  6
CONTINUOUS
370
25
 62
     7
100
AcDbLine
 10
984.759554
 20
694.789191
 11
982.759554
 21
694.789191
  0
LINE
  5
F9
100
AcDbEntity
  8
M1
  6
CONTINUOUS
370
25
 62
     7
100
AcDbLine
 10
984.759554
 20
702.489173
 11
982.759554
 21
700.319678
  0
LINE
  5
FA
100
AcDbEntity
  8
M1
  6
CONTINUOUS
370
25
 62
     7
100
AcDbLine
 10
982.759798
 20
702.489081
 11
984.759798
 21
704.488166
  0
LINE
  5
FB
100
AcDbEntity
  8
M1
  6
CONTINUOUS
370
25
 62
     7
100
AcDbLine
 10
990.059603
 20
708.241889
 11
990.059603
 21
696.736365
  0
LINE
  5
FC
100
AcDbEntity
  8
M1
  6
CONTINUOUS
370
25
 62
     7
100
AcDbLine
 10
864.259554
 20
514.596885
 11
864.259554
 21
535.381385
  0
LINE
  5
FD
100
AcDbEntity
  8
M1
  6
CONTINUOUS
370
25
 62
     7
100
AcDbLine
 10
864.259554
 20
515.789191
 11
866.759554
 21
515.789191
  0
LINE
  5
FE
100
AcDbEntity
  8
M1
  6
CONTINUOUS
370
25
 62
     7
100
AcDbLine
 10
866.759554
 20
534.189063
 11
864.259554
 21
534.189063
  0
LINE
  5
FF
100
AcDbEntity
  8
M1
  6
CONTINUOUS
370
25
 62
     7
100
AcDbLine
 10
864.259371
 20
524.989173
 11
866.759371
 21
527.573371
  0
LINE
  5
100
100
AcDbEntity
  8
M1
  6
CONTINUOUS
370
25
 62
     7
100
AcDbLine
 10
866.759676
 20
524.989081
 11
864.259676
 21
522.612769
  0
LINE
  5
101
100
AcDbEntity
  8
M1
  6
CONTINUOUS
370
25
 62
     7
100
AcDbLine
 10
856.759554
 20
516.792975
 11
856.759554
 21
533.185279
  0
LINE
  5
102
100
AcDbEntity
  8
M1
  6
CONTINUOUS
370
25
 62
     7
100
AcDbLine
 10
889.259676
 20
492.489081
 11
887.259676
 21
494.489081
  0
LINE
  5
103
100
AcDbEntity
  8
M1
  6
CONTINUOUS
370
25
 62
     7
100
AcDbLine
 10
887.259554
 20
494.489173
 11
887.259554
 21
659.989081
  0
LINE
  5
104
100
AcDbEntity
  8
M1
  6
CONTINUOUS
370
25
 62
     7
100
AcDbLine
 10
886.759554
 20
510.989081
 11
869.759554
 21
510.989081
  0
LINE
  5
105
100
AcDbEntity
  8
M1
  6
CONTINUOUS
370
25
 62
     7
100
AcDbLine
 10
970.259554
 20
492.489173
 11
889.259554
 21
492.489173
  0
LINE
  5
106
100
AcDbEntity
  8
M1
  6
CONTINUOUS
370
25
 62
     7
100
AcDbLine
 10
1002.759554
 20
516.792975
 11
1002.759554
 21
533.185279
  0
LINE
  5
107
100
AcDbEntity
  8
M1
  6
CONTINUOUS
370
25
 62
     7
100
AcDbLine
 10
992.759798
 20
524.989081
 11
995.259798
 21
527.365363
  0
LINE
  5
108
100
AcDbEntity
  8
M1
  6
CONTINUOUS
370
25
 62
     7
100
AcDbLine
 10
995.259798
 20
524.98899
 11
992.759798
 21
522.404883
  0
LINE
  5
109
100
AcDbEntity
  8
M1
  6
CONTINUOUS
370
25
 62
     7
100
AcDbLine
 10
992.759554
 20
534.189063
 11
995.259554
 21
534.189063
  0
LINE
  5
10A
100
AcDbEntity
  8
M1
  6
CONTINUOUS
370
25
 62
     7
100
AcDbLine
 10
995.259554
 20
515.789191
 11
992.759554
 21
515.789191
  0
LINE
  5
10B
100
AcDbEntity
  8
M1
  6
CONTINUOUS
370
25
 62
     7
100
AcDbLine
 10
995.259554
 20
514.596885
 11
995.259554
 21
535.381385
  0
LINE
  5
10C
100
AcDbEntity
  8
M1
  6
CONTINUOUS
370
25
 62
     7
100
AcDbLine
 10
989.759554
 20
510.989081
 11
972.259554
 21
510.989081
  0
LINE
  5
10D
100
AcDbEntity
  8
M1
  6
CONTINUOUS
370
25
 62
     7
100
AcDbLine
 10
972.259676
 20
494.489081
 11
970.259676
 21
492.489081
  0
LINE
  5
10E
100
AcDbEntity
  8
M1
  6
CONTINUOUS
370
25
 62
     7
100
AcDbLine
 10
972.259554
 20
494.489173
 11
972.259554
 21
659.989081
  0
LINE
  5
10F
100
AcDbEntity
  8
M1
  6
CONTINUOUS
370
25
 62
     7
100
AcDbLine
 10
992.759554
 20
513.989081
 11
992.759554
 21
659.989081
  0
LINE
  5
110
100
AcDbEntity
  8
M1
  6
CONTINUOUS
370
25
 62
     7
100
AcDbLine
 10
992.759371
 20
540.405066
 11
1000.613069
 21
579.237281
  0
LINE
  5
111
100
AcDbEntity
  8
M1
  6
CONTINUOUS
370
25
 62
     7
100
AcDbLine
 10
866.759554
 20
537.989081
 11
825.259554
 21
537.989081
  0
LINE
  5
112
100
AcDbEntity
  8
M1
  6
CONTINUOUS
370
25
 62
     7
100
AcDbLine
 10
825.259798
 20
537.989081
 11
824.259798
 21
538.989081
  0
LINE
  5
113
100
AcDbEntity
  8
M1
  6
CONTINUOUS
370
25
 62
     7
100
AcDbLine
 10
863.178499
 20
563.366065
 11
819.259798
 21
567.989081
  0
LINE
  5
114
100
AcDbEntity
  8
M1
  6
CONTINUOUS
370
25
 62
     7
100
AcDbLine
 10
820.259554
 20
564.989081
 11
819.259554
 21
565.989081
  0
LINE
  5
115
100
AcDbEntity
  8
M1
  6
CONTINUOUS
370
25
 62
     7
100
AcDbLine
 10
866.759554
 20
513.989081
 11
866.759554
 21
659.989081
  0
LINE
  5
116
100
AcDbEntity
  8
M1
  6
CONTINUOUS
370
25
 62
     7
100
AcDbLine
 10
824.259554
 20
538.989081
 11
824.259554
 21
564.989081
  0
LINE
  5
117
100
AcDbEntity
  8
M1
  6
CONTINUOUS
370
25
 62
     7
100
AcDbLine
 10
824.259554
 20
564.989081
 11
820.259554
 21
564.989081
  0
LINE
  5
118
100
AcDbEntity
  8
M1
  6
CONTINUOUS
370
25
 62
     7
100
AcDbLine
 10
819.259554
 20
565.989081
 11
819.259554
 21
659.989081
  0
LINE
  5
119
100
AcDbEntity
  8
M1
  6
CONTINUOUS
370
25
 62
     7
100
AcDbLine
 10
819.259554
 20
599.989081
 11
814.259554
 21
599.989081
  0
LINE
  5
11A
100
AcDbEntity
  8
M1
  6
CONTINUOUS
370
25
 62
     7
100
AcDbLine
 10
1000.613252
 20
579.237189
 11
1000.613252
 21
659.989081
  0
LINE
  5
11B
100
AcDbEntity
  8
M1
  6
CONTINUOUS
370
13
 62
     7
100
AcDbLine
 10
791.6644
 20
659.989081
 11
817.208956
 21
659.989081
  0
LINE
  5
11C
100
AcDbEntity
  8
M1
  6
CONTINUOUS
370
25
 62
     7
100
AcDbLine
 10
864.259554
 20
602.881385
 11
864.259554
 21
582.096869
  0
LINE
  5
11D
100
AcDbEntity
  8
M1
  6
CONTINUOUS
370
25
 62
     7
100
AcDbLine
 10
864.259554
 20
601.689063
 11
866.759554
 21
601.689063
  0
LINE
  5
11E
100
AcDbEntity
  8
M1
  6
CONTINUOUS
370
25
 62
     7
100
AcDbLine
 10
866.759554
 20
583.289191
 11
864.259554
 21
583.289191
  0
LINE
  5
11F
100
AcDbEntity
  8
M1
  6
CONTINUOUS
370
25
 62
     7
100
AcDbLine
 10
864.259554
 20
592.489264
 11
866.759554
 21
595.073493
  0
LINE
  5
120
100
AcDbEntity
  8
M1
  6
CONTINUOUS
370
25
 62
     7
100
AcDbLine
 10
866.759554
 20
592.48899
 11
864.259554
 21
590.112677
  0
LINE
  5
121
100
AcDbEntity
  8
M1
  6
CONTINUOUS
370
25
 62
     7
100
AcDbLine
 10
856.759554
 20
600.685279
 11
856.759554
 21
584.292975
  0
LINE
  5
122
100
AcDbEntity
  8
M1
  6
CONTINUOUS
370
25
 62
     7
100
AcDbLine
 10
1002.759554
 20
600.685279
 11
1002.759554
 21
584.292975
  0
LINE
  5
123
100
AcDbEntity
  8
M1
  6
CONTINUOUS
370
13
 62
     7
100
AcDbLine
 10
1304.006322
 20
674.866767
 11
1304.006322
 21
644.319465
  0
LINE
  5
124
100
AcDbEntity
  8
M1
  6
CONTINUOUS
370
13
 62
     7
100
AcDbLine
 10
1290.008031
 20
659.989081
 11
1317.293233
 21
659.989081
  0
LINE
  5
125
100
AcDbEntity
  8
M1
  6
CONTINUOUS
370
25
 62
     7
100
AcDbLine
 10
1361.48293
 20
707.606788
 11
1349.718129
 21
700.814368
  0
LINE
  5
126
100
AcDbEntity
  8
M1
  6
CONTINUOUS
370
25
 62
     7
100
AcDbLine
 10
1316.506322
 20
733.574073
 11
1316.506322
 21
719.989173
  0
LINE
  5
127
100
AcDbEntity
  8
M1
  6
CONTINUOUS
370
25
 62
     7
100
AcDbLine
 10
1336.007634
 20
727.701178
 11
1329.934224
 21
713.393287
  0
LINE
  5
128
100
AcDbEntity
  8
M1
  6
CONTINUOUS
370
25
 62
     7
100
AcDbLine
 10
1330.484624
 20
730.045691
 11
1324.411122
 21
715.737586
  0
LINE
  5
129
100
AcDbEntity
  8
M1
  6
CONTINUOUS
370
25
 62
     7
100
AcDbLine
 10
1346.646123
 20
721.558967
 11
1337.291829
 21
709.145392
  0
LINE
  5
12A
100
AcDbEntity
  8
M1
  6
CONTINUOUS
370
25
 62
     7
100
AcDbLine
 10
1351.43813
 20
717.948188
 11
1342.083729
 21
705.534491
  0
LINE
  5
12B
100
AcDbEntity
  8
M1
  6
CONTINUOUS
370
25
 62
     7
100
AcDbLine
 10
1320.106328
 20
715.18888
 11
1321.946126
 21
714.618689
  0
LINE
  5
12C
100
AcDbEntity
  8
M1
  6
CONTINUOUS
370
25
 62
     7
100
AcDbLine
 10
1330.841923
 20
710.843268
 11
1334.629521
 21
708.65647
  0
LINE
  5
12D
100
AcDbEntity
  8
M1
  6
CONTINUOUS
370
25
 62
     7
100
AcDbLine
 10
1342.34763
 20
702.840491
 11
1343.76122
 21
701.532264
  0
LINE
  5
12E
100
AcDbEntity
  8
M1
  6
CONTINUOUS
370
25
 62
     7
100
AcDbLine
 10
1286.066533
 20
714.619086
 11
1287.906224
 21
715.189277
  0
LINE
  5
12F
100
AcDbEntity
  8
M1
  6
CONTINUOUS
370
25
 62
     7
100
AcDbLine
 10
1273.383229
 20
708.65647
 11
1277.170827
 21
710.843177
  0
LINE
  5
130
100
AcDbEntity
  8
M1
  6
CONTINUOUS
370
25
 62
     7
100
AcDbLine
 10
1264.251912
 20
701.532172
 11
1265.665639
 21
702.840278
  0
LINE
  5
131
100
AcDbEntity
  8
M1
  6
CONTINUOUS
370
25
 62
     7
100
AcDbLine
 10
1277.528325
 20
730.045569
 11
1283.60172
 21
715.737586
  0
LINE
  5
132
100
AcDbEntity
  8
M1
  6
CONTINUOUS
370
25
 62
     7
100
AcDbLine
 10
1272.005238
 20
727.701178
 11
1278.078526
 21
713.393165
  0
LINE
  5
133
100
AcDbEntity
  8
M1
  6
CONTINUOUS
370
25
 62
     7
100
AcDbLine
 10
1256.575032
 20
717.948188
 11
1265.929341
 21
705.534491
  0
LINE
  5
134
100
AcDbEntity
  8
M1
  6
CONTINUOUS
370
25
 62
     7
100
AcDbLine
 10
1261.366719
 20
721.558967
 11
1270.72112
 21
709.145392
  0
LINE
  5
135
100
AcDbEntity
  8
M1
  6
CONTINUOUS
370
25
 62
     7
100
AcDbLine
 10
1246.529927
 20
707.607184
 11
1258.294942
 21
700.814673
  0
LINE
  5
136
100
AcDbEntity
  8
M1
  6
CONTINUOUS
370
25
 62
     7
100
AcDbLine
 10
1291.50652
 20
733.574073
 11
1291.50652
 21
719.989173
  0
LINE
  5
137
100
AcDbEntity
  8
M1
  6
CONTINUOUS
370
25
 62
     7
100
AcDbLine
 10
1247.725636
 20
671.767676
 11
1248.151814
 21
673.646064
  0
LINE
  5
138
100
AcDbEntity
  8
M1
  6
CONTINUOUS
370
25
 62
     7
100
AcDbLine
 10
1246.548024
 20
657.802375
 11
1246.548024
 21
662.175971
  0
LINE
  5
139
100
AcDbEntity
  8
M1
  6
CONTINUOUS
370
25
 62
     7
100
AcDbLine
 10
1248.152028
 20
646.33219
 11
1247.725819
 21
648.210578
  0
LINE
  5
13A
100
AcDbEntity
  8
M1
  6
CONTINUOUS
370
25
 62
     7
100
AcDbLine
 10
1230.096821
 20
672.08689
 11
1245.524525
 21
670.192573
  0
LINE
  5
13B
100
AcDbEntity
  8
M1
  6
CONTINUOUS
370
25
 62
     7
100
AcDbLine
 10
1229.365437
 20
666.131385
 11
1244.793233
 21
664.237067
  0
LINE
  5
13C
100
AcDbEntity
  8
M1
  6
CONTINUOUS
370
25
 62
     7
100
AcDbLine
 10
1230.096638
 20
647.891791
 11
1245.524312
 21
649.786078
  0
LINE
  5
13D
100
AcDbEntity
  8
M1
  6
CONTINUOUS
370
25
 62
     7
100
AcDbLine
 10
1229.365315
 20
653.846869
 11
1244.793141
 21
655.741065
  0
LINE
  5
13E
100
AcDbEntity
  8
M1
  6
CONTINUOUS
370
25
 62
     7
100
AcDbLine
 10
1234.030019
 20
634.021888
 11
1245.794942
 21
640.814368
  0
LINE
  5
13F
100
AcDbEntity
  8
M1
  6
CONTINUOUS
370
25
 62
     7
100
AcDbLine
 10
1234.029927
 20
685.956275
 11
1245.79482
 21
679.163764
  0
LINE
  5
140
100
AcDbEntity
  8
M1
  6
CONTINUOUS
370
25
 62
     7
100
AcDbLine
 10
1265.665639
 20
617.137977
 11
1264.251912
 21
618.446174
  0
LINE
  5
141
100
AcDbEntity
  8
M1
  6
CONTINUOUS
370
25
 62
     7
100
AcDbLine
 10
1277.171132
 20
609.135566
 11
1273.383534
 21
611.322272
  0
LINE
  5
142
100
AcDbEntity
  8
M1
  6
CONTINUOUS
370
25
 62
     7
100
AcDbLine
 10
1287.906422
 20
604.789283
 11
1286.066731
 21
605.359473
  0
LINE
  5
143
100
AcDbEntity
  8
M1
  6
CONTINUOUS
370
25
 62
     7
100
AcDbLine
 10
1256.574727
 20
602.030188
 11
1265.929127
 21
614.443885
  0
LINE
  5
144
100
AcDbEntity
  8
M1
  6
CONTINUOUS
370
25
 62
     7
100
AcDbLine
 10
1261.366627
 20
598.419288
 11
1270.720936
 21
610.832984
  0
LINE
  5
145
100
AcDbEntity
  8
M1
  6
CONTINUOUS
370
25
 62
     7
100
AcDbLine
 10
1277.528325
 20
589.932685
 11
1283.60172
 21
604.240668
  0
LINE
  5
146
100
AcDbEntity
  8
M1
  6
CONTINUOUS
370
25
 62
     7
100
AcDbLine
 10
1272.005238
 20
592.276984
 11
1278.078526
 21
606.584968
  0
LINE
  5
147
100
AcDbEntity
  8
M1
  6
CONTINUOUS
370
25
 62
     7
100
AcDbLine
 10
1291.50652
 20
586.404181
 11
1291.50652
 21
599.989081
  0
LINE
  5
148
100
AcDbEntity
  8
M1
  6
CONTINUOUS
370
25
 62
     7
100
AcDbLine
 10
1246.530019
 20
612.371192
 11
1258.295033
 21
619.163672
  0
LINE
  5
149
100
AcDbEntity
  8
M1
  6
CONTINUOUS
370
25
 62
     7
100
AcDbLine
 10
1321.946324
 20
605.35929
 11
1320.106526
 21
604.789069
  0
LINE
  5
14A
100
AcDbEntity
  8
M1
  6
CONTINUOUS
370
25
 62
     7
100
AcDbLine
 10
1334.62943
 20
611.322272
 11
1330.841923
 21
609.135566
  0
LINE
  5
14B
100
AcDbEntity
  8
M1
  6
CONTINUOUS
370
25
 62
     7
100
AcDbLine
 10
1343.761128
 20
618.446174
 11
1342.347523
 21
617.137977
  0
LINE
  5
14C
100
AcDbEntity
  8
M1
  6
CONTINUOUS
370
25
 62
     7
100
AcDbLine
 10
1330.48473
 20
589.932685
 11
1324.411229
 21
604.240668
  0
LINE
  5
14D
100
AcDbEntity
  8
M1
  6
CONTINUOUS
370
25
 62
     7
100
AcDbLine
 10
1336.007527
 20
592.277076
 11
1329.934132
 21
606.58509
  0
LINE
  5
14E
100
AcDbEntity
  8
M1
  6
CONTINUOUS
370
25
 62
     7
100
AcDbLine
 10
1351.43813
 20
602.030188
 11
1342.083729
 21
614.443885
  0
LINE
  5
14F
100
AcDbEntity
  8
M1
  6
CONTINUOUS
370
25
 62
     7
100
AcDbLine
 10
1346.646321
 20
598.419379
 11
1337.29192
 21
610.832984
  0
LINE
  5
150
100
AcDbEntity
  8
M1
  6
CONTINUOUS
370
25
 62
     7
100
AcDbLine
 10
1361.482823
 20
612.371283
 11
1349.717931
 21
619.163764
  0
LINE
  5
151
100
AcDbEntity
  8
M1
  6
CONTINUOUS
370
25
 62
     7
100
AcDbLine
 10
1316.506322
 20
586.404181
 11
1316.506322
 21
599.989081
  0
LINE
  5
152
100
AcDbEntity
  8
M1
  6
CONTINUOUS
370
25
 62
     7
100
AcDbLine
 10
1360.287022
 20
648.210486
 11
1359.860921
 21
646.33219
  0
LINE
  5
153
100
AcDbEntity
  8
M1
  6
CONTINUOUS
370
25
 62
     7
100
AcDbLine
 10
1361.464833
 20
662.175971
 11
1361.464833
 21
657.802375
  0
LINE
  5
154
100
AcDbEntity
  8
M1
  6
CONTINUOUS
370
25
 62
     7
100
AcDbLine
 10
1359.860921
 20
673.646064
 11
1360.287129
 21
671.767676
  0
LINE
  5
155
100
AcDbEntity
  8
M1
  6
CONTINUOUS
370
25
 62
     7
100
AcDbLine
 10
1377.91602
 20
647.891791
 11
1362.488332
 21
649.786078
  0
LINE
  5
156
100
AcDbEntity
  8
M1
  6
CONTINUOUS
370
25
 62
     7
100
AcDbLine
 10
1378.647526
 20
653.847175
 11
1363.219624
 21
655.741492
  0
LINE
  5
157
100
AcDbEntity
  8
M1
  6
CONTINUOUS
370
25
 62
     7
100
AcDbLine
 10
1377.916127
 20
672.086768
 11
1362.488423
 21
670.192481
  0
LINE
  5
158
100
AcDbEntity
  8
M1
  6
CONTINUOUS
370
25
 62
     7
100
AcDbLine
 10
1378.647526
 20
666.131385
 11
1363.219731
 21
664.237189
  0
LINE
  5
159
100
AcDbEntity
  8
M1
  6
CONTINUOUS
370
25
 62
     7
100
AcDbLine
 10
1373.982823
 20
685.956275
 11
1362.218022
 21
679.163764
  0
LINE
  5
15A
100
AcDbEntity
  8
M1
  6
CONTINUOUS
370
25
 62
     7
100
AcDbLine
 10
1373.982823
 20
634.022071
 11
1362.218022
 21
640.814582
  0
LINE
  5
15B
100
AcDbEntity
  8
M1
  6
CONTINUOUS
370
25
 62
     7
100
AcDbLine
 10
1296.50652
 20
692.489173
 11
1311.50652
 21
692.489173
  0
LINE
  5
15C
100
AcDbEntity
  8
M1
  6
CONTINUOUS
370
25
 62
     7
100
AcDbLine
 10
1296.50652
 20
692.489173
 11
1296.50652
 21
686.446692
  0
LINE
  5
15D
100
AcDbEntity
  8
M1
  6
CONTINUOUS
370
25
 62
     7
100
AcDbLine
 10
1311.50652
 20
692.489173
 11
1311.50652
 21
686.446692
  0
LINE
  5
15E
100
AcDbEntity
  8
M1
  6
CONTINUOUS
370
13
 62
     7
100
AcDbLine
 10
516.370639
 20
659.989081
 11
542.174594
 21
659.989081
  0
LINE
  5
15F
100
AcDbEntity
  8
M1
  6
CONTINUOUS
370
13
 62
     7
100
AcDbLine
 10
528.923618
 20
671.739966
 11
528.923618
 21
645.650977
  0
LINE
  5
160
100
AcDbEntity
  8
M1
  6
CONTINUOUS
370
13
 62
     7
100
AcDbLine
 10
528.923618
 20
780.444007
 11
528.923618
 21
758.703193
  0
LINE
  5
161
100
AcDbEntity
  8
M1
  6
CONTINUOUS
370
13
 62
     7
100
AcDbLine
 10
528.923618
 20
560.620185
 11
528.923618
 21
541.294989
  0
LINE
  5
162
100
AcDbEntity
  8
M1
  6
CONTINUOUS
370
13
 62
     7
100
AcDbLine
 10
996.916902
 20
659.989081
 11
1018.876253
 21
659.989081
  0
LINE
  5
163
100
AcDbEntity
  8
M1
  6
CONTINUOUS
370
25
 62
     7
100
AcDbLine
 10
857.348055
 20
805.381507
 11
864.259554
 21
805.381507
  0
LINE
  5
164
100
AcDbEntity
  8
M1
  6
CONTINUOUS
370
25
 62
     7
100
AcDbLine
 10
857.348055
 20
784.5969
 11
864.259554
 21
784.5969
  0
LINE
  5
165
100
AcDbEntity
  8
M1
  6
CONTINUOUS
370
25
 62
     7
100
AcDbLine
 10
995.259554
 20
805.381507
 11
1002.171175
 21
805.381507
  0
LINE
  5
166
100
AcDbEntity
  8
M1
  6
CONTINUOUS
370
25
 62
     7
100
AcDbLine
 10
995.259554
 20
784.5969
 11
1002.171175
 21
784.5969
  0
LINE
  5
167
100
AcDbEntity
  8
M1
  6
CONTINUOUS
370
25
 62
     7
100
AcDbLine
 10
984.759554
 20
709.994666
 11
989.589998
 21
709.994666
  0
LINE
  5
168
100
AcDbEntity
  8
M1
  6
CONTINUOUS
370
25
 62
     7
100
AcDbLine
 10
984.759554
 20
694.983588
 11
989.589998
 21
694.983588
  0
LINE
  5
169
100
AcDbEntity
  8
M1
  6
CONTINUOUS
370
25
 62
     7
100
AcDbLine
 10
857.348055
 20
602.881385
 11
864.259554
 21
602.881385
  0
LINE
  5
16A
100
AcDbEntity
  8
M1
  6
CONTINUOUS
370
25
 62
     7
100
AcDbLine
 10
857.348055
 20
582.096869
 11
864.259554
 21
582.096869
  0
LINE
  5
16B
100
AcDbEntity
  8
M1
  6
CONTINUOUS
370
25
 62
     7
100
AcDbLine
 10
857.348055
 20
535.381385
 11
864.259554
 21
535.381385
  0
LINE
  5
16C
100
AcDbEntity
  8
M1
  6
CONTINUOUS
370
25
 62
     7
100
AcDbLine
 10
857.348055
 20
514.596885
 11
864.259554
 21
514.596885
  0
LINE
  5
16D
100
AcDbEntity
  8
M1
  6
CONTINUOUS
370
25
 62
     7
100
AcDbLine
 10
995.259554
 20
514.596885
 11
1002.171175
 21
514.596885
  0
LINE
  5
16E
100
AcDbEntity
  8
M1
  6
CONTINUOUS
370
25
 62
     7
100
AcDbLine
 10
995.259554
 20
535.381385
 11
1002.171175
 21
535.381385
  0
LINE
  5
16F
100
AcDbEntity
  8
M1
  6
CONTINUOUS
370
25
 62
     7
100
AcDbLine
 10
887.259554
 20
812.557593
 11
882.441561
 21
812.557593
  0
LINE
  5
170
100
AcDbEntity
  8
M1
  6
CONTINUOUS
370
25
 62
     7
100
AcDbLine
 10
887.259554
 20
815.329505
 11
882.903658
 21
815.329505
  0
LINE
  5
171
100
AcDbEntity
  8
M1
  6
CONTINUOUS
370
25
 62
     7
100
AcDbLine
 10
881.414705
 20
816.970496
 11
881.414705
 21
827.4495
  0
LINE
  5
172
100
AcDbEntity
  8
M1
  6
CONTINUOUS
370
25
 62
     7
100
AcDbLine
 10
878.615694
 20
816.275489
 11
878.615694
 21
829.321448
  0
LINE
  5
173
100
AcDbEntity
  8
M1
  6
CONTINUOUS
370
25
 62
     7
100
AcDbLine
 10
878.615572
 20
829.321448
 11
881.414583
 21
827.449561
  0
LINE
  5
174
100
AcDbEntity
  8
M1
  6
CONTINUOUS
370
25
 62
     7
100
AcDbLine
 10
878.615511
 20
832.994361
 11
881.414583
 21
830.951453
  0
LINE
  5
175
100
AcDbEntity
  8
M1
  6
CONTINUOUS
370
25
 62
     7
100
AcDbLine
 10
878.615694
 20
832.994483
 11
878.615694
 21
843.458594
  0
LINE
  5
176
100
AcDbEntity
  8
M1
  6
CONTINUOUS
370
25
 62
     7
100
AcDbLine
 10
881.414705
 20
830.951453
 11
881.414705
 21
843.458594
  0
LINE
  5
177
100
AcDbEntity
  8
M1
  6
CONTINUOUS
370
25
 62
     7
100
AcDbLine
 10
885.615572
 20
854.444495
 11
887.015657
 21
852.019507
  0
LINE
  5
178
100
AcDbEntity
  8
M1
  6
CONTINUOUS
370
25
 62
     7
100
AcDbLine
 10
886.315462
 20
853.233252
 11
892.377474
 21
856.732154
  0
LINE
  5
179
100
AcDbEntity
  8
M1
  6
CONTINUOUS
370
25
 62
     7
100
AcDbLine
 10
874.414766
 20
854.444373
 11
873.015901
 21
852.019507
  0
LINE
  5
17A
100
AcDbEntity
  8
M1
  6
CONTINUOUS
370
25
 62
     7
100
AcDbLine
 10
873.715669
 20
853.232764
 11
867.653597
 21
856.731788
  0
LINE
  5
17B
100
AcDbEntity
  8
M1
  6
CONTINUOUS
370
25
 62
     7
100
AcDbLine
 10
609.689609
 20
794.277686
 11
622.526645
 21
816.512366
  0
LINE
  5
17C
100
AcDbEntity
  8
M1
  6
CONTINUOUS
370
25
 62
     7
100
AcDbLine
 10
604.833652
 20
797.067481
 11
618.180576
 21
820.184302
  0
LINE
  5
17D
100
AcDbEntity
  8
M1
  6
CONTINUOUS
370
25
 62
     7
100
AcDbLine
 10
631.72562
 20
838.046058
 11
622.34061
 21
821.791175
  0
LINE
  5
17E
100
AcDbEntity
  8
M1
  6
CONTINUOUS
370
25
 62
     7
100
AcDbLine
 10
620.238559
 20
823.746863
 11
629.30167
 21
839.44596
  0
LINE
  5
17F
100
AcDbEntity
  8
M1
  6
CONTINUOUS
370
25
 62
     7
100
AcDbLine
 10
624.443637
 20
819.836097
 11
634.14957
 21
836.647071
  0
LINE
  5
180
100
AcDbEntity
  8
M1
  6
CONTINUOUS
370
25
 62
     7
100
AcDbLine
 10
620.237583
 20
823.747474
 11
624.444614
 21
819.835486
  0
LINE
  5
181
100
AcDbEntity
  8
M1
  6
CONTINUOUS
370
25
 62
     7
100
AcDbLine
 10
618.180576
 20
820.184485
 11
622.526645
 21
816.512366
  0
LINE
  5
182
100
AcDbEntity
  8
M1
  6
CONTINUOUS
370
25
 62
     7
100
AcDbLine
 10
620.352573
 20
818.348365
 11
607.106601
 21
795.40586
  0
LINE
  5
183
100
AcDbEntity
  8
M1
  6
CONTINUOUS
370
25
 62
     7
100
AcDbLine
 10
631.72562
 20
852.046363
 11
629.300571
 21
850.64646
  0
LINE
  5
184
100
AcDbEntity
  8
M1
  6
CONTINUOUS
370
25
 62
     7
100
AcDbLine
 10
630.512607
 20
851.34629
 11
627.012607
 21
857.408179
  0
LINE
  5
185
100
AcDbEntity
  8
M1
  6
CONTINUOUS
370
25
 62
     7
100
AcDbLine
 10
643.849643
 20
845.046485
 11
643.85062
 21
842.246497
  0
LINE
  5
186
100
AcDbEntity
  8
M1
  6
CONTINUOUS
370
25
 62
     7
100
AcDbLine
 10
643.85062
 20
843.646705
 11
650.85062
 21
843.645667
  0
LINE
  5
187
100
AcDbEntity
  8
M1
  6
CONTINUOUS
370
25
 62
     7
100
AcDbLine
 10
1217.842427
 20
803.627662
 11
1210.403432
 21
816.512366
  0
LINE
  5
188
100
AcDbEntity
  8
M1
  6
CONTINUOUS
370
25
 62
     7
100
AcDbLine
 10
1222.692036
 20
806.427466
 11
1214.749318
 21
820.18418
  0
LINE
  5
189
100
AcDbEntity
  8
M1
  6
CONTINUOUS
370
25
 62
     7
100
AcDbLine
 10
1201.203816
 20
838.046058
 11
1210.588826
 21
821.791053
  0
LINE
  5
18A
100
AcDbEntity
  8
M1
  6
CONTINUOUS
370
25
 62
     7
100
AcDbLine
 10
1212.691518
 20
823.746863
 11
1203.628529
 21
839.44596
  0
LINE
  5
18B
100
AcDbEntity
  8
M1
  6
CONTINUOUS
370
25
 62
     7
100
AcDbLine
 10
1208.486531
 20
819.835975
 11
1198.780629
 21
836.647193
  0
LINE
  5
18C
100
AcDbEntity
  8
M1
  6
CONTINUOUS
370
25
 62
     7
100
AcDbLine
 10
1212.692616
 20
823.747352
 11
1208.485615
 21
819.835364
  0
LINE
  5
18D
100
AcDbEntity
  8
M1
  6
CONTINUOUS
370
25
 62
     7
100
AcDbLine
 10
1214.749226
 20
820.184363
 11
1210.403035
 21
816.512366
  0
LINE
  5
18E
100
AcDbEntity
  8
M1
  6
CONTINUOUS
370
25
 62
     7
100
AcDbLine
 10
1212.577534
 20
818.348487
 11
1220.256215
 21
805.048255
  0
LINE
  5
18F
100
AcDbEntity
  8
M1
  6
CONTINUOUS
370
25
 62
     7
100
AcDbLine
 10
1201.20464
 20
852.046485
 11
1203.629536
 21
850.646583
  0
LINE
  5
190
100
AcDbEntity
  8
M1
  6
CONTINUOUS
370
25
 62
     7
100
AcDbLine
 10
1202.417012
 20
851.34629
 11
1205.917012
 21
857.408179
  0
LINE
  5
191
100
AcDbEntity
  8
M1
  6
CONTINUOUS
370
25
 62
     7
100
AcDbLine
 10
1189.080342
 20
845.046485
 11
1189.079335
 21
842.246497
  0
LINE
  5
192
100
AcDbEntity
  8
M1
  6
CONTINUOUS
370
25
 62
     7
100
AcDbLine
 10
1189.079518
 20
843.646705
 11
1182.079518
 21
843.645667
  0
LINE
  5
193
100
AcDbEntity
  8
M1
  6
CONTINUOUS
370
25
 62
     7
100
AcDbLine
 10
814.259554
 20
659.989081
 11
814.259554
 21
599.989081
  0
LINE
  5
194
100
AcDbEntity
  8
M1
  6
CONTINUOUS
370
25
 62
     7
100
AcDbLine
 10
920.052461
 20
745.281867
 11
920.759676
 21
744.574866
  0
LINE
  5
195
100
AcDbEntity
  8
M1
  6
CONTINUOUS
370
25
 62
     7
100
AcDbLine
 10
819.259554
 20
724.989081
 11
824.599397
 21
724.989081
  0
LINE
  5
196
100
AcDbEntity
  8
M1
  6
CONTINUOUS
370
25
 62
     7
100
AcDbLine
 10
841.919954
 20
724.989081
 11
847.259676
 21
724.989081
  0
LINE
  5
197
100
AcDbEntity
  8
M1
  6
CONTINUOUS
370
25
 62
     7
100
AcDbLine
 10
821.759676
 20
741.989081
 11
821.759676
 21
717.989081
  0
LINE
  5
198
100
AcDbEntity
  8
M1
  6
CONTINUOUS
370
25
 62
     7
100
AcDbLine
 10
844.759676
 20
741.989081
 11
844.759676
 21
717.989081
  0
LINE
  5
199
100
AcDbEntity
  8
M1
  6
CONTINUOUS
370
25
 62
     7
100
AcDbLine
 10
819.259554
 20
734.989081
 11
824.599397
 21
734.989081
  0
LINE
  5
19A
100
AcDbEntity
  8
M1
  6
CONTINUOUS
370
25
 62
     7
100
AcDbLine
 10
841.919954
 20
734.989081
 11
847.259676
 21
734.989081
  0
LINE
  5
19B
100
AcDbEntity
  8
M1
  6
CONTINUOUS
370
25
 62
     7
100
AcDbLine
 10
856.759676
 20
741.989081
 11
856.759676
 21
717.989081
  0
LINE
  5
19C
100
AcDbEntity
  8
M1
  6
CONTINUOUS
370
25
 62
     7
100
AcDbLine
 10
879.759676
 20
741.989081
 11
879.759676
 21
717.989081
  0
LINE
  5
19D
100
AcDbEntity
  8
M1
  6
CONTINUOUS
370
25
 62
     7
100
AcDbLine
 10
882.259798
 20
734.989081
 11
876.919954
 21
734.989081
  0
LINE
  5
19E
100
AcDbEntity
  8
M1
  6
CONTINUOUS
370
25
 62
     7
100
AcDbLine
 10
882.259798
 20
724.989081
 11
876.919954
 21
724.989081
  0
LINE
  5
19F
100
AcDbEntity
  8
M1
  6
CONTINUOUS
370
25
 62
     7
100
AcDbLine
 10
859.599397
 20
724.989081
 11
854.259676
 21
724.989081
  0
LINE
  5
1A0
100
AcDbEntity
  8
M1
  6
CONTINUOUS
370
25
 62
     7
100
AcDbLine
 10
859.599397
 20
734.989081
 11
854.259676
 21
734.989081
  0
ARC
  5
1A1
100
AcDbEntity
  8
M1
  6
CONTINUOUS
370
25
 62
     7
100
AcDbCircle
 10
528.923618
 20
659.989081
 40
167.499741
100
AcDbArc
 50
60.957565
 51
419.041855
  0
CIRCLE
  5
1A2
100
AcDbEntity
  8
M1
  6
CONTINUOUS
370
25
 62
     7
100
AcDbCircle
 10
528.923618
 20
659.989081
 40
149.0
  0
ARC
  5
1A3
100
AcDbEntity
  8
M1
  6
CONTINUOUS
370
25
 62
     7
100
AcDbCircle
 10
528.923618
 20
659.989081
 40
122.000053
100
AcDbArc
 50
88.437309
 51
91.562688
  0
ARC
  5
1A4
100
AcDbEntity
  8
M1
  6
CONTINUOUS
370
25
 62
     7
100
AcDbCircle
 10
528.923618
 20
659.989081
 40
97.000023
100
AcDbArc
 50
80.588364
 51
99.41164
  0
ARC
  5
1A5
100
AcDbEntity
  8
M1
  6
CONTINUOUS
370
25
 62
     7
100
AcDbCircle
 10
528.923618
 20
659.989081
 40
95.000168
100
AcDbArc
 50
102.00087
 51
137.999401
  0
CIRCLE
  5
1A6
100
AcDbEntity
  8
M1
  6
CONTINUOUS
370
25
 62
     7
100
AcDbCircle
 10
528.923618
 20
659.989081
 40
60.0
  0
ARC
  5
1A7
100
AcDbEntity
  8
M1
  6
CONTINUOUS
370
25
 62
     7
100
AcDbCircle
 10
528.923618
 20
659.989081
 40
27.500093
100
AcDbArc
 50
105.826561
 51
434.173424
  0
ARC
  5
1A8
100
AcDbEntity
  8
M1
  6
CONTINUOUS
370
13
 62
     7
100
AcDbCircle
 10
528.923618
 20
659.989081
 40
110.000015
100
AcDbArc
 50
84.647064
 51
95.283401
  0
CIRCLE
  5
1A9
100
AcDbEntity
  8
M1
  6
CONTINUOUS
370
13
 62
     7
100
AcDbCircle
 10
528.923618
 20
769.989173
 40
5.0
  0
CIRCLE
  5
1AA
100
AcDbEntity
  8
M1
  6
CONTINUOUS
370
25
 62
     7
100
AcDbCircle
 10
528.923618
 20
769.989173
 40
4.5
  0
ARC
  5
1AB
100
AcDbEntity
  8
M1
  6
CONTINUOUS
370
25
 62
     7
100
AcDbCircle
 10
528.923618
 20
659.989081
 40
122.00016
100
AcDbArc
 50
104.244331
 51
135.756025
  0
CIRCLE
  5
1AC
100
AcDbEntity
  8
M1
  6
CONTINUOUS
370
25
 62
     7
100
AcDbCircle
 10
528.923618
 20
659.989081
 40
92.0
  0
ARC
  5
1AD
100
AcDbEntity
  8
M1
  6
CONTINUOUS
370
25
 62
     7
100
AcDbCircle
 10
525.923618
 20
769.948188
 40
12.000031
100
AcDbArc
 50
91.561623
 51
180.0
  0
ARC
  5
1AE
100
AcDbEntity
  8
M1
  6
CONTINUOUS
370
25
 62
     7
100
AcDbCircle
 10
531.923618
 20
769.948188
 40
12.0
100
AcDbArc
 50
0.0
 51
88.438377
  0
ARC
  5
1AF
100
AcDbEntity
  8
M1
  6
CONTINUOUS
370
25
 62
     7
100
AcDbCircle
 10
507.923618
 20
758.781867
 40
5.999902
100
AcDbArc
 50
281.995117
 51
360.000015
  0
ARC
  5
1B0
100
AcDbEntity
  8
M1
  6
CONTINUOUS
370
25
 62
     7
100
AcDbCircle
 10
549.923618
 20
758.781867
 40
6.0
100
AcDbArc
 50
180.0
 51
257.994637
  0
ARC
  5
1B1
100
AcDbEntity
  8
M1
  6
CONTINUOUS
370
25
 62
     7
100
AcDbCircle
 10
528.923618
 20
659.989081
 40
97.000122
100
AcDbArc
 50
106.310608
 51
133.689676
  0
ARC
  5
1B2
100
AcDbEntity
  8
M1
  6
CONTINUOUS
370
25
 62
     7
100
AcDbCircle
 10
500.873569
 20
770.484382
 40
8.0
100
AcDbArc
 50
0.0
 51
104.24791
  0
ARC
  5
1B3
100
AcDbEntity
  8
M1
  6
CONTINUOUS
370
25
 62
     7
100
AcDbCircle
 10
447.256626
 20
739.528785
 40
7.999949
100
AcDbArc
 50
135.755936
 51
239.999969
  0
ARC
  5
1B4
100
AcDbEntity
  8
M1
  6
CONTINUOUS
370
25
 62
     7
100
AcDbCircle
 10
455.012607
 20
737.360083
 40
10.000048
100
AcDbArc
 50
240.000153
 51
313.691078
  0
ARC
  5
1B5
100
AcDbEntity
  8
M1
  6
CONTINUOUS
370
25
 62
     7
100
AcDbCircle
 10
498.873569
 20
762.682868
 40
9.999965
100
AcDbArc
 50
286.308655
 51
360.000008
  0
ARC
  5
1B6
100
AcDbEntity
  8
M1
  6
CONTINUOUS
370
25
 62
     7
100
AcDbCircle
 10
424.963657
 20
685.311866
 40
9.999063
100
AcDbArc
 50
346.309326
 51
420.000153
  0
ARC
  5
1B7
100
AcDbEntity
  8
M1
  6
CONTINUOUS
370
25
 62
     7
100
AcDbCircle
 10
424.963657
 20
634.666388
 40
10.000048
100
AcDbArc
 50
299.999847
 51
373.690674
  0
ARC
  5
1B8
100
AcDbEntity
  8
M1
  6
CONTINUOUS
370
25
 62
     7
100
AcDbCircle
 10
419.206577
 20
629.033576
 40
7.999594
100
AcDbArc
 50
195.757294
 51
299.99971
  0
ARC
  5
1B9
100
AcDbEntity
  8
M1
  6
CONTINUOUS
370
25
 62
     7
100
AcDbCircle
 10
419.206577
 20
690.94477
 40
8.000017
100
AcDbArc
 50
60.000069
 51
164.243332
  0
ARC
  5
1BA
100
AcDbEntity
  8
M1
  6
CONTINUOUS
370
25
 62
     7
100
AcDbCircle
 10
528.923618
 20
659.989081
 40
97.000549
100
AcDbArc
 50
166.310471
 51
193.689476
  0
ARC
  5
1BB
100
AcDbEntity
  8
M1
  6
CONTINUOUS
370
25
 62
     7
100
AcDbCircle
 10
453.866611
 20
727.571967
 40
5.999933
100
AcDbArc
 50
239.999634
 51
318.000618
  0
ARC
  5
1BC
100
AcDbEntity
  8
M1
  6
CONTINUOUS
370
25
 62
     7
100
AcDbCircle
 10
432.866611
 20
691.198981
 40
5.999728
100
AcDbArc
 50
341.999207
 51
420.000198
  0
ARC
  5
1BD
100
AcDbEntity
  8
M1
  6
CONTINUOUS
370
25
 62
     7
100
AcDbCircle
 10
435.19559
 20
717.566779
 40
11.999999
100
AcDbArc
 50
59.999996
 51
148.435207
  0
ARC
  5
1BE
100
AcDbEntity
  8
M1
  6
CONTINUOUS
370
25
 62
     7
100
AcDbCircle
 10
432.19559
 20
712.370582
 40
11.999956
100
AcDbArc
 50
151.562454
 51
240.0
  0
ARC
  5
1BF
100
AcDbEntity
  8
M1
  6
CONTINUOUS
370
25
 62
     7
100
AcDbCircle
 10
528.923618
 20
659.989081
 40
121.999939
100
AcDbArc
 50
164.244019
 51
195.755913
  0
CIRCLE
  5
1C0
100
AcDbEntity
  8
M1
  6
CONTINUOUS
370
25
 62
     7
100
AcDbCircle
 10
433.660678
 20
714.989173
 40
4.5
  0
CIRCLE
  5
1C1
100
AcDbEntity
  8
M1
  6
CONTINUOUS
370
13
 62
     7
100
AcDbCircle
 10
433.660678
 20
714.989173
 40
5.0
  0
ARC
  5
1C2
100
AcDbEntity
  8
M1
  6
CONTINUOUS
370
13
 62
     7
100
AcDbCircle
 10
528.923618
 20
659.989081
 40
109.999733
100
AcDbArc
 50
144.646881
 51
155.283366
  0
ARC
  5
1C3
100
AcDbEntity
  8
M1
  6
CONTINUOUS
370
25
 62
     7
100
AcDbCircle
 10
528.923618
 20
659.989081
 40
97.000206
100
AcDbArc
 50
140.588531
 51
159.411602
  0
ARC
  5
1C4
100
AcDbEntity
  8
M1
  6
CONTINUOUS
370
25
 62
     7
100
AcDbCircle
 10
528.923618
 20
659.989081
 40
121.999878
100
AcDbArc
 50
148.437164
 51
151.562941
  0
ARC
  5
1C5
100
AcDbEntity
  8
M1
  6
CONTINUOUS
370
25
 62
     7
100
AcDbCircle
 10
455.012607
 20
582.618171
 40
10.000288
100
AcDbArc
 50
46.30843
 51
119.999844
  0
ARC
  5
1C6
100
AcDbEntity
  8
M1
  6
CONTINUOUS
370
25
 62
     7
100
AcDbCircle
 10
498.873569
 20
557.295386
 40
10.0
100
AcDbArc
 50
0.0
 51
73.691353
  0
ARC
  5
1C7
100
AcDbEntity
  8
M1
  6
CONTINUOUS
370
25
 62
     7
100
AcDbCircle
 10
500.873569
 20
549.493873
 40
8.000089
100
AcDbArc
 50
255.751877
 51
360.0
  0
ARC
  5
1C8
100
AcDbEntity
  8
M1
  6
CONTINUOUS
370
25
 62
     7
100
AcDbCircle
 10
447.256626
 20
580.449469
 40
8.000017
100
AcDbArc
 50
119.999931
 51
224.244072
  0
ARC
  5
1C9
100
AcDbEntity
  8
M1
  6
CONTINUOUS
370
25
 62
     7
100
AcDbCircle
 10
528.923618
 20
659.989081
 40
97.000069
100
AcDbArc
 50
226.310287
 51
253.689379
  0
ARC
  5
1CA
100
AcDbEntity
  8
M1
  6
CONTINUOUS
370
25
 62
     7
100
AcDbCircle
 10
432.866611
 20
628.779273
 40
5.99996
100
AcDbArc
 50
300.000214
 51
378.000771
  0
ARC
  5
1CB
100
AcDbEntity
  8
M1
  6
CONTINUOUS
370
25
 62
     7
100
AcDbCircle
 10
453.866611
 20
592.406165
 40
6.000179
100
AcDbArc
 50
42.000252
 51
119.999641
  0
ARC
  5
1CC
100
AcDbEntity
  8
M1
  6
CONTINUOUS
370
25
 62
     7
100
AcDbCircle
 10
432.19559
 20
607.607673
 40
11.999999
100
AcDbArc
 50
120.0
 51
208.437157
  0
ARC
  5
1CD
100
AcDbEntity
  8
M1
  6
CONTINUOUS
370
25
 62
     7
100
AcDbCircle
 10
435.19559
 20
602.411567
 40
11.999312
100
AcDbArc
 50
211.564789
 51
300.0
  0
ARC
  5
1CE
100
AcDbEntity
  8
M1
  6
CONTINUOUS
370
25
 62
     7
100
AcDbCircle
 10
528.923618
 20
659.989081
 40
122.000092
100
AcDbArc
 50
224.243912
 51
255.755657
  0
CIRCLE
  5
1CF
100
AcDbEntity
  8
M1
  6
CONTINUOUS
370
25
 62
     7
100
AcDbCircle
 10
433.660678
 20
604.989081
 40
4.5
  0
CIRCLE
  5
1D0
100
AcDbEntity
  8
M1
  6
CONTINUOUS
370
13
 62
     7
100
AcDbCircle
 10
433.660678
 20
604.989081
 40
5.0
  0
ARC
  5
1D1
100
AcDbEntity
  8
M1
  6
CONTINUOUS
370
13
 62
     7
100
AcDbCircle
 10
528.923618
 20
659.989081
 40
110.000526
100
AcDbArc
 50
204.646805
 51
215.283186
  0
ARC
  5
1D2
100
AcDbEntity
  8
M1
  6
CONTINUOUS
370
25
 62
     7
100
AcDbCircle
 10
528.923618
 20
659.989081
 40
97.000359
100
AcDbArc
 50
200.588348
 51
219.411428
  0
ARC
  5
1D3
100
AcDbEntity
  8
M1
  6
CONTINUOUS
370
25
 62
     7
100
AcDbCircle
 10
528.923618
 20
659.989081
 40
122.000473
100
AcDbArc
 50
208.437012
 51
211.562789
  0
ARC
  5
1D4
100
AcDbEntity
  8
M1
  6
CONTINUOUS
370
25
 62
     7
100
AcDbCircle
 10
558.973667
 20
557.295386
 40
10.000238
100
AcDbArc
 50
106.314018
 51
180.0
  0
ARC
  5
1D5
100
AcDbEntity
  8
M1
  6
CONTINUOUS
370
25
 62
     7
100
AcDbCircle
 10
602.833652
 20
582.618171
 40
10.000048
100
AcDbArc
 50
60.000156
 51
133.687519
  0
ARC
  5
1D6
100
AcDbEntity
  8
M1
  6
CONTINUOUS
370
25
 62
     7
100
AcDbCircle
 10
610.59061
 20
580.449469
 40
7.99925
100
AcDbArc
 50
315.751038
 51
420.000061
  0
ARC
  5
1D7
100
AcDbEntity
  8
M1
  6
CONTINUOUS
370
25
 62
     7
100
AcDbCircle
 10
556.973667
 20
549.493873
 40
8.0
100
AcDbArc
 50
180.0
 51
284.240494
  0
ARC
  5
1D8
100
AcDbEntity
  8
M1
  6
CONTINUOUS
370
25
 62
     7
100
AcDbCircle
 10
528.923618
 20
659.989081
 40
96.999847
100
AcDbArc
 50
286.310059
 51
313.689669
  0
ARC
  5
1D9
100
AcDbEntity
  8
M1
  6
CONTINUOUS
370
25
 62
     7
100
AcDbCircle
 10
507.923618
 20
561.196387
 40
6.0
100
AcDbArc
 50
0.0
 51
78.004898
  0
ARC
  5
1DA
100
AcDbEntity
  8
M1
  6
CONTINUOUS
370
25
 62
     7
100
AcDbCircle
 10
549.923618
 20
561.196387
 40
6.000131
100
AcDbArc
 50
102.005363
 51
180.0
  0
ARC
  5
1DB
100
AcDbEntity
  8
M1
  6
CONTINUOUS
370
25
 62
     7
100
AcDbCircle
 10
525.923618
 20
550.030066
 40
12.0
100
AcDbArc
 50
180.0
 51
268.438377
  0
ARC
  5
1DC
100
AcDbEntity
  8
M1
  6
CONTINUOUS
370
25
 62
     7
100
AcDbCircle
 10
531.923618
 20
550.030066
 40
11.99994
100
AcDbArc
 50
271.561646
 51
360.000008
  0
ARC
  5
1DD
100
AcDbEntity
  8
M1
  6
CONTINUOUS
370
25
 62
     7
100
AcDbCircle
 10
528.923618
 20
659.989081
 40
121.999893
100
AcDbArc
 50
284.243835
 51
315.755711
  0
CIRCLE
  5
1DE
100
AcDbEntity
  8
M1
  6
CONTINUOUS
370
25
 62
     7
100
AcDbCircle
 10
528.923618
 20
549.989081
 40
4.5
  0
CIRCLE
  5
1DF
100
AcDbEntity
  8
M1
  6
CONTINUOUS
370
13
 62
     7
100
AcDbCircle
 10
528.923618
 20
549.989081
 40
5.0
  0
ARC
  5
1E0
100
AcDbEntity
  8
M1
  6
CONTINUOUS
370
13
 62
     7
100
AcDbCircle
 10
528.923618
 20
659.989081
 40
109.999924
100
AcDbArc
 50
264.647064
 51
275.283403
  0
ARC
  5
1E1
100
AcDbEntity
  8
M1
  6
CONTINUOUS
370
25
 62
     7
100
AcDbCircle
 10
528.923618
 20
659.989081
 40
96.999939
100
AcDbArc
 50
260.588348
 51
279.411633
  0
ARC
  5
1E2
100
AcDbEntity
  8
M1
  6
CONTINUOUS
370
25
 62
     7
100
AcDbCircle
 10
528.923618
 20
659.989081
 40
121.999992
100
AcDbArc
 50
268.436859
 51
271.562699
  0
ARC
  5
1E3
100
AcDbEntity
  8
M1
  6
CONTINUOUS
370
25
 62
     7
100
AcDbCircle
 10
632.883579
 20
634.666388
 40
10.000011
100
AcDbArc
 50
166.310654
 51
240.000153
  0
ARC
  5
1E4
100
AcDbEntity
  8
M1
  6
CONTINUOUS
370
25
 62
     7
100
AcDbCircle
 10
632.883579
 20
685.311866
 40
10.000048
100
AcDbArc
 50
119.99984
 51
193.689339
  0
ARC
  5
1E5
100
AcDbEntity
  8
M1
  6
CONTINUOUS
370
25
 62
     7
100
AcDbCircle
 10
638.640659
 20
690.94477
 40
7.999569
100
AcDbArc
 50
15.756665
 51
119.999928
  0
ARC
  5
1E6
100
AcDbEntity
  8
M1
  6
CONTINUOUS
370
25
 62
     7
100
AcDbCircle
 10
638.640659
 20
629.033576
 40
7.99999
100
AcDbArc
 50
239.999954
 51
344.242699
  0
ARC
  5
1E7
100
AcDbEntity
  8
M1
  6
CONTINUOUS
370
25
 62
     7
100
AcDbCircle
 10
528.923618
 20
659.989081
 40
96.999619
100
AcDbArc
 50
346.310272
 51
373.689655
  0
ARC
  5
1E8
100
AcDbEntity
  8
M1
  6
CONTINUOUS
370
25
 62
     7
100
AcDbCircle
 10
603.980625
 20
592.406165
 40
6.000065
100
AcDbArc
 50
60.000362
 51
137.999752
  0
ARC
  5
1E9
100
AcDbEntity
  8
M1
  6
CONTINUOUS
370
25
 62
     7
100
AcDbCircle
 10
624.980625
 20
628.779273
 40
6.000656
100
AcDbArc
 50
162.002106
 51
239.999779
  0
ARC
  5
1EA
100
AcDbEntity
  8
M1
  6
CONTINUOUS
370
25
 62
     7
100
AcDbCircle
 10
622.650669
 20
602.411567
 40
11.999999
100
AcDbArc
 50
240.0
 51
328.437279
  0
ARC
  5
1EB
100
AcDbEntity
  8
M1
  6
CONTINUOUS
370
25
 62
     7
100
AcDbCircle
 10
625.650669
 20
607.607673
 40
11.999956
100
AcDbArc
 50
331.562439
 51
419.999985
  0
ARC
  5
1EC
100
AcDbEntity
  8
M1
  6
CONTINUOUS
370
25
 62
     7
100
AcDbCircle
 10
528.923618
 20
659.989081
 40
121.999939
100
AcDbArc
 50
344.244019
 51
375.755997
  0
CIRCLE
  5
1ED
100
AcDbEntity
  8
M1
  6
CONTINUOUS
370
25
 62
     7
100
AcDbCircle
 10
624.186557
 20
604.989081
 40
4.5
  0
CIRCLE
  5
1EE
100
AcDbEntity
  8
M1
  6
CONTINUOUS
370
13
 62
     7
100
AcDbCircle
 10
624.186557
 20
604.989081
 40
5.0
  0
ARC
  5
1EF
100
AcDbEntity
  8
M1
  6
CONTINUOUS
370
13
 62
     7
100
AcDbCircle
 10
528.923618
 20
659.989081
 40
109.99968
100
AcDbArc
 50
324.646912
 51
335.283145
  0
ARC
  5
1F0
100
AcDbEntity
  8
M1
  6
CONTINUOUS
370
25
 62
     7
100
AcDbCircle
 10
528.923618
 20
659.989081
 40
97.000221
100
AcDbArc
 50
320.588531
 51
339.411667
  0
ARC
  5
1F1
100
AcDbEntity
  8
M1
  6
CONTINUOUS
370
25
 62
     7
100
AcDbCircle
 10
528.923618
 20
659.989081
 40
121.999878
100
AcDbArc
 50
328.437164
 51
331.562672
  0
ARC
  5
1F2
100
AcDbEntity
  8
M1
  6
CONTINUOUS
370
25
 62
     7
100
AcDbCircle
 10
602.833652
 20
737.360083
 40
9.999701
100
AcDbArc
 50
226.312958
 51
299.99984
  0
ARC
  5
1F3
100
AcDbEntity
  8
M1
  6
CONTINUOUS
370
25
 62
     7
100
AcDbCircle
 10
558.973667
 20
762.682868
 40
10.0
100
AcDbArc
 50
180.0
 51
253.685982
  0
ARC
  5
1F4
100
AcDbEntity
  8
M1
  6
CONTINUOUS
370
25
 62
     7
100
AcDbCircle
 10
556.973667
 20
770.484382
 40
7.999937
100
AcDbArc
 50
75.75972
 51
180.0
  0
ARC
  5
1F5
100
AcDbEntity
  8
M1
  6
CONTINUOUS
370
25
 62
     7
100
AcDbCircle
 10
610.59061
 20
739.528785
 40
7.99999
100
AcDbArc
 50
300.000031
 51
404.24894
  0
ARC
  5
1F6
100
AcDbEntity
  8
M1
  6
CONTINUOUS
370
25
 62
     7
100
AcDbCircle
 10
528.923618
 20
659.989081
 40
97.000137
100
AcDbArc
 50
46.310322
 51
73.689943
  0
ARC
  5
1F7
100
AcDbEntity
  8
M1
  6
CONTINUOUS
370
25
 62
     7
100
AcDbCircle
 10
624.980625
 20
691.198981
 40
6.000039
100
AcDbArc
 50
119.999786
 51
197.99707
  0
ARC
  5
1F8
100
AcDbEntity
  8
M1
  6
CONTINUOUS
370
25
 62
     7
100
AcDbCircle
 10
603.980625
 20
727.571967
 40
6.000097
100
AcDbArc
 50
221.99939
 51
300.000374
  0
ARC
  5
1F9
100
AcDbEntity
  8
M1
  6
CONTINUOUS
370
25
 62
     7
100
AcDbCircle
 10
625.650669
 20
712.370582
 40
11.999999
100
AcDbArc
 50
300.0
 51
388.437546
  0
ARC
  5
1FA
100
AcDbEntity
  8
M1
  6
CONTINUOUS
370
25
 62
     7
100
AcDbCircle
 10
622.650669
 20
717.566779
 40
12.000144
100
AcDbArc
 50
31.562351
 51
120.000004
  0
ARC
  5
1FB
100
AcDbEntity
  8
M1
  6
CONTINUOUS
370
25
 62
     7
100
AcDbCircle
 10
528.923618
 20
659.989081
 40
122.000221
100
AcDbArc
 50
44.243973
 51
75.756168
  0
CIRCLE
  5
1FC
100
AcDbEntity
  8
M1
  6
CONTINUOUS
370
25
 62
     7
100
AcDbCircle
 10
624.186557
 20
714.989173
 40
4.5
  0
CIRCLE
  5
1FD
100
AcDbEntity
  8
M1
  6
CONTINUOUS
370
13
 62
     7
100
AcDbCircle
 10
624.186557
 20
714.989173
 40
5.0
  0
ARC
  5
1FE
100
AcDbEntity
  8
M1
  6
CONTINUOUS
370
13
 62
     7
100
AcDbCircle
 10
528.923618
 20
659.989081
 40
109.99971
100
AcDbArc
 50
24.64711
 51
35.283231
  0
ARC
  5
1FF
100
AcDbEntity
  8
M1
  6
CONTINUOUS
370
25
 62
     7
100
AcDbCircle
 10
528.923618
 20
659.989081
 40
97.000389
100
AcDbArc
 50
20.588392
 51
39.411463
  0
ARC
  5
200
100
AcDbEntity
  8
M1
  6
CONTINUOUS
370
25
 62
     7
100
AcDbCircle
 10
528.923618
 20
659.989081
 40
121.999657
100
AcDbArc
 50
28.437275
 51
31.562833
  0
ARC
  5
201
100
AcDbEntity
  8
M1
  6
CONTINUOUS
370
25
 62
     7
100
AcDbCircle
 10
528.923618
 20
659.989081
 40
94.999847
100
AcDbArc
 50
222.000565
 51
257.999126
  0
ARC
  5
202
100
AcDbEntity
  8
M1
  6
CONTINUOUS
370
25
 62
     7
100
AcDbCircle
 10
528.923618
 20
659.989081
 40
94.999374
100
AcDbArc
 50
342.000397
 51
377.999615
  0
ARC
  5
203
100
AcDbEntity
  8
M1
  6
CONTINUOUS
370
25
 62
     7
100
AcDbCircle
 10
528.923618
 20
659.989081
 40
94.999908
100
AcDbArc
 50
42.000599
 51
77.999779
  0
ARC
  5
204
100
AcDbEntity
  8
M1
  6
CONTINUOUS
370
25
 62
     7
100
AcDbCircle
 10
528.923618
 20
659.989081
 40
95.000305
100
AcDbArc
 50
162.00058
 51
197.99931
  0
ARC
  5
205
100
AcDbEntity
  8
M1
  6
CONTINUOUS
370
25
 62
     7
100
AcDbCircle
 10
869.759554
 20
805.989173
 40
3.0
100
AcDbArc
 50
90.0
 51
180.0
  0
ARC
  5
206
100
AcDbEntity
  8
M1
  6
CONTINUOUS
370
25
 62
     7
100
AcDbCircle
 10
880.759554
 20
782.989173
 40
2.0
100
AcDbArc
 50
90.0
 51
180.0
  0
ARC
  5
207
100
AcDbEntity
  8
M1
  6
CONTINUOUS
370
25
 62
     7
100
AcDbCircle
 10
879.259554
 20
740.989081
 40
4.0
100
AcDbArc
 50
0.0
 51
90.0
  0
ARC
  5
208
100
AcDbEntity
  8
M1
  6
CONTINUOUS
370
25
 62
     7
100
AcDbCircle
 10
879.259554
 20
718.989173
 40
4.0
100
AcDbArc
 50
270.0
 51
360.0
  0
ARC
  5
209
100
AcDbEntity
  8
M1
  6
CONTINUOUS
370
25
 62
     7
100
AcDbCircle
 10
858.259554
 20
718.989173
 40
4.0
100
AcDbArc
 50
180.0
 51
270.0
  0
ARC
  5
20A
100
AcDbEntity
  8
M1
  6
CONTINUOUS
370
25
 62
     7
100
AcDbCircle
 10
858.259554
 20
740.989081
 40
4.0
100
AcDbArc
 50
90.0
 51
180.0
  0
ARC
  5
20B
100
AcDbEntity
  8
M1
  6
CONTINUOUS
370
25
 62
     7
100
AcDbCircle
 10
843.259676
 20
740.989081
 40
4.0
100
AcDbArc
 50
0.0
 51
90.0
  0
ARC
  5
20C
100
AcDbEntity
  8
M1
  6
CONTINUOUS
370
25
 62
     7
100
AcDbCircle
 10
843.259676
 20
718.989173
 40
4.0
100
AcDbArc
 50
270.0
 51
360.0
  0
ARC
  5
20D
100
AcDbEntity
  8
M1
  6
CONTINUOUS
370
25
 62
     7
100
AcDbCircle
 10
823.259554
 20
718.989173
 40
4.0
100
AcDbArc
 50
180.0
 51
270.0
  0
ARC
  5
20E
100
AcDbEntity
  8
M1
  6
CONTINUOUS
370
25
 62
     7
100
AcDbCircle
 10
823.259554
 20
740.989081
 40
4.0
100
AcDbArc
 50
90.0
 51
180.0
  0
ARC
  5
20F
100
AcDbEntity
  8
M1
  6
CONTINUOUS
370
25
 62
     7
100
AcDbCircle
 10
862.759554
 20
760.590186
 40
3.999984
100
AcDbArc
 50
276.010254
 51
360.000015
  0
ARC
  5
210
100
AcDbEntity
  8
M1
  6
CONTINUOUS
370
25
 62
     7
100
AcDbCircle
 10
957.759554
 20
765.489173
 40
1.0
100
AcDbArc
 50
0.0
 51
90.0
  0
ARC
  5
211
100
AcDbEntity
  8
M1
  6
CONTINUOUS
370
25
 62
     7
100
AcDbCircle
 10
901.759554
 20
765.489173
 40
1.0
100
AcDbArc
 50
90.0
 51
180.0
  0
ARC
  5
212
100
AcDbEntity
  8
M1
  6
CONTINUOUS
370
25
 62
     7
100
AcDbCircle
 10
955.759554
 20
763.477179
 40
3.000037
100
AcDbArc
 50
307.235687
 51
360.0
  0
ARC
  5
213
100
AcDbEntity
  8
M1
  6
CONTINUOUS
370
25
 62
     7
100
AcDbCircle
 10
903.759554
 20
763.477179
 40
3.0
100
AcDbArc
 50
180.0
 51
232.766167
  0
ARC
  5
214
100
AcDbEntity
  8
M1
  6
CONTINUOUS
370
25
 62
     7
100
AcDbCircle
 10
938.759554
 20
740.508979
 40
4.999979
100
AcDbArc
 50
127.234642
 51
179.999996
  0
ARC
  5
215
100
AcDbEntity
  8
M1
  6
CONTINUOUS
370
25
 62
     7
100
AcDbCircle
 10
920.759554
 20
740.508979
 40
5.0
100
AcDbArc
 50
0.0
 51
52.764797
  0
ARC
  5
216
100
AcDbEntity
  8
M1
  6
CONTINUOUS
370
25
 62
     7
100
AcDbCircle
 10
989.759554
 20
805.989173
 40
3.0
100
AcDbArc
 50
0.0
 51
90.0
  0
ARC
  5
217
100
AcDbEntity
  8
M1
  6
CONTINUOUS
370
25
 62
     7
100
AcDbCircle
 10
982.992281
 20
783.489173
 40
2.999916
100
AcDbArc
 50
4.618914
 51
90.0
  0
ARC
  5
218
100
AcDbEntity
  8
M1
  6
CONTINUOUS
370
25
 62
     7
100
AcDbCircle
 10
990.841402
 20
736.028266
 40
9.999969
100
AcDbArc
 50
312.646088
 51
371.433578
  0
ARC
  5
219
100
AcDbEntity
  8
M1
  6
CONTINUOUS
370
25
 62
     7
100
AcDbCircle
 10
979.419771
 20
740.791388
 40
9.999903
100
AcDbArc
 50
314.999878
 51
364.620064
  0
ARC
  5
21A
100
AcDbEntity
  8
M1
  6
CONTINUOUS
370
25
 62
     7
100
AcDbCircle
 10
947.759554
 20
710.989173
 40
2.0
100
AcDbArc
 50
180.0
 51
270.0
  0
ARC
  5
21B
100
AcDbEntity
  8
M1
  6
CONTINUOUS
370
25
 62
     7
100
AcDbCircle
 10
998.367403
 20
803.185279
 40
4.392277
100
AcDbArc
 50
329.998657
 51
390.00135
  0
ARC
  5
21C
100
AcDbEntity
  8
M1
  6
CONTINUOUS
370
25
 62
     7
100
AcDbCircle
 10
971.876863
 20
794.989173
 40
30.882792
100
AcDbArc
 50
348.796936
 51
371.202854
  0
ARC
  5
21D
100
AcDbEntity
  8
M1
  6
CONTINUOUS
370
25
 62
     7
100
AcDbCircle
 10
998.367403
 20
786.793006
 40
4.392216
100
AcDbArc
 50
330.000031
 51
390.000656
  0
ARC
  5
21E
100
AcDbEntity
  8
M1
  6
CONTINUOUS
370
25
 62
     7
100
AcDbCircle
 10
861.15201
 20
786.793006
 40
4.392405
100
AcDbArc
 50
150.000534
 51
209.998772
  0
ARC
  5
21F
100
AcDbEntity
  8
M1
  6
CONTINUOUS
370
25
 62
     7
100
AcDbCircle
 10
887.642305
 20
794.989173
 40
30.882708
100
AcDbArc
 50
168.797134
 51
191.202873
  0
ARC
  5
220
100
AcDbEntity
  8
M1
  6
CONTINUOUS
370
25
 62
     7
100
AcDbCircle
 10
861.15201
 20
803.185279
 40
4.392436
100
AcDbArc
 50
149.999847
 51
210.000153
  0
ARC
  5
221
100
AcDbEntity
  8
M1
  6
CONTINUOUS
370
25
 62
     7
100
AcDbCircle
 10
986.554109
 20
708.241889
 40
3.505515
100
AcDbArc
 50
330.000793
 51
390.000099
  0
ARC
  5
222
100
AcDbEntity
  8
M1
  6
CONTINUOUS
370
25
 62
     7
100
AcDbCircle
 10
972.791109
 20
702.489173
 40
17.268568
100
AcDbArc
 50
346.606354
 51
373.393353
  0
ARC
  5
223
100
AcDbEntity
  8
M1
  6
CONTINUOUS
370
25
 62
     7
100
AcDbCircle
 10
986.554109
 20
696.736365
 40
3.505545
100
AcDbArc
 50
329.999908
 51
390.000507
  0
ARC
  5
224
100
AcDbEntity
  8
M1
  6
CONTINUOUS
370
25
 62
     7
100
AcDbCircle
 10
861.15201
 20
516.792975
 40
4.39242
100
AcDbArc
 50
150.000198
 51
209.998608
  0
ARC
  5
225
100
AcDbEntity
  8
M1
  6
CONTINUOUS
370
25
 62
     7
100
AcDbCircle
 10
887.642305
 20
524.989081
 40
30.882708
100
AcDbArc
 50
168.797134
 51
191.202707
  0
ARC
  5
226
100
AcDbEntity
  8
M1
  6
CONTINUOUS
370
25
 62
     7
100
AcDbCircle
 10
861.15201
 20
533.185279
 40
4.392375
100
AcDbArc
 50
150.001221
 51
209.998768
  0
ARC
  5
227
100
AcDbEntity
  8
M1
  6
CONTINUOUS
370
25
 62
     7
100
AcDbCircle
 10
869.759554
 20
513.989081
 40
3.0
100
AcDbArc
 50
180.0
 51
270.0
  0
ARC
  5
228
100
AcDbEntity
  8
M1
  6
CONTINUOUS
370
25
 62
     7
100
AcDbCircle
 10
998.367403
 20
533.185279
 40
4.392262
100
AcDbArc
 50
329.998993
 51
390.000999
  0
ARC
  5
229
100
AcDbEntity
  8
M1
  6
CONTINUOUS
370
25
 62
     7
100
AcDbCircle
 10
971.876863
 20
524.989081
 40
30.882767
100
AcDbArc
 50
348.79715
 51
371.202845
  0
ARC
  5
22A
100
AcDbEntity
  8
M1
  6
CONTINUOUS
370
25
 62
     7
100
AcDbCircle
 10
998.367403
 20
516.792975
 40
4.392209
100
AcDbArc
 50
330.000214
 51
390.001011
  0
ARC
  5
22B
100
AcDbEntity
  8
M1
  6
CONTINUOUS
370
25
 62
     7
100
AcDbCircle
 10
989.759554
 20
513.989081
 40
3.0
100
AcDbArc
 50
270.0
 51
360.0
  0
ARC
  5
22C
100
AcDbEntity
  8
M1
  6
CONTINUOUS
370
25
 62
     7
100
AcDbCircle
 10
862.759554
 20
559.388068
 40
4.0
100
AcDbArc
 50
0.0
 51
83.989761
  0
CIRCLE
  5
22D
100
AcDbEntity
  8
M1
  6
CONTINUOUS
370
25
 62
     7
100
AcDbCircle
 10
528.923618
 20
794.989173
 40
8.0
  0
CIRCLE
  5
22E
100
AcDbEntity
  8
M1
  6
CONTINUOUS
370
25
 62
     7
100
AcDbCircle
 10
412.009677
 20
727.489173
 40
8.0
  0
CIRCLE
  5
22F
100
AcDbEntity
  8
M1
  6
CONTINUOUS
370
25
 62
     7
100
AcDbCircle
 10
412.009677
 20
592.489081
 40
8.0
  0
CIRCLE
  5
230
100
AcDbEntity
  8
M1
  6
CONTINUOUS
370
25
 62
     7
100
AcDbCircle
 10
528.923618
 20
524.989081
 40
8.0
  0
CIRCLE
  5
231
100
AcDbEntity
  8
M1
  6
CONTINUOUS
370
25
 62
     7
100
AcDbCircle
 10
645.836582
 20
592.489081
 40
8.0
  0
CIRCLE
  5
232
100
AcDbEntity
  8
M1
  6
CONTINUOUS
370
25
 62
     7
100
AcDbCircle
 10
645.836582
 20
727.489173
 40
8.0
  0
ARC
  5
233
100
AcDbEntity
  8
M1
  6
CONTINUOUS
370
25
 62
     7
100
AcDbCircle
 10
861.15201
 20
600.685279
 40
4.392375
100
AcDbArc
 50
150.001221
 51
209.998768
  0
ARC
  5
234
100
AcDbEntity
  8
M1
  6
CONTINUOUS
370
25
 62
     7
100
AcDbCircle
 10
887.642305
 20
592.489081
 40
30.882708
100
AcDbArc
 50
168.797134
 51
191.202707
  0
ARC
  5
235
100
AcDbEntity
  8
M1
  6
CONTINUOUS
370
25
 62
     7
100
AcDbCircle
 10
861.15201
 20
584.292975
 40
4.39242
100
AcDbArc
 50
150.000198
 51
209.998779
  0
ARC
  5
236
100
AcDbEntity
  8
M1
  6
CONTINUOUS
370
25
 62
     7
100
AcDbCircle
 10
998.367403
 20
584.292975
 40
4.392216
100
AcDbArc
 50
330.000031
 51
390.000999
  0
ARC
  5
237
100
AcDbEntity
  8
M1
  6
CONTINUOUS
370
25
 62
     7
100
AcDbCircle
 10
971.876863
 20
592.489081
 40
30.882767
100
AcDbArc
 50
348.79715
 51
371.202845
  0
ARC
  5
238
100
AcDbEntity
  8
M1
  6
CONTINUOUS
370
25
 62
     7
100
AcDbCircle
 10
998.367403
 20
600.685279
 40
4.392262
100
AcDbArc
 50
329.998993
 51
390.000999
  0
ARC
  5
239
100
AcDbEntity
  8
M1
  6
CONTINUOUS
370
25
 62
     7
100
AcDbCircle
 10
607.538608
 20
796.155005
 40
6.956193
100
AcDbArc
 50
83.727539
 51
396.253204
  0
CIRCLE
  5
23A
100
AcDbEntity
  8
M1
  6
CONTINUOUS
370
25
 62
     7
100
AcDbCircle
 10
1304.006322
 20
659.989081
 40
149.000046
  0
CIRCLE
  5
23B
100
AcDbEntity
  8
M1
  6
CONTINUOUS
370
25
 62
     7
100
AcDbCircle
 10
1304.006322
 20
659.989081
 40
167.500046
  0
ARC
  5
23C
100
AcDbEntity
  8
M1
  6
CONTINUOUS
370
25
 62
     7
100
AcDbCircle
 10
1304.006322
 20
659.989081
 40
77.000099
100
AcDbArc
 50
41.14735
 51
49.17744
  0
CIRCLE
  5
23D
100
AcDbEntity
  8
M1
  6
CONTINUOUS
370
25
 62
     7
100
AcDbCircle
 10
1304.006322
 20
794.989173
 40
8.0
  0
CIRCLE
  5
23E
100
AcDbEntity
  8
M1
  6
CONTINUOUS
370
25
 62
     7
100
AcDbCircle
 10
1304.006322
 20
702.489173
 40
6.5
  0
CIRCLE
  5
23F
100
AcDbEntity
  8
M1
  6
CONTINUOUS
370
25
 62
     7
100
AcDbCircle
 10
1267.200429
 20
681.239173
 40
6.5
  0
CIRCLE
  5
240
100
AcDbEntity
  8
M1
  6
CONTINUOUS
370
25
 62
     7
100
AcDbCircle
 10
1187.093037
 20
727.489173
 40
8.0
  0
CIRCLE
  5
241
100
AcDbEntity
  8
M1
  6
CONTINUOUS
370
25
 62
     7
100
AcDbCircle
 10
1267.200429
 20
638.739173
 40
6.5
  0
CIRCLE
  5
242
100
AcDbEntity
  8
M1
  6
CONTINUOUS
370
25
 62
     7
100
AcDbCircle
 10
1187.093037
 20
592.489081
 40
8.0
  0
CIRCLE
  5
243
100
AcDbEntity
  8
M1
  6
CONTINUOUS
370
25
 62
     7
100
AcDbCircle
 10
1304.006322
 20
617.489081
 40
6.5
  0
CIRCLE
  5
244
100
AcDbEntity
  8
M1
  6
CONTINUOUS
370
25
 62
     7
100
AcDbCircle
 10
1304.006322
 20
524.989081
 40
8.0
  0
CIRCLE
  5
245
100
AcDbEntity
  8
M1
  6
CONTINUOUS
370
25
 62
     7
100
AcDbCircle
 10
1340.81252
 20
638.739173
 40
6.5
  0
CIRCLE
  5
246
100
AcDbEntity
  8
M1
  6
CONTINUOUS
370
25
 62
     7
100
AcDbCircle
 10
1420.919827
 20
592.489081
 40
8.0
  0
CIRCLE
  5
247
100
AcDbEntity
  8
M1
  6
CONTINUOUS
370
25
 62
     7
100
AcDbCircle
 10
1340.81252
 20
681.239173
 40
6.5
  0
CIRCLE
  5
248
100
AcDbEntity
  8
M1
  6
CONTINUOUS
370
25
 62
     7
100
AcDbCircle
 10
1420.919827
 20
727.489173
 40
8.0
  0
ARC
  5
249
100
AcDbEntity
  8
M1
  6
CONTINUOUS
370
25
 62
     7
100
AcDbCircle
 10
1304.006322
 20
659.989081
 40
77.000038
100
AcDbArc
 50
70.822571
 51
78.852511
  0
ARC
  5
24A
100
AcDbEntity
  8
M1
  6
CONTINUOUS
370
25
 62
     7
100
AcDbCircle
 10
1304.006322
 20
659.989081
 40
77.000061
100
AcDbArc
 50
56.822578
 51
63.177409
  0
ARC
  5
24B
100
AcDbEntity
  8
M1
  6
CONTINUOUS
370
25
 62
     7
100
AcDbCircle
 10
1318.50652
 20
733.574073
 40
2.000051
100
AcDbArc
 50
78.851837
 51
180.0
  0
ARC
  5
24C
100
AcDbEntity
  8
M1
  6
CONTINUOUS
370
25
 62
     7
100
AcDbCircle
 10
1328.643529
 20
730.827063
 40
2.000091
100
AcDbArc
 50
337.000122
 51
430.823456
  0
ARC
  5
24D
100
AcDbEntity
  8
M1
  6
CONTINUOUS
370
25
 62
     7
100
AcDbCircle
 10
1337.848622
 20
726.919776
 40
2.000001
100
AcDbArc
 50
63.175728
 51
157.001335
  0
ARC
  5
24E
100
AcDbEntity
  8
M1
  6
CONTINUOUS
370
25
 62
     7
100
AcDbCircle
 10
1345.048924
 20
722.76258
 40
2.000017
100
AcDbArc
 50
323.000977
 51
416.822647
  0
ARC
  5
24F
100
AcDbEntity
  8
M1
  6
CONTINUOUS
370
25
 62
     7
100
AcDbCircle
 10
1353.035329
 20
716.744483
 40
2.000048
100
AcDbArc
 50
49.176434
 51
143.001675
  0
ARC
  5
250
100
AcDbEntity
  8
M1
  6
CONTINUOUS
370
25
 62
     7
100
AcDbCircle
 10
1360.48293
 20
709.338965
 40
1.999951
100
AcDbArc
 50
300.000793
 51
401.150429
  0
ARC
  5
251
100
AcDbEntity
  8
M1
  6
CONTINUOUS
370
25
 62
     7
100
AcDbCircle
 10
1343.680928
 20
704.330787
 40
2.000072
100
AcDbArc
 50
142.998886
 51
228.178307
  0
ARC
  5
252
100
AcDbEntity
  8
M1
  6
CONTINUOUS
370
25
 62
     7
100
AcDbCircle
 10
1335.69463
 20
710.348975
 40
2.000065
100
AcDbArc
 50
237.819839
 51
322.998611
  0
ARC
  5
253
100
AcDbEntity
  8
M1
  6
CONTINUOUS
370
25
 62
     7
100
AcDbCircle
 10
1331.775334
 20
712.611792
 40
2.000105
100
AcDbArc
 50
157.00029
 51
242.180634
  0
ARC
  5
254
100
AcDbEntity
  8
M1
  6
CONTINUOUS
370
25
 62
     7
100
AcDbCircle
 10
1322.570225
 20
716.51908
 40
1.999952
100
AcDbArc
 50
251.819962
 51
337.001503
  0
ARC
  5
255
100
AcDbEntity
  8
M1
  6
CONTINUOUS
370
25
 62
     7
100
AcDbCircle
 10
1321.50652
 20
719.989173
 40
5.0
100
AcDbArc
 50
180.0
 51
253.738647
  0
ARC
  5
256
100
AcDbEntity
  8
M1
  6
CONTINUOUS
370
25
 62
     7
100
AcDbCircle
 10
1347.217931
 20
705.144568
 40
4.999963
100
AcDbArc
 50
226.259995
 51
300.000275
  0
CIRCLE
  5
257
100
AcDbEntity
  8
M1
  6
CONTINUOUS
370
25
 62
     7
100
AcDbCircle
 10
1304.006322
 20
659.989081
 40
57.0
  0
ARC
  5
258
100
AcDbEntity
  8
M1
  6
CONTINUOUS
370
25
 62
     7
100
AcDbCircle
 10
1286.50652
 20
719.989173
 40
4.999991
100
AcDbArc
 50
286.260345
 51
360.0
  0
ARC
  5
259
100
AcDbEntity
  8
M1
  6
CONTINUOUS
370
25
 62
     7
100
AcDbCircle
 10
1260.794942
 20
705.144568
 40
4.999958
100
AcDbArc
 50
239.999725
 51
313.739784
  0
ARC
  5
25A
100
AcDbEntity
  8
M1
  6
CONTINUOUS
370
25
 62
     7
100
AcDbCircle
 10
1264.331929
 20
704.330787
 40
1.99995
100
AcDbArc
 50
311.821381
 51
397.001396
  0
ARC
  5
25B
100
AcDbEntity
  8
M1
  6
CONTINUOUS
370
25
 62
     7
100
AcDbCircle
 10
1272.318227
 20
710.348975
 40
2.00006
100
AcDbArc
 50
217.001389
 51
302.179794
  0
ARC
  5
25C
100
AcDbEntity
  8
M1
  6
CONTINUOUS
370
25
 62
     7
100
AcDbCircle
 10
1276.237721
 20
712.611792
 40
1.99996
100
AcDbArc
 50
297.818268
 51
382.997681
  0
ARC
  5
25D
100
AcDbEntity
  8
M1
  6
CONTINUOUS
370
25
 62
     7
100
AcDbCircle
 10
1285.442631
 20
716.51908
 40
1.999971
100
AcDbArc
 50
202.998489
 51
288.182121
  0
ARC
  5
25E
100
AcDbEntity
  8
M1
  6
CONTINUOUS
370
25
 62
     7
100
AcDbCircle
 10
1289.50652
 20
733.574073
 40
2.0
100
AcDbArc
 50
0.0
 51
101.150742
  0
ARC
  5
25F
100
AcDbEntity
  8
M1
  6
CONTINUOUS
370
25
 62
     7
100
AcDbCircle
 10
1279.36942
 20
730.827063
 40
1.999999
100
AcDbArc
 50
109.177696
 51
202.997864
  0
ARC
  5
260
100
AcDbEntity
  8
M1
  6
CONTINUOUS
370
25
 62
     7
100
AcDbCircle
 10
1270.164326
 20
726.919776
 40
2.000055
100
AcDbArc
 50
22.997473
 51
116.823881
  0
ARC
  5
261
100
AcDbEntity
  8
M1
  6
CONTINUOUS
370
25
 62
     7
100
AcDbCircle
 10
1262.963917
 20
722.76258
 40
2.000051
100
AcDbArc
 50
123.176994
 51
216.99929
  0
ARC
  5
262
100
AcDbEntity
  8
M1
  6
CONTINUOUS
370
25
 62
     7
100
AcDbCircle
 10
1254.977528
 20
716.744483
 40
1.999987
100
AcDbArc
 50
36.998589
 51
130.821579
  0
ARC
  5
263
100
AcDbEntity
  8
M1
  6
CONTINUOUS
370
25
 62
     7
100
AcDbCircle
 10
1247.530019
 20
709.338965
 40
1.999965
100
AcDbArc
 50
138.851257
 51
239.999207
  0
ARC
  5
264
100
AcDbEntity
  8
M1
  6
CONTINUOUS
370
25
 62
     7
100
AcDbCircle
 10
1304.006322
 20
659.989081
 40
77.000023
100
AcDbArc
 50
116.82251
 51
123.177422
  0
ARC
  5
265
100
AcDbEntity
  8
M1
  6
CONTINUOUS
370
25
 62
     7
100
AcDbCircle
 10
1304.006322
 20
659.989081
 40
77.000038
100
AcDbArc
 50
130.822495
 51
138.8526
  0
ARC
  5
266
100
AcDbEntity
  8
M1
  6
CONTINUOUS
370
25
 62
     7
100
AcDbCircle
 10
1304.006322
 20
659.989081
 40
77.000038
100
AcDbArc
 50
101.147316
 51
109.177351
  0
ARC
  5
267
100
AcDbEntity
  8
M1
  6
CONTINUOUS
370
25
 62
     7
100
AcDbCircle
 10
1243.294942
 20
674.833686
 40
4.999966
100
AcDbArc
 50
346.25943
 51
419.999718
  0
ARC
  5
268
100
AcDbEntity
  8
M1
  6
CONTINUOUS
370
25
 62
     7
100
AcDbCircle
 10
1243.294942
 20
645.144568
 40
4.999958
100
AcDbArc
 50
300.000275
 51
373.740562
  0
ARC
  5
269
100
AcDbEntity
  8
M1
  6
CONTINUOUS
370
25
 62
     7
100
AcDbCircle
 10
1245.768239
 20
647.800879
 40
1.999994
100
AcDbArc
 50
11.820712
 51
96.999225
  0
ARC
  5
26A
100
AcDbEntity
  8
M1
  6
CONTINUOUS
370
25
 62
     7
100
AcDbCircle
 10
1244.549519
 20
657.726264
 40
1.999982
100
AcDbArc
 50
276.999329
 51
362.178268
  0
ARC
  5
26B
100
AcDbEntity
  8
M1
  6
CONTINUOUS
370
25
 62
     7
100
AcDbCircle
 10
1244.549519
 20
662.25199
 40
1.999953
100
AcDbArc
 50
357.819
 51
443.000656
  0
ARC
  5
26C
100
AcDbEntity
  8
M1
  6
CONTINUOUS
370
25
 62
     7
100
AcDbCircle
 10
1245.768239
 20
672.177466
 40
1.999982
100
AcDbArc
 50
263.000671
 51
348.179291
  0
ARC
  5
26D
100
AcDbEntity
  8
M1
  6
CONTINUOUS
370
25
 62
     7
100
AcDbCircle
 10
1233.030019
 20
684.22428
 40
1.999951
100
AcDbArc
 50
59.999195
 51
161.14896
  0
ARC
  5
26E
100
AcDbEntity
  8
M1
  6
CONTINUOUS
370
25
 62
     7
100
AcDbCircle
 10
1230.340413
 20
674.071784
 40
1.999951
100
AcDbArc
 50
169.178574
 51
263.001648
  0
ARC
  5
26F
100
AcDbEntity
  8
M1
  6
CONTINUOUS
370
25
 62
     7
100
AcDbCircle
 10
1229.121724
 20
664.146277
 40
2.000012
100
AcDbArc
 50
83.000771
 51
176.821426
  0
ARC
  5
270
100
AcDbEntity
  8
M1
  6
CONTINUOUS
370
25
 62
     7
100
AcDbCircle
 10
1229.121724
 20
655.831977
 40
2.000081
100
AcDbArc
 50
183.175949
 51
276.999229
  0
ARC
  5
271
100
AcDbEntity
  8
M1
  6
CONTINUOUS
370
25
 62
     7
100
AcDbCircle
 10
1230.340413
 20
645.906592
 40
1.999978
100
AcDbArc
 50
96.998466
 51
190.824371
  0
ARC
  5
272
100
AcDbEntity
  8
M1
  6
CONTINUOUS
370
25
 62
     7
100
AcDbCircle
 10
1233.030019
 20
635.753974
 40
1.999975
100
AcDbArc
 50
198.851044
 51
300.000809
  0
ARC
  5
273
100
AcDbEntity
  8
M1
  6
CONTINUOUS
370
25
 62
     7
100
AcDbCircle
 10
1304.006322
 20
659.989081
 40
76.999985
100
AcDbArc
 50
176.82254
 51
183.177385
  0
ARC
  5
274
100
AcDbEntity
  8
M1
  6
CONTINUOUS
370
25
 62
     7
100
AcDbCircle
 10
1304.006322
 20
659.989081
 40
76.999931
100
AcDbArc
 50
190.822464
 51
198.852582
  0
ARC
  5
275
100
AcDbEntity
  8
M1
  6
CONTINUOUS
370
25
 62
     7
100
AcDbCircle
 10
1304.006322
 20
659.989081
 40
76.999931
100
AcDbArc
 50
161.147354
 51
169.177402
  0
ARC
  5
276
100
AcDbEntity
  8
M1
  6
CONTINUOUS
370
25
 62
     7
100
AcDbCircle
 10
1260.794942
 20
614.833686
 40
5.000008
100
AcDbArc
 50
46.260975
 51
120.000278
  0
ARC
  5
277
100
AcDbEntity
  8
M1
  6
CONTINUOUS
370
25
 62
     7
100
AcDbCircle
 10
1286.50652
 20
599.989081
 40
5.0
100
AcDbArc
 50
0.0
 51
73.739655
  0
ARC
  5
278
100
AcDbEntity
  8
M1
  6
CONTINUOUS
370
25
 62
     7
100
AcDbCircle
 10
1285.442631
 20
603.459174
 40
1.999952
100
AcDbArc
 50
71.819962
 51
157.001503
  0
ARC
  5
279
100
AcDbEntity
  8
M1
  6
CONTINUOUS
370
25
 62
     7
100
AcDbCircle
 10
1276.237721
 20
607.366492
 40
1.999971
100
AcDbArc
 50
337.001495
 51
422.182533
  0
ARC
  5
27A
100
AcDbEntity
  8
M1
  6
CONTINUOUS
370
25
 62
     7
100
AcDbCircle
 10
1272.318227
 20
609.629279
 40
2.000057
100
AcDbArc
 50
57.820213
 51
142.998619
  0
ARC
  5
27B
100
AcDbEntity
  8
M1
  6
CONTINUOUS
370
25
 62
     7
100
AcDbCircle
 10
1264.331929
 20
615.647468
 40
1.999987
100
AcDbArc
 50
323.001404
 51
408.180374
  0
ARC
  5
27C
100
AcDbEntity
  8
M1
  6
CONTINUOUS
370
25
 62
     7
100
AcDbCircle
 10
1247.530019
 20
610.639289
 40
1.999951
100
AcDbArc
 50
120.000801
 51
221.14875
  0
ARC
  5
27D
100
AcDbEntity
  8
M1
  6
CONTINUOUS
370
25
 62
     7
100
AcDbCircle
 10
1254.977528
 20
603.233771
 40
1.999979
100
AcDbArc
 50
229.174713
 51
323.00351
  0
ARC
  5
27E
100
AcDbEntity
  8
M1
  6
CONTINUOUS
370
25
 62
     7
100
AcDbCircle
 10
1262.963917
 20
597.215674
 40
2.000005
100
AcDbArc
 50
143.000717
 51
236.823013
  0
ARC
  5
27F
100
AcDbEntity
  8
M1
  6
CONTINUOUS
370
25
 62
     7
100
AcDbCircle
 10
1270.164326
 20
593.058478
 40
1.999994
100
AcDbArc
 50
243.176117
 51
337.001503
  0
ARC
  5
280
100
AcDbEntity
  8
M1
  6
CONTINUOUS
370
25
 62
     7
100
AcDbCircle
 10
1279.36942
 20
589.151191
 40
2.000091
100
AcDbArc
 50
157.000107
 51
250.823158
  0
ARC
  5
281
100
AcDbEntity
  8
M1
  6
CONTINUOUS
370
25
 62
     7
100
AcDbCircle
 10
1289.50652
 20
586.404181
 40
2.000068
100
AcDbArc
 50
258.849274
 51
360.000015
  0
ARC
  5
282
100
AcDbEntity
  8
M1
  6
CONTINUOUS
370
25
 62
     7
100
AcDbCircle
 10
1304.006322
 20
659.989081
 40
77.000031
100
AcDbArc
 50
236.822479
 51
243.177454
  0
ARC
  5
283
100
AcDbEntity
  8
M1
  6
CONTINUOUS
370
25
 62
     7
100
AcDbCircle
 10
1304.006322
 20
659.989081
 40
76.999985
100
AcDbArc
 50
250.822479
 51
258.852595
  0
ARC
  5
284
100
AcDbEntity
  8
M1
  6
CONTINUOUS
370
25
 62
     7
100
AcDbCircle
 10
1304.006322
 20
659.989081
 40
76.999962
100
AcDbArc
 50
221.147354
 51
229.177466
  0
ARC
  5
285
100
AcDbEntity
  8
M1
  6
CONTINUOUS
370
25
 62
     7
100
AcDbCircle
 10
1321.50652
 20
599.989081
 40
5.000017
100
AcDbArc
 50
106.261353
 51
180.0
  0
ARC
  5
286
100
AcDbEntity
  8
M1
  6
CONTINUOUS
370
25
 62
     7
100
AcDbCircle
 10
1347.217931
 20
614.833686
 40
4.999958
100
AcDbArc
 50
59.999722
 51
133.739277
  0
ARC
  5
287
100
AcDbEntity
  8
M1
  6
CONTINUOUS
370
25
 62
     7
100
AcDbCircle
 10
1343.680928
 20
615.647468
 40
2.000028
100
AcDbArc
 50
131.819946
 51
216.998329
  0
ARC
  5
288
100
AcDbEntity
  8
M1
  6
CONTINUOUS
370
25
 62
     7
100
AcDbCircle
 10
1335.69463
 20
609.629279
 40
2.00006
100
AcDbArc
 50
37.001385
 51
122.180157
  0
ARC
  5
289
100
AcDbEntity
  8
M1
  6
CONTINUOUS
370
25
 62
     7
100
AcDbCircle
 10
1331.775334
 20
607.366492
 40
1.999976
100
AcDbArc
 50
117.821007
 51
202.998497
  0
ARC
  5
28A
100
AcDbEntity
  8
M1
  6
CONTINUOUS
370
25
 62
     7
100
AcDbCircle
 10
1322.570225
 20
603.459174
 40
1.999971
100
AcDbArc
 50
22.998497
 51
108.182129
  0
ARC
  5
28B
100
AcDbEntity
  8
M1
  6
CONTINUOUS
370
25
 62
     7
100
AcDbCircle
 10
1318.50652
 20
586.404181
 40
2.0
100
AcDbArc
 50
180.0
 51
281.148163
  0
ARC
  5
28C
100
AcDbEntity
  8
M1
  6
CONTINUOUS
370
25
 62
     7
100
AcDbCircle
 10
1328.643529
 20
589.151191
 40
1.999999
100
AcDbArc
 50
289.177704
 51
382.997475
  0
ARC
  5
28D
100
AcDbEntity
  8
M1
  6
CONTINUOUS
370
25
 62
     7
100
AcDbCircle
 10
1337.848622
 20
593.058478
 40
1.999957
100
AcDbArc
 50
202.998672
 51
296.82428
  0
ARC
  5
28E
100
AcDbEntity
  8
M1
  6
CONTINUOUS
370
25
 62
     7
100
AcDbCircle
 10
1345.048924
 20
597.215674
 40
2.00006
100
AcDbArc
 50
303.177368
 51
396.999039
  0
ARC
  5
28F
100
AcDbEntity
  8
M1
  6
CONTINUOUS
370
25
 62
     7
100
AcDbCircle
 10
1353.035329
 20
603.233771
 40
1.999999
100
AcDbArc
 50
216.998322
 51
310.825272
  0
ARC
  5
290
100
AcDbEntity
  8
M1
  6
CONTINUOUS
370
25
 62
     7
100
AcDbCircle
 10
1360.48293
 20
610.639289
 40
1.999977
100
AcDbArc
 50
318.851532
 51
419.999191
  0
ARC
  5
291
100
AcDbEntity
  8
M1
  6
CONTINUOUS
370
25
 62
     7
100
AcDbCircle
 10
1304.006322
 20
659.989081
 40
77.0
100
AcDbArc
 50
296.822632
 51
303.177469
  0
ARC
  5
292
100
AcDbEntity
  8
M1
  6
CONTINUOUS
370
25
 62
     7
100
AcDbCircle
 10
1304.006322
 20
659.989081
 40
76.999977
100
AcDbArc
 50
310.82254
 51
318.852592
  0
ARC
  5
293
100
AcDbEntity
  8
M1
  6
CONTINUOUS
370
25
 62
     7
100
AcDbCircle
 10
1304.006322
 20
659.989081
 40
76.999947
100
AcDbArc
 50
281.147339
 51
289.177446
  0
ARC
  5
294
100
AcDbEntity
  8
M1
  6
CONTINUOUS
370
25
 62
     7
100
AcDbCircle
 10
1364.717931
 20
645.144568
 40
4.999995
100
AcDbArc
 50
166.259506
 51
239.999718
  0
ARC
  5
295
100
AcDbEntity
  8
M1
  6
CONTINUOUS
370
25
 62
     7
100
AcDbCircle
 10
1364.717931
 20
674.833686
 40
4.999958
100
AcDbArc
 50
120.000282
 51
193.740494
  0
ARC
  5
296
100
AcDbEntity
  8
M1
  6
CONTINUOUS
370
25
 62
     7
100
AcDbCircle
 10
1362.244725
 20
672.177466
 40
2.000009
100
AcDbArc
 50
191.820618
 51
277.001503
  0
ARC
  5
297
100
AcDbEntity
  8
M1
  6
CONTINUOUS
370
25
 62
     7
100
AcDbCircle
 10
1363.463429
 20
662.25199
 40
1.999993
100
AcDbArc
 50
97.001938
 51
182.180893
  0
ARC
  5
298
100
AcDbEntity
  8
M1
  6
CONTINUOUS
370
25
 62
     7
100
AcDbCircle
 10
1363.463429
 20
657.726264
 40
2.000034
100
AcDbArc
 50
166.467026
 51
262.998055
  0
ARC
  5
299
100
AcDbEntity
  8
M1
  6
CONTINUOUS
370
25
 62
     7
100
AcDbCircle
 10
1362.244725
 20
647.800879
 40
2.000023
100
AcDbArc
 50
82.998169
 51
168.179375
  0
ARC
  5
29A
100
AcDbEntity
  8
M1
  6
CONTINUOUS
370
25
 62
     7
100
AcDbCircle
 10
1374.98293
 20
635.753974
 40
1.999951
100
AcDbArc
 50
239.999191
 51
341.148956
  0
ARC
  5
29B
100
AcDbEntity
  8
M1
  6
CONTINUOUS
370
25
 62
     7
100
AcDbCircle
 10
1377.67252
 20
645.906592
 40
2.000094
100
AcDbArc
 50
349.175781
 51
442.998055
  0
ARC
  5
29C
100
AcDbEntity
  8
M1
  6
CONTINUOUS
370
25
 62
     7
100
AcDbCircle
 10
1378.891133
 20
655.831977
 40
2.000023
100
AcDbArc
 50
262.998169
 51
356.824028
  0
ARC
  5
29D
100
AcDbEntity
  8
M1
  6
CONTINUOUS
370
25
 62
     7
100
AcDbCircle
 10
1378.891133
 20
664.146277
 40
2.000071
100
AcDbArc
 50
3.178594
 51
97.001828
  0
ARC
  5
29E
100
AcDbEntity
  8
M1
  6
CONTINUOUS
370
25
 62
     7
100
AcDbCircle
 10
1377.67252
 20
674.071784
 40
2.000023
100
AcDbArc
 50
277.001831
 51
370.82135
  0
ARC
  5
29F
100
AcDbEntity
  8
M1
  6
CONTINUOUS
370
25
 62
     7
100
AcDbCircle
 10
1374.98293
 20
684.22428
 40
1.999975
100
AcDbArc
 50
18.85104
 51
120.000805
  0
ARC
  5
2A0
100
AcDbEntity
  8
M1
  6
CONTINUOUS
370
25
 62
     7
100
AcDbCircle
 10
1304.006322
 20
659.989081
 40
76.999985
100
AcDbArc
 50
356.82254
 51
363.177453
  0
ARC
  5
2A1
100
AcDbEntity
  8
M1
  6
CONTINUOUS
370
25
 62
     7
100
AcDbCircle
 10
1304.006322
 20
659.989081
 40
77.000084
100
AcDbArc
 50
10.822585
 51
18.852599
  0
ARC
  5
2A2
100
AcDbEntity
  8
M1
  6
CONTINUOUS
370
25
 62
     7
100
AcDbCircle
 10
1304.006322
 20
659.989081
 40
77.000031
100
AcDbArc
 50
341.147369
 51
349.177394
  0
CIRCLE
  5
2A3
100
AcDbEntity
  8
M1
  6
CONTINUOUS
370
25
 62
     7
100
AcDbCircle
 10
1304.006322
 20
659.989081
 40
35.0
  0
ARC
  5
2A4
100
AcDbEntity
  8
M1
  6
CONTINUOUS
370
25
 62
     7
100
AcDbCircle
 10
1304.006322
 20
659.989081
 40
27.500093
100
AcDbArc
 50
105.826561
 51
434.173424
  0
CIRCLE
  5
2A5
100
AcDbEntity
  8
M1
  6
CONTINUOUS
370
25
 62
     7
100
AcDbCircle
 10
1304.006322
 20
659.989081
 40
117.000008
  0
ARC
  5
2A6
100
AcDbEntity
  8
M1
  6
CONTINUOUS
370
25
 62
     7
100
AcDbCircle
 10
892.615694
 20
842.320594
 40
11.199524
100
AcDbArc
 50
120.001625
 51
180.000004
  0
ARC
  5
2A7
100
AcDbEntity
  8
M1
  6
CONTINUOUS
370
25
 62
     7
100
AcDbCircle
 10
867.414705
 20
842.320594
 40
14.0006
100
AcDbArc
 50
25.838058
 51
59.999088
  0
ARC
  5
2A8
100
AcDbEntity
  8
M1
  6
CONTINUOUS
370
25
 62
     7
100
AcDbCircle
 10
892.615694
 20
842.320594
 40
13.999606
100
AcDbArc
 50
120.000931
 51
180.0
  0
ARC
  5
2A9
100
AcDbEntity
  8
M1
  6
CONTINUOUS
370
25
 62
     7
100
AcDbCircle
 10
883.365694
 20
817.309485
 40
1.980042
100
AcDbArc
 50
180.0
 51
270.0
  0
ARC
  5
2AA
100
AcDbEntity
  8
M1
  6
CONTINUOUS
370
25
 62
     7
100
AcDbCircle
 10
867.414705
 20
842.320594
 40
11.200989
100
AcDbArc
 50
0.0
 51
59.993919
  0
ARC
  5
2AB
100
AcDbEntity
  8
M1
  6
CONTINUOUS
370
25
 62
     7
100
AcDbCircle
 10
882.441561
 20
816.385596
 40
3.828003
100
AcDbArc
 50
180.0
 51
270.0
  0
ARC
  5
2AC
100
AcDbEntity
  8
M1
  6
CONTINUOUS
370
25
 62
     7
100
AcDbCircle
 10
619.601596
 20
845.046607
 40
13.999712
100
AcDbArc
 50
329.999329
 51
390.000687
  0
ARC
  5
2AD
100
AcDbEntity
  8
M1
  6
CONTINUOUS
370
25
 62
     7
100
AcDbCircle
 10
643.85062
 20
831.046607
 40
14.0
100
AcDbArc
 50
90.0
 51
150.002399
  0
ARC
  5
2AE
100
AcDbEntity
  8
M1
  6
CONTINUOUS
370
25
 62
     7
100
AcDbCircle
 10
619.601596
 20
845.046607
 40
11.199576
100
AcDbArc
 50
329.998535
 51
390.001198
  0
ARC
  5
2AF
100
AcDbEntity
  8
M1
  6
CONTINUOUS
370
25
 62
     7
100
AcDbCircle
 10
643.85062
 20
831.046607
 40
11.199951
100
AcDbArc
 50
90.0
 51
150.002113
  0
ARC
  5
2B0
100
AcDbEntity
  8
M1
  6
CONTINUOUS
370
25
 62
     7
100
AcDbCircle
 10
605.894565
 20
796.105689
 40
1.399432
100
AcDbArc
 50
149.997543
 51
329.997879
  0
ARC
  5
2B1
100
AcDbEntity
  8
M1
  6
CONTINUOUS
370
25
 62
     7
100
AcDbCircle
 10
608.319614
 20
794.705665
 40
1.400597
100
AcDbArc
 50
150.004883
 51
330.004883
  0
ARC
  5
2B2
100
AcDbEntity
  8
M1
  6
CONTINUOUS
370
25
 62
     7
100
AcDbCircle
 10
1213.328541
 20
845.046607
 40
13.999712
100
AcDbArc
 50
149.999313
 51
210.000671
  0
ARC
  5
2B3
100
AcDbEntity
  8
M1
  6
CONTINUOUS
370
25
 62
     7
100
AcDbCircle
 10
1189.079518
 20
831.046607
 40
13.999983
100
AcDbArc
 50
29.998598
 51
89.995878
  0
ARC
  5
2B4
100
AcDbEntity
  8
M1
  6
CONTINUOUS
370
25
 62
     7
100
AcDbCircle
 10
1213.328541
 20
845.046607
 40
11.199573
100
AcDbArc
 50
149.998886
 51
210.001392
  0
ARC
  5
2B5
100
AcDbEntity
  8
M1
  6
CONTINUOUS
370
25
 62
     7
100
AcDbCircle
 10
1189.079518
 20
831.046607
 40
11.200009
100
AcDbArc
 50
29.998745
 51
90.0
  0
CIRCLE
  5
2B6
100
AcDbEntity
  8
M1
  6
CONTINUOUS
370
25
 62
     7
100
AcDbCircle
 10
833.259676
 20
729.989081
 40
10.0
  0
CIRCLE
  5
2B7
100
AcDbEntity
  8
M1
  6
CONTINUOUS
370
25
 62
     7
100
AcDbCircle
 10
868.259676
 20
729.989081
 40
10.0
  0
ARC
  5
2B8
100
AcDbEntity
  8
M1
  6
CONTINUOUS
370
25
 62
     7
100
AcDbCircle
 10
528.923618
 20
659.989081
 40
94.999855
100
AcDbArc
 50
282.000244
 51
317.999401
  0
LINE
  5
2B9
100
AcDbEntity
  8
M1
  6
CONTINUOUS
370
25
 62
     7
100
AcDbLine
 10
1002.171175
 20
800.989173
 11
995.259554
 21
800.989173
  0
LINE
  5
2BA
100
AcDbEntity
  8
M1
  6
CONTINUOUS
370
25
 62
     7
100
AcDbLine
 10
995.259554
 20
788.989173
 11
1002.171175
 21
788.989173
  0
LINE
  5
2BB
100
AcDbEntity
  8
M1
  6
CONTINUOUS
370
25
 62
     7
100
AcDbLine
 10
864.259554
 20
788.989173
 11
857.348055
 21
788.989173
  0
LINE
  5
2BC
100
AcDbEntity
  8
M1
  6
CONTINUOUS
370
25
 62
     7
100
AcDbLine
 10
857.348055
 20
800.989173
 11
864.259554
 21
800.989173
  0
LINE
  5
2BD
100
AcDbEntity
  8
M1
  6
CONTINUOUS
370
25
 62
     7
100
AcDbLine
 10
989.589998
 20
706.489173
 11
984.759554
 21
706.489173
  0
LINE
  5
2BE
100
AcDbEntity
  8
M1
  6
CONTINUOUS
370
25
 62
     7
100
AcDbLine
 10
984.759554
 20
698.489173
 11
989.589998
 21
698.489173
  0
LINE
  5
2BF
100
AcDbEntity
  8
M1
  6
CONTINUOUS
370
25
 62
     7
100
AcDbLine
 10
857.348055
 20
518.989081
 11
864.259554
 21
518.989081
  0
LINE
  5
2C0
100
AcDbEntity
  8
M1
  6
CONTINUOUS
370
25
 62
     7
100
AcDbLine
 10
864.259554
 20
530.989081
 11
857.348055
 21
530.989081
  0
LINE
  5
2C1
100
AcDbEntity
  8
M1
  6
CONTINUOUS
370
25
 62
     7
100
AcDbLine
 10
995.259554
 20
530.989081
 11
1002.171175
 21
530.989081
  0
LINE
  5
2C2
100
AcDbEntity
  8
M1
  6
CONTINUOUS
370
25
 62
     7
100
AcDbLine
 10
1002.171175
 20
518.989081
 11
995.259554
 21
518.989081
  0
LINE
  5
2C3
100
AcDbEntity
  8
M1
  6
CONTINUOUS
370
25
 62
     7
100
AcDbLine
 10
520.923618
 20
790.370398
 11
528.923618
 21
785.751502
  0
LINE
  5
2C4
100
AcDbEntity
  8
M1
  6
CONTINUOUS
370
25
 62
     7
100
AcDbLine
 10
528.923618
 20
785.751502
 11
536.923618
 21
790.370398
  0
LINE
  5
2C5
100
AcDbEntity
  8
M1
  6
CONTINUOUS
370
25
 62
     7
100
AcDbLine
 10
536.923618
 20
790.370398
 11
536.923618
 21
799.608008
  0
LINE
  5
2C6
100
AcDbEntity
  8
M1
  6
CONTINUOUS
370
25
 62
     7
100
AcDbLine
 10
536.923618
 20
799.608008
 11
528.923618
 21
804.226661
  0
LINE
  5
2C7
100
AcDbEntity
  8
M1
  6
CONTINUOUS
370
25
 62
     7
100
AcDbLine
 10
528.923618
 20
804.226661
 11
520.923618
 21
799.608008
  0
LINE
  5
2C8
100
AcDbEntity
  8
M1
  6
CONTINUOUS
370
25
 62
     7
100
AcDbLine
 10
520.923618
 20
799.608008
 11
520.923618
 21
790.370398
  0
LINE
  5
2C9
100
AcDbEntity
  8
M1
  6
CONTINUOUS
370
25
 62
     7
100
AcDbLine
 10
412.009677
 20
718.251563
 11
420.009677
 21
722.870368
  0
LINE
  5
2CA
100
AcDbEntity
  8
M1
  6
CONTINUOUS
370
25
 62
     7
100
AcDbLine
 10
420.009677
 20
722.870368
 11
420.009677
 21
732.107978
  0
LINE
  5
2CB
100
AcDbEntity
  8
M1
  6
CONTINUOUS
370
25
 62
     7
100
AcDbLine
 10
420.009677
 20
732.107978
 11
412.009677
 21
736.726783
  0
LINE
  5
2CC
100
AcDbEntity
  8
M1
  6
CONTINUOUS
370
25
 62
     7
100
AcDbLine
 10
412.009677
 20
736.726783
 11
404.009677
 21
732.107978
  0
LINE
  5
2CD
100
AcDbEntity
  8
M1
  6
CONTINUOUS
370
25
 62
     7
100
AcDbLine
 10
404.009677
 20
732.107978
 11
404.009677
 21
722.870368
  0
LINE
  5
2CE
100
AcDbEntity
  8
M1
  6
CONTINUOUS
370
25
 62
     7
100
AcDbLine
 10
404.009677
 20
722.870368
 11
412.009677
 21
718.251563
  0
LINE
  5
2CF
100
AcDbEntity
  8
M1
  6
CONTINUOUS
370
25
 62
     7
100
AcDbLine
 10
420.009677
 20
587.870368
 11
420.009677
 21
597.107978
  0
LINE
  5
2D0
100
AcDbEntity
  8
M1
  6
CONTINUOUS
370
25
 62
     7
100
AcDbLine
 10
420.009677
 20
597.107978
 11
412.009677
 21
601.726783
  0
LINE
  5
2D1
100
AcDbEntity
  8
M1
  6
CONTINUOUS
370
25
 62
     7
100
AcDbLine
 10
412.009677
 20
601.726783
 11
404.009677
 21
597.107978
  0
LINE
  5
2D2
100
AcDbEntity
  8
M1
  6
CONTINUOUS
370
25
 62
     7
100
AcDbLine
 10
404.009677
 20
597.107978
 11
404.009677
 21
587.870368
  0
LINE
  5
2D3
100
AcDbEntity
  8
M1
  6
CONTINUOUS
370
25
 62
     7
100
AcDbLine
 10
404.009677
 20
587.870368
 11
412.009677
 21
583.251563
  0
LINE
  5
2D4
100
AcDbEntity
  8
M1
  6
CONTINUOUS
370
25
 62
     7
100
AcDbLine
 10
412.009677
 20
583.251563
 11
420.009677
 21
587.870368
  0
LINE
  5
2D5
100
AcDbEntity
  8
M1
  6
CONTINUOUS
370
25
 62
     7
100
AcDbLine
 10
536.923618
 20
529.607978
 11
528.923618
 21
534.226783
  0
LINE
  5
2D6
100
AcDbEntity
  8
M1
  6
CONTINUOUS
370
25
 62
     7
100
AcDbLine
 10
528.923618
 20
534.226783
 11
520.923618
 21
529.607978
  0
LINE
  5
2D7
100
AcDbEntity
  8
M1
  6
CONTINUOUS
370
25
 62
     7
100
AcDbLine
 10
520.923618
 20
529.607978
 11
520.923618
 21
520.370368
  0
LINE
  5
2D8
100
AcDbEntity
  8
M1
  6
CONTINUOUS
370
25
 62
     7
100
AcDbLine
 10
520.923618
 20
520.370368
 11
528.923618
 21
515.751563
  0
LINE
  5
2D9
100
AcDbEntity
  8
M1
  6
CONTINUOUS
370
25
 62
     7
100
AcDbLine
 10
528.923618
 20
515.751563
 11
536.923618
 21
520.370368
  0
LINE
  5
2DA
100
AcDbEntity
  8
M1
  6
CONTINUOUS
370
25
 62
     7
100
AcDbLine
 10
536.923618
 20
520.370368
 11
536.923618
 21
529.607978
  0
LINE
  5
2DB
100
AcDbEntity
  8
M1
  6
CONTINUOUS
370
25
 62
     7
100
AcDbLine
 10
645.836582
 20
601.726783
 11
637.836582
 21
597.107978
  0
LINE
  5
2DC
100
AcDbEntity
  8
M1
  6
CONTINUOUS
370
25
 62
     7
100
AcDbLine
 10
637.836582
 20
597.107978
 11
637.836582
 21
587.870368
  0
LINE
  5
2DD
100
AcDbEntity
  8
M1
  6
CONTINUOUS
370
25
 62
     7
100
AcDbLine
 10
637.836582
 20
587.870368
 11
645.836582
 21
583.251563
  0
LINE
  5
2DE
100
AcDbEntity
  8
M1
  6
CONTINUOUS
370
25
 62
     7
100
AcDbLine
 10
645.836582
 20
583.251563
 11
653.836582
 21
587.870368
  0
LINE
  5
2DF
100
AcDbEntity
  8
M1
  6
CONTINUOUS
370
25
 62
     7
100
AcDbLine
 10
653.836582
 20
587.870368
 11
653.836582
 21
597.107978
  0
LINE
  5
2E0
100
AcDbEntity
  8
M1
  6
CONTINUOUS
370
25
 62
     7
100
AcDbLine
 10
653.836582
 20
597.107978
 11
645.836582
 21
601.726783
  0
LINE
  5
2E1
100
AcDbEntity
  8
M1
  6
CONTINUOUS
370
25
 62
     7
100
AcDbLine
 10
637.836582
 20
732.107978
 11
637.836582
 21
722.870368
  0
LINE
  5
2E2
100
AcDbEntity
  8
M1
  6
CONTINUOUS
370
25
 62
     7
100
AcDbLine
 10
637.836582
 20
722.870368
 11
645.836582
 21
718.251563
  0
LINE
  5
2E3
100
AcDbEntity
  8
M1
  6
CONTINUOUS
370
25
 62
     7
100
AcDbLine
 10
645.836582
 20
718.251563
 11
653.836582
 21
722.870368
  0
LINE
  5
2E4
100
AcDbEntity
  8
M1
  6
CONTINUOUS
370
25
 62
     7
100
AcDbLine
 10
653.836582
 20
722.870368
 11
653.836582
 21
732.107978
  0
LINE
  5
2E5
100
AcDbEntity
  8
M1
  6
CONTINUOUS
370
25
 62
     7
100
AcDbLine
 10
653.836582
 20
732.107978
 11
645.836582
 21
736.726783
  0
LINE
  5
2E6
100
AcDbEntity
  8
M1
  6
CONTINUOUS
370
25
 62
     7
100
AcDbLine
 10
645.836582
 20
736.726783
 11
637.836582
 21
732.107978
  0
LINE
  5
2E7
100
AcDbEntity
  8
M1
  6
CONTINUOUS
370
25
 62
     7
100
AcDbLine
 10
857.348055
 20
598.489081
 11
864.259554
 21
598.489081
  0
LINE
  5
2E8
100
AcDbEntity
  8
M1
  6
CONTINUOUS
370
25
 62
     7
100
AcDbLine
 10
864.259554
 20
586.489081
 11
857.348055
 21
586.489081
  0
LINE
  5
2E9
100
AcDbEntity
  8
M1
  6
CONTINUOUS
370
25
 62
     7
100
AcDbLine
 10
1002.171175
 20
582.096869
 11
1000.613252
 21
582.096869
  0
LINE
  5
2EA
100
AcDbEntity
  8
M1
  6
CONTINUOUS
370
25
 62
     7
100
AcDbLine
 10
1000.613252
 20
586.489081
 11
1002.171175
 21
586.489081
  0
LINE
  5
2EB
100
AcDbEntity
  8
M1
  6
CONTINUOUS
370
25
 62
     7
100
AcDbLine
 10
1002.171175
 20
598.489081
 11
1000.613252
 21
598.489081
  0
LINE
  5
2EC
100
AcDbEntity
  8
M1
  6
CONTINUOUS
370
25
 62
     7
100
AcDbLine
 10
1000.613252
 20
602.881476
 11
1002.171175
 21
602.881476
  0
LINE
  5
2ED
100
AcDbEntity
  8
M1
  6
CONTINUOUS
370
25
 62
     7
100
AcDbLine
 10
1296.006322
 20
790.370398
 11
1304.006322
 21
785.751502
  0
LINE
  5
2EE
100
AcDbEntity
  8
M1
  6
CONTINUOUS
370
25
 62
     7
100
AcDbLine
 10
1304.006322
 20
785.751502
 11
1312.006322
 21
790.370398
  0
LINE
  5
2EF
100
AcDbEntity
  8
M1
  6
CONTINUOUS
370
25
 62
     7
100
AcDbLine
 10
1312.006322
 20
790.370398
 11
1312.006322
 21
799.608008
  0
LINE
  5
2F0
100
AcDbEntity
  8
M1
  6
CONTINUOUS
370
25
 62
     7
100
AcDbLine
 10
1312.006322
 20
799.608008
 11
1304.006322
 21
804.226661
  0
LINE
  5
2F1
100
AcDbEntity
  8
M1
  6
CONTINUOUS
370
25
 62
     7
100
AcDbLine
 10
1304.006322
 20
804.226661
 11
1296.006322
 21
799.608008
  0
LINE
  5
2F2
100
AcDbEntity
  8
M1
  6
CONTINUOUS
370
25
 62
     7
100
AcDbLine
 10
1296.006322
 20
799.608008
 11
1296.006322
 21
790.370398
  0
LINE
  5
2F3
100
AcDbEntity
  8
M1
  6
CONTINUOUS
370
25
 62
     7
100
AcDbLine
 10
1297.50652
 20
698.736365
 11
1304.006322
 21
694.983588
  0
LINE
  5
2F4
100
AcDbEntity
  8
M1
  6
CONTINUOUS
370
25
 62
     7
100
AcDbLine
 10
1304.006322
 20
694.983588
 11
1310.50652
 21
698.736365
  0
LINE
  5
2F5
100
AcDbEntity
  8
M1
  6
CONTINUOUS
370
25
 62
     7
100
AcDbLine
 10
1310.50652
 20
698.736365
 11
1310.50652
 21
706.241889
  0
LINE
  5
2F6
100
AcDbEntity
  8
M1
  6
CONTINUOUS
370
25
 62
     7
100
AcDbLine
 10
1310.50652
 20
706.241889
 11
1304.006322
 21
709.994666
  0
LINE
  5
2F7
100
AcDbEntity
  8
M1
  6
CONTINUOUS
370
25
 62
     7
100
AcDbLine
 10
1304.006322
 20
709.994666
 11
1297.50652
 21
706.241889
  0
LINE
  5
2F8
100
AcDbEntity
  8
M1
  6
CONTINUOUS
370
25
 62
     7
100
AcDbLine
 10
1297.50652
 20
706.241889
 11
1297.50652
 21
698.736365
  0
LINE
  5
2F9
100
AcDbEntity
  8
M1
  6
CONTINUOUS
370
25
 62
     7
100
AcDbLine
 10
1267.200429
 20
673.733588
 11
1273.700337
 21
677.486365
  0
LINE
  5
2FA
100
AcDbEntity
  8
M1
  6
CONTINUOUS
370
25
 62
     7
100
AcDbLine
 10
1273.700337
 20
677.486365
 11
1273.700337
 21
684.991889
  0
LINE
  5
2FB
100
AcDbEntity
  8
M1
  6
CONTINUOUS
370
25
 62
     7
100
AcDbLine
 10
1273.700337
 20
684.991889
 11
1267.200429
 21
688.744666
  0
LINE
  5
2FC
100
AcDbEntity
  8
M1
  6
CONTINUOUS
370
25
 62
     7
100
AcDbLine
 10
1267.200429
 20
688.744666
 11
1260.700337
 21
684.991889
  0
LINE
  5
2FD
100
AcDbEntity
  8
M1
  6
CONTINUOUS
370
25
 62
     7
100
AcDbLine
 10
1260.700337
 20
684.991889
 11
1260.700337
 21
677.486365
  0
LINE
  5
2FE
100
AcDbEntity
  8
M1
  6
CONTINUOUS
370
25
 62
     7
100
AcDbLine
 10
1260.700337
 20
677.486365
 11
1267.200429
 21
673.733588
  0
LINE
  5
2FF
100
AcDbEntity
  8
M1
  6
CONTINUOUS
370
25
 62
     7
100
AcDbLine
 10
1187.093037
 20
718.251563
 11
1195.093037
 21
722.870368
  0
LINE
  5
300
100
AcDbEntity
  8
M1
  6
CONTINUOUS
370
25
 62
     7
100
AcDbLine
 10
1195.093037
 20
722.870368
 11
1195.093037
 21
732.107978
  0
LINE
  5
301
100
AcDbEntity
  8
M1
  6
CONTINUOUS
370
25
 62
     7
100
AcDbLine
 10
1195.093037
 20
732.107978
 11
1187.093037
 21
736.726783
  0
LINE
  5
302
100
AcDbEntity
  8
M1
  6
CONTINUOUS
370
25
 62
     7
100
AcDbLine
 10
1187.093037
 20
736.726783
 11
1179.093037
 21
732.107978
  0
LINE
  5
303
100
AcDbEntity
  8
M1
  6
CONTINUOUS
370
25
 62
     7
100
AcDbLine
 10
1179.093037
 20
732.107978
 11
1179.093037
 21
722.870368
  0
LINE
  5
304
100
AcDbEntity
  8
M1
  6
CONTINUOUS
370
25
 62
     7
100
AcDbLine
 10
1179.093037
 20
722.870368
 11
1187.093037
 21
718.251563
  0
LINE
  5
305
100
AcDbEntity
  8
M1
  6
CONTINUOUS
370
25
 62
     7
100
AcDbLine
 10
1273.700337
 20
634.986365
 11
1273.700337
 21
642.491889
  0
LINE
  5
306
100
AcDbEntity
  8
M1
  6
CONTINUOUS
370
25
 62
     7
100
AcDbLine
 10
1273.700337
 20
642.491889
 11
1267.200429
 21
646.244666
  0
LINE
  5
307
100
AcDbEntity
  8
M1
  6
CONTINUOUS
370
25
 62
     7
100
AcDbLine
 10
1267.200429
 20
646.244666
 11
1260.700337
 21
642.491889
  0
LINE
  5
308
100
AcDbEntity
  8
M1
  6
CONTINUOUS
370
25
 62
     7
100
AcDbLine
 10
1260.700337
 20
642.491889
 11
1260.700337
 21
634.986365
  0
LINE
  5
309
100
AcDbEntity
  8
M1
  6
CONTINUOUS
370
25
 62
     7
100
AcDbLine
 10
1260.700337
 20
634.986365
 11
1267.200429
 21
631.233588
  0
LINE
  5
30A
100
AcDbEntity
  8
M1
  6
CONTINUOUS
370
25
 62
     7
100
AcDbLine
 10
1267.200429
 20
631.233588
 11
1273.700337
 21
634.986365
  0
LINE
  5
30B
100
AcDbEntity
  8
M1
  6
CONTINUOUS
370
25
 62
     7
100
AcDbLine
 10
1195.093037
 20
587.870368
 11
1195.093037
 21
597.107978
  0
LINE
  5
30C
100
AcDbEntity
  8
M1
  6
CONTINUOUS
370
25
 62
     7
100
AcDbLine
 10
1195.093037
 20
597.107978
 11
1187.093037
 21
601.726783
  0
LINE
  5
30D
100
AcDbEntity
  8
M1
  6
CONTINUOUS
370
25
 62
     7
100
AcDbLine
 10
1187.093037
 20
601.726783
 11
1179.093037
 21
597.107978
  0
LINE
  5
30E
100
AcDbEntity
  8
M1
  6
CONTINUOUS
370
25
 62
     7
100
AcDbLine
 10
1179.093037
 20
597.107978
 11
1179.093037
 21
587.870368
  0
LINE
  5
30F
100
AcDbEntity
  8
M1
  6
CONTINUOUS
370
25
 62
     7
100
AcDbLine
 10
1179.093037
 20
587.870368
 11
1187.093037
 21
583.251563
  0
LINE
  5
310
100
AcDbEntity
  8
M1
  6
CONTINUOUS
370
25
 62
     7
100
AcDbLine
 10
1187.093037
 20
583.251563
 11
1195.093037
 21
587.870368
  0
LINE
  5
311
100
AcDbEntity
  8
M1
  6
CONTINUOUS
370
25
 62
     7
100
AcDbLine
 10
1310.50652
 20
621.241889
 11
1304.006322
 21
624.994666
  0
LINE
  5
312
100
AcDbEntity
  8
M1
  6
CONTINUOUS
370
25
 62
     7
100
AcDbLine
 10
1304.006322
 20
624.994666
 11
1297.50652
 21
621.241889
  0
LINE
  5
313
100
AcDbEntity
  8
M1
  6
CONTINUOUS
370
25
 62
     7
100
AcDbLine
 10
1297.50652
 20
621.241889
 11
1297.50652
 21
613.736365
  0
LINE
  5
314
100
AcDbEntity
  8
M1
  6
CONTINUOUS
370
25
 62
     7
100
AcDbLine
 10
1297.50652
 20
613.736365
 11
1304.006322
 21
609.983588
  0
LINE
  5
315
100
AcDbEntity
  8
M1
  6
CONTINUOUS
370
25
 62
     7
100
AcDbLine
 10
1304.006322
 20
609.983588
 11
1310.50652
 21
613.736365
  0
LINE
  5
316
100
AcDbEntity
  8
M1
  6
CONTINUOUS
370
25
 62
     7
100
AcDbLine
 10
1310.50652
 20
613.736365
 11
1310.50652
 21
621.241889
  0
LINE
  5
317
100
AcDbEntity
  8
M1
  6
CONTINUOUS
370
25
 62
     7
100
AcDbLine
 10
1312.006322
 20
529.607978
 11
1304.006322
 21
534.226783
  0
LINE
  5
318
100
AcDbEntity
  8
M1
  6
CONTINUOUS
370
25
 62
     7
100
AcDbLine
 10
1304.006322
 20
534.226783
 11
1296.006322
 21
529.607978
  0
LINE
  5
319
100
AcDbEntity
  8
M1
  6
CONTINUOUS
370
25
 62
     7
100
AcDbLine
 10
1296.006322
 20
529.607978
 11
1296.006322
 21
520.370368
  0
LINE
  5
31A
100
AcDbEntity
  8
M1
  6
CONTINUOUS
370
25
 62
     7
100
AcDbLine
 10
1296.006322
 20
520.370368
 11
1304.006322
 21
515.751563
  0
LINE
  5
31B
100
AcDbEntity
  8
M1
  6
CONTINUOUS
370
25
 62
     7
100
AcDbLine
 10
1304.006322
 20
515.751563
 11
1312.006322
 21
520.370368
  0
LINE
  5
31C
100
AcDbEntity
  8
M1
  6
CONTINUOUS
370
25
 62
     7
100
AcDbLine
 10
1312.006322
 20
520.370368
 11
1312.006322
 21
529.607978
  0
LINE
  5
31D
100
AcDbEntity
  8
M1
  6
CONTINUOUS
370
25
 62
     7
100
AcDbLine
 10
1340.81252
 20
646.244666
 11
1334.31252
 21
642.491889
  0
LINE
  5
31E
100
AcDbEntity
  8
M1
  6
CONTINUOUS
370
25
 62
     7
100
AcDbLine
 10
1334.31252
 20
642.491889
 11
1334.31252
 21
634.986365
  0
LINE
  5
31F
100
AcDbEntity
  8
M1
  6
CONTINUOUS
370
25
 62
     7
100
AcDbLine
 10
1334.31252
 20
634.986365
 11
1340.81252
 21
631.233588
  0
LINE
  5
320
100
AcDbEntity
  8
M1
  6
CONTINUOUS
370
25
 62
     7
100
AcDbLine
 10
1340.81252
 20
631.233588
 11
1347.31252
 21
634.986365
  0
LINE
  5
321
100
AcDbEntity
  8
M1
  6
CONTINUOUS
370
25
 62
     7
100
AcDbLine
 10
1347.31252
 20
634.986365
 11
1347.31252
 21
642.491889
  0
LINE
  5
322
100
AcDbEntity
  8
M1
  6
CONTINUOUS
370
25
 62
     7
100
AcDbLine
 10
1347.31252
 20
642.491889
 11
1340.81252
 21
646.244666
  0
LINE
  5
323
100
AcDbEntity
  8
M1
  6
CONTINUOUS
370
25
 62
     7
100
AcDbLine
 10
1420.919827
 20
601.726783
 11
1412.919827
 21
597.107978
  0
LINE
  5
324
100
AcDbEntity
  8
M1
  6
CONTINUOUS
370
25
 62
     7
100
AcDbLine
 10
1412.919827
 20
597.107978
 11
1412.919827
 21
587.870368
  0
LINE
  5
325
100
AcDbEntity
  8
M1
  6
CONTINUOUS
370
25
 62
     7
100
AcDbLine
 10
1412.919827
 20
587.870368
 11
1420.919827
 21
583.251563
  0
LINE
  5
326
100
AcDbEntity
  8
M1
  6
CONTINUOUS
370
25
 62
     7
100
AcDbLine
 10
1420.919827
 20
583.251563
 11
1428.919827
 21
587.870368
  0
LINE
  5
327
100
AcDbEntity
  8
M1
  6
CONTINUOUS
370
25
 62
     7
100
AcDbLine
 10
1428.919827
 20
587.870368
 11
1428.919827
 21
597.107978
  0
LINE
  5
328
100
AcDbEntity
  8
M1
  6
CONTINUOUS
370
25
 62
     7
100
AcDbLine
 10
1428.919827
 20
597.107978
 11
1420.919827
 21
601.726783
  0
LINE
  5
329
100
AcDbEntity
  8
M1
  6
CONTINUOUS
370
25
 62
     7
100
AcDbLine
 10
1334.31252
 20
684.991889
 11
1334.31252
 21
677.486365
  0
LINE
  5
32A
100
AcDbEntity
  8
M1
  6
CONTINUOUS
370
25
 62
     7
100
AcDbLine
 10
1334.31252
 20
677.486365
 11
1340.81252
 21
673.733588
  0
LINE
  5
32B
100
AcDbEntity
  8
M1
  6
CONTINUOUS
370
25
 62
     7
100
AcDbLine
 10
1340.81252
 20
673.733588
 11
1347.31252
 21
677.486365
  0
LINE
  5
32C
100
AcDbEntity
  8
M1
  6
CONTINUOUS
370
25
 62
     7
100
AcDbLine
 10
1347.31252
 20
677.486365
 11
1347.31252
 21
684.991889
  0
LINE
  5
32D
100
AcDbEntity
  8
M1
  6
CONTINUOUS
370
25
 62
     7
100
AcDbLine
 10
1347.31252
 20
684.991889
 11
1340.81252
 21
688.744666
  0
LINE
  5
32E
100
AcDbEntity
  8
M1
  6
CONTINUOUS
370
25
 62
     7
100
AcDbLine
 10
1340.81252
 20
688.744666
 11
1334.31252
 21
684.991889
  0
LINE
  5
32F
100
AcDbEntity
  8
M1
  6
CONTINUOUS
370
25
 62
     7
100
AcDbLine
 10
1412.919827
 20
732.107978
 11
1412.919827
 21
722.870368
  0
LINE
  5
330
100
AcDbEntity
  8
M1
  6
CONTINUOUS
370
25
 62
     7
100
AcDbLine
 10
1412.919827
 20
722.870368
 11
1420.919827
 21
718.251563
  0
LINE
  5
331
100
AcDbEntity
  8
M1
  6
CONTINUOUS
370
25
 62
     7
100
AcDbLine
 10
1420.919827
 20
718.251563
 11
1428.919827
 21
722.870368
  0
LINE
  5
332
100
AcDbEntity
  8
M1
  6
CONTINUOUS
370
25
 62
     7
100
AcDbLine
 10
1428.919827
 20
722.870368
 11
1428.919827
 21
732.107978
  0
LINE
  5
333
100
AcDbEntity
  8
M1
  6
CONTINUOUS
370
25
 62
     7
100
AcDbLine
 10
1428.919827
 20
732.107978
 11
1420.919827
 21
736.726783
  0
LINE
  5
334
100
AcDbEntity
  8
M1
  6
CONTINUOUS
370
25
 62
     7
100
AcDbLine
 10
1420.919827
 20
736.726783
 11
1412.919827
 21
732.107978
  0
TEXT
  5
335
100
AcDbEntity
  8
M1
100
AcDbText
 10
1280.047987
 20
328.669402
 40
12.5
  1
ＰＨＢ－２０
 41
0.833333
  7
STANDARD
100
AcDbText
  0
TEXT
  5
336
100
AcDbEntity
  8
M1
100
AcDbText
 10
497.530165
 20
380.363082
 40
12.5
  1
Ｄ１
 41
0.833333
  7
STANDARD
100
AcDbText
  0
TEXT
  5
337
100
AcDbEntity
  8
M1
100
AcDbText
 10
905.626417
 20
386.131087
 40
12.5
  1
Ｄ２
 41
0.833333
  7
STANDARD
100
AcDbText
  0
TEXT
  5
338
100
AcDbEntity
  8
M1
100
AcDbText
 10
1301.012892
 20
391.898078
 40
12.5
  1
Ｄ３
 41
0.833333
  7
STANDARD
100
AcDbText
  0
TEXT
  5
339
100
AcDbEntity
  8
M1
100
AcDbText
 10
1253.62599
 20
309.792952
 40
12.5
  1
（ＳＤＫ６３４６）
 41
0.833333
  7
STANDARD
100
AcDbText
  0
ENDSEC
  0
SECTION
  2
OBJECTS
  0
DICTIONARY
  5
C
100
AcDbDictionary
  3
ACAD_GROUP
350
D
  3
ACAD_MLINESTYLE
350
E
  0
DICTIONARY
  5
D
102
{ACAD_REACTORS
330
C
102
}
100
AcDbDictionary
  0
DICTIONARY
  5
E
102
{ACAD_REACTORS
330
C
102
}
100
AcDbDictionary
  3
STANDARD
350
13
  0
MLINESTYLE
  5
13
102
{ACAD_REACTORS
330
E
102
}
100
AcDbMlineStyle
  2
STANDARD
 70
     0
  3

 62
     0
 51
90.0
 52
90.0
 71
     2
 49
0.5
 62
   256
  6
BYLAYER
 49
-0.5
 62
   256
  6
BYLAYER
  0
ENDSEC
  0
EOF
