  0
SECTION
  2
HEADER
  9
$ACADVER
  1
AC1015
  9
$INSBASE
 10
0.0
 20
0.0
  9
$VIEWCTR
 10
7.531722
 20
4.5
  9
$VIEWSIZE
 40
9.0
  9
$SNAPMODE
 70
     0
  9
$SNAPUNIT
 10
1.0
 20
1.0
  9
$SNAPBASE
 10
0.0
 20
0.0
  9
$SNAPANG
 50
0.0
  9
$SNAPSTYLE
 70
     0
  9
$SNAPISOPAIR
 70
     0
  9
$GRIDMODE
 70
     0
  9
$GRIDUNIT
 10
0.0
 20
0.0
  9
$ORTHOMODE
 70
     0
  9
$REGENMODE
 70
     1
  9
$FILLMODE
 70
     1
  9
$QTEXTMODE
 70
     0
  9
$DRAGMODE
 70
     2
  9
$LTSCALE
 40
1.0
  9
$OSMODE
 70
     0
  9
$ATTMODE
 70
     1
  9
$TEXTSIZE
 40
0.2
  9
$TRACEWID
 40
0.05
  9
$TEXTSTYLE
  7
STANDARD
  9
$CELTYPE
  6
BYLAYER
  9
$CECOLOR
 62
   256
  9
$DIMSCALE
 40
1.0
  9
$DIMASZ
 40
0.18
  9
$DIMEXO
 40
0.0625
  9
$DIMDLI
 40
0.38
  9
$DIMRND
 40
0.0
  9
$DIMDLE
 40
0.0
  9
$DIMEXE
 40
0.18
  9
$DIMTP
 40
0.0
  9
$DIMTM
 40
0.0
  9
$DIMTXT
 40
0.18
  9
$DIMCEN
 40
0.09
  9
$DIMTSZ
 40
0.0
  9
$DIMADEC
 70
     0
  9
$DIMALTRND
 40
0.000000
  9
$DIMAZIN
 70
     0
  9
$DIMDSEP
 70
    46
  9
$DIMATFIT
 70
     3
  9
$DIMFRAC
 70
     0
  9
$DIMLDRBLK
  1

  9
$DIMLUNIT
 70
     2
  9
$DIMLWD
 70
   13
  9
$DIMLWE
 70
   13
  9
$DIMTMOVE
 70
     0
  9
$CELWEIGHT
370
    25
  9
$LWDISPLAY
290
    1
  9
$EXTNAMES
290
    1
  9
$DIMTOL
 70
     0
  9
$DIMLIM
 70
     0
  9
$DIMTIH
 70
     1
  9
$DIMTOH
 70
     1
  9
$DIMSE1
 70
     0
  9
$DIMSE2
 70
     0
  9
$DIMTAD
 70
     0
  9
$DIMZIN
 70
     0
  9
$DIMBLK
  1

  9
$LUNITS
 70
     2
  9
$LUPREC
 70
     4
  9
$AXISMODE
 70
     0
  9
$AXISUNIT
 10
0.0
 20
0.0
  9
$SKETCHINC
 40
0.1
  9
$FILLETRAD
 40
0.0
  9
$AUNITS
 70
     0
  9
$AUPREC
 70
     0
  9
$MENU
  1
ACAD
  9
$ELEVATION
 40
0.0
  9
$THICKNESS
 40
0.0
  9
$VIEWDIR
 10
0.0
 20
0.0
 30
1.0
  9
$LIMCHECK
 70
     0
  9
$BLIPMODE
 70
     1
  9
$CHAMFERA
 40
0.0
  9
$CHAMFERB
 40
0.0
  9
$FASTZOOM
 70
     1
  9
$SKPOLY
 70
     0
  9
$TDCREATE
 40
0000000.0000000000
  9
$TDUPDATE
 40
0000000.0000000000
  9
$TDINDWG
 40
0.0000000000
  9
$TDUSRTIMER
 40
0.0000000000
  9
$USRTIMER
 70
     1
  9
$ANGBASE
 50
0.0
  9
$ANGDIR
 70
     0
  9
$PDMODE
 70
     0
  9
$PDSIZE
 40
0.0
  9
$PLINEWID
 40
0.0
  9
$COORDS
 70
     0
  9
$USERI1
 70
     0
  9
$USERI2
 70
     0
  9
$USERI3
 70
     0
  9
$USERI4
 70
     0
  9
$USERI5
 70
     0
  9
$USERR1
 40
0.0
  9
$USERR2
 40
0.0
  9
$USERR3
 40
0.0
  9
$USERR4
 40
0.0
  9
$USERR5
 40
0.0
  9
$CLAYER
  8
M1
  9
$EXTMIN
 10
0.0
 20
0.0
  9
$EXTMAX
 10
841.0
 20
594.0
  9
$LIMMIN
 10
0.0
 20
0.0
  9
$LIMMAX
 10
841.0
 20
594.0
  9
$HANDSEED
  5
213
  0
ENDSEC
  0
SECTION
  2
CLASSES
  0
ENDSEC
  0
SECTION
  2
TABLES
  0
TABLE
  2
VPORT
  5
8
100
AcDbSymbolTable
 70
     2
  0
VPORT
  5
14
100
AcDbSymbolTableRecord
100
AcDbViewportTableRecord
  2
*ACTIVE
 70
     0
 10
0.0
 20
0.0
 11
1.0
 21
1.0
 12
484.0
 22
297.0
 13
0.0
 23
0.0
 14
1.0
 24
1.0
 15
0.0
 25
0.0
 16
0.0
 26
0.0
 36
1.0
 17
0.0
 27
0.0
 37
0.0
 40
594.0
 41
2.0
 42
50.0
 43
0.0
 44
0.0
 50
0.0
 51
0.0
 71
     0
 72
   100
 73
     1
 74
     1
 75
     0
 76
     0
 77
     0
 78
     0
  0
ENDTAB
  0
TABLE
  2
LTYPE
  5
5
100
AcDbSymbolTable
 70
     5
  0
LTYPE
  5
15
100
AcDbSymbolTableRecord
100
AcDbLinetypeTableRecord
  2
BYBLOCK
 70
     0
  3

 72
    65
 73
     0
 40
0.0
  0
LTYPE
  5
16
100
AcDbSymbolTableRecord
100
AcDbLinetypeTableRecord
  2
BYLAYER
 70
     0
  3

 72
    65
 73
     0
 40
0.0
  0
LTYPE
  5
17
100
AcDbSymbolTableRecord
100
AcDbLinetypeTableRecord
  2
CONTINUOUS
 70
    64
  3
Solid line
 72
    65
 73
     0
 40
0.0
  0
LTYPE
  5
18
100
AcDbSymbolTableRecord
100
AcDbLinetypeTableRecord
  2
DASHED
 70
    64
  3
__ __ __ __ __ __ __ __ __ __ __ __ __ __ __ __
 72
    65
 73
     2
 40
0.75
 49
0.5
 74
     0
 49
-0.25
 74
     0
  0
LTYPE
  5
19
100
AcDbSymbolTableRecord
100
AcDbLinetypeTableRecord
  2
DASHDOT
 70
    64
  3
__ . __ . __ . __ . __ . __ . __ . __ . __ . __
 72
    65
 73
     4
 40
1.0
 49
0.5
 74
     0
 49
-0.25
 74
     0
 49
0.0
 74
     0
 49
-0.25
 74
     0
  0
LTYPE
  5
1A
100
AcDbSymbolTableRecord
100
AcDbLinetypeTableRecord
  2
DIVIDE
 70
    64
  3
____ . . ____ . . ____ . . ____ . . ____ . . __
 72
    65
 73
     6
 40
1.25
 49
0.5
 74
     0
 49
-0.25
 74
     0
 49
0.0
 74
     0
 49
-0.25
 74
     0
 49
0.0
 74
     0
 49
-0.25
 74
     0
  0
LTYPE
  5
1B
100
AcDbSymbolTableRecord
100
AcDbLinetypeTableRecord
  2
DOT
 70
    64
  3
. . . . . . . . . . . . . . . . . . . . . . . .
 72
    65
 73
     2
 40
0.25
 49
0.0
 74
     0
 49
-0.25
 74
     0
  0
ENDTAB
  0
TABLE
  2
LAYER
  5
2
100
AcDbSymbolTable
 70
   102
  0
LAYER
  5
F
100
AcDbSymbolTableRecord
100
AcDbLayerTableRecord
  2
0
 70
     0
 62
     7
  6
CONTINUOUS
370
     -3
390
F
  0
LAYER
  5
1C
100
AcDbSymbolTableRecord
100
AcDbLayerTableRecord
  2
M1
 70
     0
 62
     3
  6
CONTINUOUS
370
     -3
390
F
  0
LAYER
  5
1D
100
AcDbSymbolTableRecord
100
AcDbLayerTableRecord
  2
M2
 70
     0
 62
     2
  6
CONTINUOUS
370
     -3
390
F
  0
ENDTAB
  0
TABLE
  2
STYLE
  5
3
100
AcDbSymbolTable
 70
     2
  0
STYLE
  5
10
100
AcDbSymbolTableRecord
100
AcDbTextStyleTableRecord
  2
STANDARD
 70
     0
 40
0.0
 41
1.0
 50
0.0
 71
     0
 42
0.2
  3
txt
  4
BIGFONT
  0
ENDTAB
  0
TABLE
  2
VIEW
  5
6
100
AcDbSymbolTable
 70
     0
  0
ENDTAB
  0
TABLE
  2
UCS
  5
7
100
AcDbSymbolTable
 70
     0
  0
ENDTAB
  0
TABLE
  2
APPID
  5
9
100
AcDbSymbolTable
 70
     1
  0
APPID
  5
11
100
AcDbSymbolTableRecord
100
AcDbRegAppTableRecord
  2
ACAD
 70
     0
  0
ENDTAB
  0
TABLE
  2
DIMSTYLE
  5
A
100
AcDbSymbolTable
 70
     2
100
AcDbDimStyleTable
 71
     1
  0
DIMSTYLE
105
24
100
AcDbSymbolTableRecord
100
AcDbDimStyleTableRecord
  2
STANDARD
 70
     0
  3

  4

  5

  6
_OPEN
  7
_OPEN
 40
1.0
 41
3.0
 42
0.5
 43
8.0
 44
1.5
 45
0.0
 46
0.0
 47
0.0
 48
0.0
140
3.15
141
0.09
142
0.0
143
0.03937
144
1.0
145
0.0
146
1.0
147
1.0
148
0.000000
 71
     0
 72
     0
 73
     0
 74
     0
 75
     0
 76
     0
 77
     3
 78
     8
170
     0
171
     2
172
     0
173
     1
174
     0
175
     0
176
     0
177
     0
178
     0
270
     2
271
     2
272
     4
273
     2
274
     2
340
10
275
     0
278
    46
280
     0
281
     0
282
     0
283
     1
284
     0
285
     0
286
     0
287
     3
288
     0
371
   13
372
   13
  0
DIMSTYLE
105
25
100
AcDbSymbolTableRecord
100
AcDbDimStyleTableRecord
  2
LEADSTYL
 70
     0
  3

  4

  5

  6
_OPEN
  7
_OPEN
 40
1.0
 41
3.0
 42
0.0625
 43
0.38
 44
0.18
 45
0.0
 46
0.0
 47
0.0
 48
0.0
140
3.15
141
0.09
142
0.0
143
25.4
144
1.0
145
0.0
146
1.0
147
1.0
 71
     0
 72
     0
 73
     1
 74
     1
 75
     0
 76
     0
 77
     0
 78
     0
170
     0
171
     2
172
     0
173
     1
174
     0
175
     0
176
     0
177
     0
178
     0
270
     2
271
     4
272
     4
273
     2
274
     2
340
10
275
     0
280
     0
281
     0
282
     0
283
     1
284
     0
285
     0
286
     0
287
     3
288
     0
  0
ENDTAB
  0
TABLE
  2
BLOCK_RECORD
  5
1
100
AcDbSymbolTable
 70
     6
  0
BLOCK_RECORD
  5
1E
100
AcDbSymbolTableRecord
100
AcDbBlockTableRecord
  2
*MODEL_SPACE
  0
BLOCK_RECORD
  5
21
100
AcDbSymbolTableRecord
100
AcDbBlockTableRecord
  2
*PAPER_SPACE
  0
BLOCK_RECORD
  5
26
100
AcDbSymbolTableRecord
100
AcDbBlockTableRecord
  2
_NONE
  0
BLOCK_RECORD
  5
2A
100
AcDbSymbolTableRecord
100
AcDbBlockTableRecord
  2
_OPEN
  0
BLOCK_RECORD
  5
30
100
AcDbSymbolTableRecord
100
AcDbBlockTableRecord
  2
_CLOSED
  0
BLOCK_RECORD
  5
37
100
AcDbSymbolTableRecord
100
AcDbBlockTableRecord
  2
_ORIGIN
  0
BLOCK_RECORD
  5
3C
100
AcDbSymbolTableRecord
100
AcDbBlockTableRecord
  2
_DOT
  0
BLOCK_RECORD
  5
44
100
AcDbSymbolTableRecord
100
AcDbBlockTableRecord
  2
_OBLIQUE
  0
ENDTAB
  0
ENDSEC
  0
SECTION
  2
BLOCKS
  0
BLOCK
  5
1F
100
AcDbEntity
  8
0
100
AcDbBlockBegin
  2
*MODEL_SPACE
 70
     0
 10
0.0
 20
0.0
 30
0.0
  3
*MODEL_SPACE
  1

  0
ENDBLK
  5
20
100
AcDbEntity
  8
0
100
AcDbBlockEnd
  0
BLOCK
  5
22
100
AcDbEntity
 67
     1
  8
0
100
AcDbBlockBegin
  2
*PAPER_SPACE
 70
     0
 10
0.0
 20
0.0
 30
0.0
  3
*PAPER_SPACE
  1

  0
ENDBLK
  5
23
100
AcDbEntity
 67
     1
  8
0
100
AcDbBlockEnd
  0
BLOCK
  5
27
100
AcDbEntity
  8
0
100
AcDbBlockBegin
  2
_NONE
 70
     0
 10
0.0
 20
0.0
  0
CIRCLE
  5
28
100
AcDbEntity
  8
0
 62
     0
370
13
100
AcDbCircle
 10
0.0
 20
0.0
 40
0.25
  0
ENDBLK
  5
29
100
AcDbEntity
  8
0
100
AcDbBlockEnd
  0
BLOCK
  5
2B
100
AcDbEntity
  8
0
100
AcDbBlockBegin
  2
_OPEN
 70
     0
 10
0.0
 20
0.0
  0
LINE
  5
2C
100
AcDbEntity
  8
0
 62
     0
370
13
100
AcDbLine
 10
-0.965926
 20
0.258819
 11
0.0
 21
0.0
  0
LINE
  5
2D
100
AcDbEntity
  8
0
 62
     0
370
13
100
AcDbLine
 10
0.0
 20
0.0
 11
-0.965926
 21
-0.258819
  0
LINE
  5
2E
100
AcDbEntity
  8
0
 62
     0
370
13
100
AcDbLine
 10
0.0
 20
0.0
 11
-1.0
 21
0.0
  0
ENDBLK
  5
2F
100
AcDbEntity
  8
0
100
AcDbBlockEnd
  0
BLOCK
  5
31
100
AcDbEntity
  8
0
100
AcDbBlockBegin
  2
_CLOSED
 70
     0
 10
0.0
 20
0.0
  0
LINE
  5
32
100
AcDbEntity
  8
0
 62
     0
370
13
100
AcDbLine
 10
-0.965926
 20
0.258819
 11
0.0
 21
0.0
  0
LINE
  5
33
100
AcDbEntity
  8
0
 62
     0
370
13
100
AcDbLine
 10
0.0
 20
0.0
 11
-0.965926
 21
-0.258819
  0
LINE
  5
34
100
AcDbEntity
  8
0
 62
     0
370
13
100
AcDbLine
 10
-0.965926
 20
0.258819
 11
-0.965926
 21
-0.258819
  0
LINE
  5
35
100
AcDbEntity
  8
0
 62
     0
370
13
100
AcDbLine
 10
0.0
 20
0.0
 11
-1.0
 21
0.0
  0
ENDBLK
  5
36
100
AcDbEntity
  8
0
100
AcDbBlockEnd
  0
BLOCK
  5
38
100
AcDbEntity
  8
0
100
AcDbBlockBegin
  2
_ORIGIN
 70
     0
 10
0.0
 20
0.0
  0
CIRCLE
  5
39
100
AcDbEntity
  8
0
 62
     0
370
13
100
AcDbCircle
 10
0.0
 20
0.0
 40
0.5
  0
LINE
  5
3A
100
AcDbEntity
  8
0
 62
     0
370
13
100
AcDbLine
 10
0.0
 20
0.0
 11
-1.0
 21
0.0
  0
ENDBLK
  5
3B
100
AcDbEntity
  8
0
100
AcDbBlockEnd
  0
BLOCK
  5
3D
100
AcDbEntity
  8
0
100
AcDbBlockBegin
  2
_DOT
 70
     0
 10
0.0
 20
0.0
  0
POLYLINE
  5
3E
100
AcDbEntity
  8
0
 62
     0
100
AcDb2dPolyline
 66
     1
 70
     1
 40
0.5
 41
0.5
  0
VERTEX
  5
3F
100
AcDbEntity
  8
0
 62
     0
100
AcDbVertex
100
AcDb2dVertex
 10
-0.25
 20
0.0
 42
1.0
  0
VERTEX
  5
40
100
AcDbEntity
  8
0
 62
     0
100
AcDbVertex
100
AcDb2dVertex
 10
0.25
 20
0.0
 42
1.0
  0
SEQEND
  5
41
100
AcDbEntity
  8
0
 62
     0
  0
LINE
  5
42
100
AcDbEntity
  8
0
 62
     0
370
13
100
AcDbLine
 10
-0.5
 20
0.0
 11
-1.0
 21
0.0
  0
ENDBLK
  5
43
100
AcDbEntity
  8
0
100
AcDbBlockEnd
  0
BLOCK
  5
45
100
AcDbEntity
  8
0
100
AcDbBlockBegin
  2
_OBLIQUE
 70
     0
 10
0.0
 20
0.0
  0
LINE
  5
46
100
AcDbEntity
  8
0
 62
     0
370
13
100
AcDbLine
 10
-0.353553
 20
-0.353553
 11
0.353553
 21
0.353553
  0
ENDBLK
  5
47
100
AcDbEntity
  8
0
100
AcDbBlockEnd
  0
ENDSEC
  0
SECTION
  2
ENTITIES
  0
LINE
  5
48
100
AcDbEntity
  8
M1
  6
CONTINUOUS
370
25
 62
     7
100
AcDbLine
 10
416.92186
 20
393.446983
 11
416.92186
 21
392.946983
  0
LINE
  5
49
100
AcDbEntity
  8
M1
  6
CONTINUOUS
370
25
 62
     7
100
AcDbLine
 10
422.87886
 20
393.446983
 11
422.87886
 21
392.946983
  0
LINE
  5
4A
100
AcDbEntity
  8
M1
  6
CONTINUOUS
370
25
 62
     7
100
AcDbLine
 10
403.399857
 20
359.947075
 11
407.399857
 21
362.446983
  0
LINE
  5
4B
100
AcDbEntity
  8
M1
  6
CONTINUOUS
370
25
 62
     7
100
AcDbLine
 10
403.399857
 20
362.446983
 11
407.399857
 21
359.946983
  0
LINE
  5
4C
100
AcDbEntity
  8
M1
  6
CONTINUOUS
370
25
 62
     7
100
AcDbLine
 10
432.399857
 20
359.946983
 11
436.399857
 21
362.446983
  0
LINE
  5
4D
100
AcDbEntity
  8
M1
  6
CONTINUOUS
370
25
 62
     7
100
AcDbLine
 10
432.399857
 20
362.446983
 11
436.399857
 21
359.946983
  0
LINE
  5
4E
100
AcDbEntity
  8
M1
  6
CONTINUOUS
370
25
 62
     7
100
AcDbLine
 10
449.399857
 20
359.946983
 11
459.399857
 21
359.946983
  0
LINE
  5
4F
100
AcDbEntity
  8
M1
  6
CONTINUOUS
370
25
 62
     7
100
AcDbLine
 10
460.399857
 20
359.446983
 11
460.399857
 21
369.946983
  0
LINE
  5
50
100
AcDbEntity
  8
M1
  6
CONTINUOUS
370
25
 62
     7
100
AcDbLine
 10
459.399857
 20
370.946983
 11
449.399857
 21
370.946983
  0
LINE
  5
51
100
AcDbEntity
  8
M1
  6
CONTINUOUS
370
25
 62
     7
100
AcDbLine
 10
448.399857
 20
369.946983
 11
448.399857
 21
360.946983
  0
LINE
  5
52
100
AcDbEntity
  8
M1
  6
CONTINUOUS
370
25
 62
     7
100
AcDbLine
 10
448.399857
 20
363.612983
 11
451.224854
 21
363.612983
  0
LINE
  5
53
100
AcDbEntity
  8
M1
  6
CONTINUOUS
370
25
 62
     7
100
AcDbLine
 10
460.399857
 20
367.279976
 11
457.575851
 21
367.279976
  0
LINE
  5
54
100
AcDbEntity
  8
M1
  6
CONTINUOUS
370
25
 62
     7
100
AcDbLine
 10
459.233856
 20
361.779976
 11
459.233856
 21
369.112983
  0
LINE
  5
55
100
AcDbEntity
  8
M1
  6
CONTINUOUS
370
25
 62
     7
100
AcDbLine
 10
449.566864
 20
369.112983
 11
449.566864
 21
361.779976
  0
LINE
  5
56
100
AcDbEntity
  8
M1
  6
CONTINUOUS
370
25
 62
     7
100
AcDbLine
 10
451.224854
 20
367.279976
 11
448.399857
 21
367.279976
  0
LINE
  5
57
100
AcDbEntity
  8
M1
  6
CONTINUOUS
370
25
 62
     7
100
AcDbLine
 10
457.575851
 20
363.612983
 11
460.399857
 21
363.612983
  0
LINE
  5
58
100
AcDbEntity
  8
M1
  6
CONTINUOUS
370
25
 62
     7
100
AcDbLine
 10
394.399857
 20
359.946983
 11
384.399857
 21
359.946983
  0
LINE
  5
59
100
AcDbEntity
  8
M1
  6
CONTINUOUS
370
25
 62
     7
100
AcDbLine
 10
383.399857
 20
359.446983
 11
383.399857
 21
369.946983
  0
LINE
  5
5A
100
AcDbEntity
  8
M1
  6
CONTINUOUS
370
25
 62
     7
100
AcDbLine
 10
384.399857
 20
370.946983
 11
394.399857
 21
370.946983
  0
LINE
  5
5B
100
AcDbEntity
  8
M1
  6
CONTINUOUS
370
25
 62
     7
100
AcDbLine
 10
395.399857
 20
369.946983
 11
395.399857
 21
360.946983
  0
LINE
  5
5C
100
AcDbEntity
  8
M1
  6
CONTINUOUS
370
25
 62
     7
100
AcDbLine
 10
395.399857
 20
363.612983
 11
392.575851
 21
363.613975
  0
LINE
  5
5D
100
AcDbEntity
  8
M1
  6
CONTINUOUS
370
25
 62
     7
100
AcDbLine
 10
383.399857
 20
367.279976
 11
386.224854
 21
367.279976
  0
LINE
  5
5E
100
AcDbEntity
  8
M1
  6
CONTINUOUS
370
25
 62
     7
100
AcDbLine
 10
384.566864
 20
361.779976
 11
384.566864
 21
369.113975
  0
LINE
  5
5F
100
AcDbEntity
  8
M1
  6
CONTINUOUS
370
25
 62
     7
100
AcDbLine
 10
394.233856
 20
369.112983
 11
394.233856
 21
361.779976
  0
LINE
  5
60
100
AcDbEntity
  8
M1
  6
CONTINUOUS
370
25
 62
     7
100
AcDbLine
 10
392.575851
 20
367.279976
 11
395.399857
 21
367.279976
  0
LINE
  5
61
100
AcDbEntity
  8
M1
  6
CONTINUOUS
370
25
 62
     7
100
AcDbLine
 10
386.224854
 20
363.613975
 11
383.399857
 21
363.613975
  0
LINE
  5
62
100
AcDbEntity
  8
M1
  6
CONTINUOUS
370
25
 62
     7
100
AcDbLine
 10
390.399857
 20
389.946983
 11
390.399857
 21
392.446983
  0
LINE
  5
63
100
AcDbEntity
  8
M1
  6
CONTINUOUS
370
25
 62
     7
100
AcDbLine
 10
405.399857
 20
405.946983
 11
409.399857
 21
405.946983
  0
LINE
  5
64
100
AcDbEntity
  8
M1
  6
CONTINUOUS
370
25
 62
     7
100
AcDbLine
 10
449.399857
 20
392.446983
 11
449.399857
 21
389.946983
  0
LINE
  5
65
100
AcDbEntity
  8
M1
  6
CONTINUOUS
370
25
 62
     7
100
AcDbLine
 10
405.399857
 20
392.946983
 11
405.399857
 21
405.946983
  0
LINE
  5
66
100
AcDbEntity
  8
M1
  6
CONTINUOUS
370
25
 62
     7
100
AcDbLine
 10
409.399857
 20
392.946983
 11
409.399857
 21
405.946983
  0
LINE
  5
67
100
AcDbEntity
  8
M1
  6
CONTINUOUS
370
25
 62
     7
100
AcDbLine
 10
448.899857
 20
392.946983
 11
409.399857
 21
392.946983
  0
LINE
  5
68
100
AcDbEntity
  8
M1
  6
CONTINUOUS
370
25
 62
     7
100
AcDbLine
 10
405.399857
 20
392.946983
 11
390.899857
 21
392.946983
  0
LINE
  5
69
100
AcDbEntity
  8
M1
  6
CONTINUOUS
370
25
 62
     7
100
AcDbLine
 10
448.899857
 20
392.946983
 11
449.399857
 21
392.446983
  0
LINE
  5
6A
100
AcDbEntity
  8
M1
  6
CONTINUOUS
370
25
 62
     7
100
AcDbLine
 10
390.399963
 20
392.446983
 11
390.899857
 21
392.946983
  0
LINE
  5
6B
100
AcDbEntity
  8
M1
  6
CONTINUOUS
370
25
 62
     7
100
AcDbLine
 10
448.899857
 20
306.946983
 11
409.399857
 21
306.946983
  0
LINE
  5
6C
100
AcDbEntity
  8
M1
  6
CONTINUOUS
370
25
 62
     7
100
AcDbLine
 10
409.399857
 20
349.946983
 11
409.399857
 21
293.946983
  0
LINE
  5
6D
100
AcDbEntity
  8
M1
  6
CONTINUOUS
370
25
 62
     7
100
AcDbLine
 10
405.399857
 20
349.946983
 11
405.399857
 21
293.946983
  0
LINE
  5
6E
100
AcDbEntity
  8
M1
  6
CONTINUOUS
370
25
 62
     7
100
AcDbLine
 10
405.399857
 20
293.946983
 11
409.399857
 21
293.946983
  0
LINE
  5
6F
100
AcDbEntity
  8
M1
  6
CONTINUOUS
370
25
 62
     7
100
AcDbLine
 10
390.399857
 20
307.446983
 11
390.899857
 21
306.946968
  0
LINE
  5
70
100
AcDbEntity
  8
M1
  6
CONTINUOUS
370
25
 62
     7
100
AcDbLine
 10
390.395859
 20
349.946983
 11
390.399857
 21
307.446983
  0
LINE
  5
71
100
AcDbEntity
  8
M1
  6
CONTINUOUS
370
25
 62
     7
100
AcDbLine
 10
449.399857
 20
307.446983
 11
449.399857
 21
349.946983
  0
LINE
  5
72
100
AcDbEntity
  8
M1
  6
CONTINUOUS
370
25
 62
     7
100
AcDbLine
 10
448.899857
 20
306.946968
 11
449.399857
 21
307.446968
  0
LINE
  5
73
100
AcDbEntity
  8
M1
  6
CONTINUOUS
370
25
 62
     7
100
AcDbLine
 10
405.399857
 20
306.946983
 11
390.899857
 21
306.946983
  0
LINE
  5
74
100
AcDbEntity
  8
M1
  6
CONTINUOUS
370
25
 62
     7
100
AcDbLine
 10
451.399857
 20
378.446983
 11
449.399857
 21
378.446983
  0
LINE
  5
75
100
AcDbEntity
  8
M1
  6
CONTINUOUS
370
25
 62
     7
100
AcDbLine
 10
461.54985
 20
364.446983
 11
460.399857
 21
364.446983
  0
LINE
  5
76
100
AcDbEntity
  8
M1
  6
CONTINUOUS
370
25
 62
     7
100
AcDbLine
 10
383.399857
 20
364.446983
 11
382.04985
 21
364.446983
  0
LINE
  5
77
100
AcDbEntity
  8
M1
  6
CONTINUOUS
370
25
 62
     7
100
AcDbLine
 10
461.649857
 20
335.446983
 11
460.399857
 21
335.446983
  0
LINE
  5
78
100
AcDbEntity
  8
M1
  6
CONTINUOUS
370
25
 62
     7
100
AcDbLine
 10
451.399857
 20
321.446983
 11
449.399857
 21
321.446983
  0
LINE
  5
79
100
AcDbEntity
  8
M1
  6
CONTINUOUS
370
25
 62
     7
100
AcDbLine
 10
383.399857
 20
335.446983
 11
382.149857
 21
335.446983
  0
LINE
  5
7A
100
AcDbEntity
  8
M1
  6
CONTINUOUS
370
13
 62
     7
100
AcDbLine
 10
466.399857
 20
360.346977
 11
466.399857
 21
354.779976
  0
LINE
  5
7B
100
AcDbEntity
  8
M1
  6
CONTINUOUS
370
25
 62
     7
100
AcDbLine
 10
375.399857
 20
359.946983
 11
379.399857
 21
359.946983
  0
LINE
  5
7C
100
AcDbEntity
  8
M1
  6
CONTINUOUS
370
13
 62
     7
100
AcDbLine
 10
377.399857
 20
360.346977
 11
377.399857
 21
354.805977
  0
LINE
  5
7D
100
AcDbEntity
  8
M1
  6
CONTINUOUS
370
13
 62
     7
100
AcDbLine
 10
411.312851
 20
399.946983
 11
403.314865
 21
399.946983
  0
LINE
  5
7E
100
AcDbEntity
  8
M1
  6
CONTINUOUS
370
25
 62
     7
100
AcDbLine
 10
409.399857
 20
402.196983
 11
405.399857
 21
402.196983
  0
LINE
  5
7F
100
AcDbEntity
  8
M1
  6
CONTINUOUS
370
25
 62
     7
100
AcDbLine
 10
409.399857
 20
397.696983
 11
405.399857
 21
397.696983
  0
LINE
  5
80
100
AcDbEntity
  8
M1
  6
CONTINUOUS
370
13
 62
     7
100
AcDbLine
 10
377.399857
 20
351.190986
 11
377.399857
 21
345.946983
  0
LINE
  5
81
100
AcDbEntity
  8
M1
  6
CONTINUOUS
370
13
 62
     7
100
AcDbLine
 10
466.399857
 20
350.908989
 11
466.399857
 21
345.946983
  0
LINE
  5
82
100
AcDbEntity
  8
M1
  6
CONTINUOUS
370
13
 62
     7
100
AcDbLine
 10
389.399857
 20
377.696983
 11
383.399857
 21
377.696983
  0
LINE
  5
83
100
AcDbEntity
  8
M1
  6
CONTINUOUS
370
13
 62
     7
100
AcDbLine
 10
383.399857
 20
382.196983
 11
389.399857
 21
382.196983
  0
LINE
  5
84
100
AcDbEntity
  8
M1
  6
CONTINUOUS
370
25
 62
     7
100
AcDbLine
 10
389.399857
 20
381.946983
 11
389.399857
 21
377.946983
  0
LINE
  5
85
100
AcDbEntity
  8
M1
  6
CONTINUOUS
370
13
 62
     7
100
AcDbLine
 10
389.79985
 20
379.946983
 11
382.999863
 21
379.946983
  0
LINE
  5
86
100
AcDbEntity
  8
M1
  6
CONTINUOUS
370
25
 62
     7
100
AcDbLine
 10
383.399857
 20
381.546974
 11
389.399857
 21
381.546974
  0
LINE
  5
87
100
AcDbEntity
  8
M1
  6
CONTINUOUS
370
25
 62
     7
100
AcDbLine
 10
389.399857
 20
378.346977
 11
383.399857
 21
378.346977
  0
LINE
  5
88
100
AcDbEntity
  8
M1
  6
CONTINUOUS
370
13
 62
     7
100
AcDbLine
 10
475.668961
 20
349.946983
 11
469.358261
 21
349.946983
  0
LINE
  5
89
100
AcDbEntity
  8
M1
  6
CONTINUOUS
370
25
 62
     7
100
AcDbLine
 10
373.399857
 20
349.946983
 11
373.399857
 21
359.946983
  0
LINE
  5
8A
100
AcDbEntity
  8
M1
  6
CONTINUOUS
370
25
 62
     7
100
AcDbLine
 10
373.399857
 20
359.946983
 11
382.149857
 21
359.946983
  0
LINE
  5
8B
100
AcDbEntity
  8
M1
  6
CONTINUOUS
370
25
 62
     7
100
AcDbLine
 10
470.399857
 20
359.946983
 11
470.399857
 21
349.946983
  0
LINE
  5
8C
100
AcDbEntity
  8
M1
  6
CONTINUOUS
370
25
 62
     7
100
AcDbLine
 10
461.649857
 20
364.446983
 11
461.649857
 21
359.446983
  0
LINE
  5
8D
100
AcDbEntity
  8
M1
  6
CONTINUOUS
370
25
 62
     7
100
AcDbLine
 10
382.149857
 20
364.446983
 11
382.149857
 21
359.446983
  0
LINE
  5
8E
100
AcDbEntity
  8
M1
  6
CONTINUOUS
370
25
 62
     7
100
AcDbLine
 10
427.399857
 20
359.946983
 11
427.399857
 21
359.446983
  0
LINE
  5
8F
100
AcDbEntity
  8
M1
  6
CONTINUOUS
370
25
 62
     7
100
AcDbLine
 10
431.399857
 20
359.946983
 11
431.399857
 21
359.446983
  0
LINE
  5
90
100
AcDbEntity
  8
M1
  6
CONTINUOUS
370
25
 62
     7
100
AcDbLine
 10
412.399857
 20
359.946983
 11
412.399857
 21
359.446983
  0
LINE
  5
91
100
AcDbEntity
  8
M1
  6
CONTINUOUS
370
25
 62
     7
100
AcDbLine
 10
408.399857
 20
359.946983
 11
408.399857
 21
359.446983
  0
LINE
  5
92
100
AcDbEntity
  8
M1
  6
CONTINUOUS
370
25
 62
     7
100
AcDbLine
 10
461.649857
 20
359.446983
 11
460.29985
 21
359.446983
  0
LINE
  5
93
100
AcDbEntity
  8
M1
  6
CONTINUOUS
370
25
 62
     7
100
AcDbLine
 10
431.399857
 20
359.446983
 11
427.399857
 21
359.446983
  0
LINE
  5
94
100
AcDbEntity
  8
M1
  6
CONTINUOUS
370
25
 62
     7
100
AcDbLine
 10
412.399857
 20
359.446983
 11
408.399857
 21
359.446983
  0
LINE
  5
95
100
AcDbEntity
  8
M1
  6
CONTINUOUS
370
25
 62
     7
100
AcDbLine
 10
383.499863
 20
359.446983
 11
382.149857
 21
359.446983
  0
LINE
  5
96
100
AcDbEntity
  8
M1
  6
CONTINUOUS
370
25
 62
     7
100
AcDbLine
 10
461.649857
 20
359.946983
 11
470.399857
 21
359.946983
  0
LINE
  5
97
100
AcDbEntity
  8
M1
  6
CONTINUOUS
370
25
 62
     7
100
AcDbLine
 10
431.399857
 20
359.946983
 11
459.433853
 21
359.946983
  0
LINE
  5
98
100
AcDbEntity
  8
M1
  6
CONTINUOUS
370
25
 62
     7
100
AcDbLine
 10
412.399857
 20
359.946983
 11
427.399857
 21
359.946983
  0
LINE
  5
99
100
AcDbEntity
  8
M1
  6
CONTINUOUS
370
25
 62
     7
100
AcDbLine
 10
384.366852
 20
359.946983
 11
408.399857
 21
359.946983
  0
LINE
  5
9A
100
AcDbEntity
  8
M1
  6
CONTINUOUS
370
25
 62
     7
100
AcDbLine
 10
448.399857
 20
356.446983
 11
395.399857
 21
356.446983
  0
LINE
  5
9B
100
AcDbEntity
  8
M1
  6
CONTINUOUS
370
25
 62
     7
100
AcDbLine
 10
448.399857
 20
356.446983
 11
448.399857
 21
349.946983
  0
LINE
  5
9C
100
AcDbEntity
  8
M1
  6
CONTINUOUS
370
25
 62
     7
100
AcDbLine
 10
395.399857
 20
356.446983
 11
395.399857
 21
349.946983
  0
LINE
  5
9D
100
AcDbEntity
  8
M1
  6
CONTINUOUS
370
25
 62
     7
100
AcDbLine
 10
470.399857
 20
355.946983
 11
448.399857
 21
355.946983
  0
LINE
  5
9E
100
AcDbEntity
  8
M1
  6
CONTINUOUS
370
25
 62
     7
100
AcDbLine
 10
395.399857
 20
355.946983
 11
373.399857
 21
355.946983
  0
LINE
  5
9F
100
AcDbEntity
  8
M1
  6
CONTINUOUS
370
25
 62
     7
100
AcDbLine
 10
460.29985
 20
359.446983
 11
459.433853
 21
359.946983
  0
LINE
  5
A0
100
AcDbEntity
  8
M1
  6
CONTINUOUS
370
25
 62
     7
100
AcDbLine
 10
383.499756
 20
359.447075
 11
384.36676
 21
359.947075
  0
LINE
  5
A1
100
AcDbEntity
  8
M1
  6
CONTINUOUS
370
25
 62
     7
100
AcDbLine
 10
470.399857
 20
339.946983
 11
470.399857
 21
349.946983
  0
LINE
  5
A2
100
AcDbEntity
  8
M1
  6
CONTINUOUS
370
25
 62
     7
100
AcDbLine
 10
461.649857
 20
339.946983
 11
470.399857
 21
339.946983
  0
LINE
  5
A3
100
AcDbEntity
  8
M1
  6
CONTINUOUS
370
25
 62
     7
100
AcDbLine
 10
461.649857
 20
335.446983
 11
461.649857
 21
349.946983
  0
LINE
  5
A4
100
AcDbEntity
  8
M1
  6
CONTINUOUS
370
25
 62
     7
100
AcDbLine
 10
373.399857
 20
339.946983
 11
382.149857
 21
339.946983
  0
LINE
  5
A5
100
AcDbEntity
  8
M1
  6
CONTINUOUS
370
25
 62
     7
100
AcDbLine
 10
373.399857
 20
349.946983
 11
373.399857
 21
339.946983
  0
LINE
  5
A6
100
AcDbEntity
  8
M1
  6
CONTINUOUS
370
25
 62
     7
100
AcDbLine
 10
382.149857
 20
335.446983
 11
382.149857
 21
349.946983
  0
LINE
  5
A7
100
AcDbEntity
  8
M1
  6
CONTINUOUS
370
25
 62
     7
100
AcDbLine
 10
383.399857
 20
371.446983
 11
383.400864
 21
384.446983
  0
LINE
  5
A8
100
AcDbEntity
  8
M1
  6
CONTINUOUS
370
25
 62
     7
100
AcDbLine
 10
383.900864
 20
384.946983
 11
388.900864
 21
384.946983
  0
LINE
  5
A9
100
AcDbEntity
  8
M1
  6
CONTINUOUS
370
25
 62
     7
100
AcDbLine
 10
390.399857
 20
377.446983
 11
390.399857
 21
374.946983
  0
LINE
  5
AA
100
AcDbEntity
  8
M1
  6
CONTINUOUS
370
25
 62
     7
100
AcDbLine
 10
389.400864
 20
384.446983
 11
389.399857
 21
377.446983
  0
LINE
  5
AB
100
AcDbEntity
  8
M1
  6
CONTINUOUS
370
25
 62
     7
100
AcDbLine
 10
400.899857
 20
373.446983
 11
400.899857
 21
367.946983
  0
LINE
  5
AC
100
AcDbEntity
  8
M1
  6
CONTINUOUS
370
25
 62
     7
100
AcDbLine
 10
402.899857
 20
365.946983
 11
402.899857
 21
363.946983
  0
LINE
  5
AD
100
AcDbEntity
  8
M1
  6
CONTINUOUS
370
25
 62
     7
100
AcDbLine
 10
406.399857
 20
365.946983
 11
406.399857
 21
363.946983
  0
LINE
  5
AE
100
AcDbEntity
  8
M1
  6
CONTINUOUS
370
25
 62
     7
100
AcDbLine
 10
390.399857
 20
377.446983
 11
389.399857
 21
377.446983
  0
LINE
  5
AF
100
AcDbEntity
  8
M1
  6
CONTINUOUS
370
25
 62
     7
100
AcDbLine
 10
444.399857
 20
374.946983
 11
390.399857
 21
374.946983
  0
LINE
  5
B0
100
AcDbEntity
  8
M1
  6
CONTINUOUS
370
25
 62
     7
100
AcDbLine
 10
402.899857
 20
363.946983
 11
406.399857
 21
363.946983
  0
LINE
  5
B1
100
AcDbEntity
  8
M1
  6
CONTINUOUS
370
25
 62
     7
100
AcDbLine
 10
438.69986
 20
373.546974
 11
438.69986
 21
373.446983
  0
LINE
  5
B2
100
AcDbEntity
  8
M1
  6
CONTINUOUS
370
25
 62
     7
100
AcDbLine
 10
438.69986
 20
373.446983
 11
400.899857
 21
373.446983
  0
LINE
  5
B3
100
AcDbEntity
  8
M1
  6
CONTINUOUS
370
25
 62
     7
100
AcDbLine
 10
438.899857
 20
373.546974
 11
438.69986
 21
373.546974
  0
LINE
  5
B4
100
AcDbEntity
  8
M1
  6
CONTINUOUS
370
25
 62
     7
100
AcDbLine
 10
400.899857
 20
367.946983
 11
402.899857
 21
365.946983
  0
LINE
  5
B5
100
AcDbEntity
  8
M1
  6
CONTINUOUS
370
25
 62
     7
100
AcDbLine
 10
406.399857
 20
365.946983
 11
408.399857
 21
363.946983
  0
LINE
  5
B6
100
AcDbEntity
  8
M1
  6
CONTINUOUS
370
25
 62
     7
100
AcDbLine
 10
395.399857
 20
366.946983
 11
395.399857
 21
370.946983
  0
LINE
  5
B7
100
AcDbEntity
  8
M1
  6
CONTINUOUS
370
25
 62
     7
100
AcDbLine
 10
395.899857
 20
363.946983
 11
395.899857
 21
366.946983
  0
LINE
  5
B8
100
AcDbEntity
  8
M1
  6
CONTINUOUS
370
25
 62
     7
100
AcDbLine
 10
400.899857
 20
361.946983
 11
400.899857
 21
363.946983
  0
LINE
  5
B9
100
AcDbEntity
  8
M1
  6
CONTINUOUS
370
25
 62
     7
100
AcDbLine
 10
403.399857
 20
359.946983
 11
403.399857
 21
362.446983
  0
LINE
  5
BA
100
AcDbEntity
  8
M1
  6
CONTINUOUS
370
25
 62
     7
100
AcDbLine
 10
407.399857
 20
359.946983
 11
407.399857
 21
362.446983
  0
LINE
  5
BB
100
AcDbEntity
  8
M1
  6
CONTINUOUS
370
25
 62
     7
100
AcDbLine
 10
408.399857
 20
360.446983
 11
408.399857
 21
363.946983
  0
LINE
  5
BC
100
AcDbEntity
  8
M1
  6
CONTINUOUS
370
25
 62
     7
100
AcDbLine
 10
395.399857
 20
370.946983
 11
383.899857
 21
370.946983
  0
LINE
  5
BD
100
AcDbEntity
  8
M1
  6
CONTINUOUS
370
25
 62
     7
100
AcDbLine
 10
395.899857
 20
366.946983
 11
395.399857
 21
366.946983
  0
LINE
  5
BE
100
AcDbEntity
  8
M1
  6
CONTINUOUS
370
25
 62
     7
100
AcDbLine
 10
400.899857
 20
363.946983
 11
395.899857
 21
363.946983
  0
LINE
  5
BF
100
AcDbEntity
  8
M1
  6
CONTINUOUS
370
25
 62
     7
100
AcDbLine
 10
403.399857
 20
360.446983
 11
402.399857
 21
360.446983
  0
LINE
  5
C0
100
AcDbEntity
  8
M1
  6
CONTINUOUS
370
25
 62
     7
100
AcDbLine
 10
408.399857
 20
360.446983
 11
407.399857
 21
360.446983
  0
LINE
  5
C1
100
AcDbEntity
  8
M1
  6
CONTINUOUS
370
25
 62
     7
100
AcDbLine
 10
407.399857
 20
362.446983
 11
403.399857
 21
362.446983
  0
LINE
  5
C2
100
AcDbEntity
  8
M1
  6
CONTINUOUS
370
25
 62
     7
100
AcDbLine
 10
388.900864
 20
384.946983
 11
389.400864
 21
384.446983
  0
LINE
  5
C3
100
AcDbEntity
  8
M1
  6
CONTINUOUS
370
25
 62
     7
100
AcDbLine
 10
383.400864
 20
384.446983
 11
383.900864
 21
384.946983
  0
LINE
  5
C4
100
AcDbEntity
  8
M1
  6
CONTINUOUS
370
25
 62
     7
100
AcDbLine
 10
383.899857
 20
370.946983
 11
383.399857
 21
371.446983
  0
LINE
  5
C5
100
AcDbEntity
  8
M1
  6
CONTINUOUS
370
25
 62
     7
100
AcDbLine
 10
402.399857
 20
360.446983
 11
400.899857
 21
361.946983
  0
LINE
  5
C6
100
AcDbEntity
  8
M1
  6
CONTINUOUS
370
25
 62
     7
100
AcDbLine
 10
383.399857
 20
349.946983
 11
383.399857
 21
315.446983
  0
LINE
  5
C7
100
AcDbEntity
  8
M1
  6
CONTINUOUS
370
25
 62
     7
100
AcDbLine
 10
383.399857
 20
315.446998
 11
383.899857
 21
314.946991
  0
LINE
  5
C8
100
AcDbEntity
  8
M1
  6
CONTINUOUS
370
25
 62
     7
100
AcDbLine
 10
383.899857
 20
314.946983
 11
388.899857
 21
314.946983
  0
LINE
  5
C9
100
AcDbEntity
  8
M1
  6
CONTINUOUS
370
25
 62
     7
100
AcDbLine
 10
388.899857
 20
314.946945
 11
389.399857
 21
315.446945
  0
LINE
  5
CA
100
AcDbEntity
  8
M1
  6
CONTINUOUS
370
25
 62
     7
100
AcDbLine
 10
390.399857
 20
322.446983
 11
389.399857
 21
322.446983
  0
LINE
  5
CB
100
AcDbEntity
  8
M1
  6
CONTINUOUS
370
25
 62
     7
100
AcDbLine
 10
389.399857
 20
315.446983
 11
389.399857
 21
349.946983
  0
LINE
  5
CC
100
AcDbEntity
  8
M1
  6
CONTINUOUS
370
25
 62
     7
100
AcDbLine
 10
431.399857
 20
360.446983
 11
431.399857
 21
363.946983
  0
LINE
  5
CD
100
AcDbEntity
  8
M1
  6
CONTINUOUS
370
25
 62
     7
100
AcDbLine
 10
444.399857
 20
374.946983
 11
449.19986
 21
374.946983
  0
LINE
  5
CE
100
AcDbEntity
  8
M1
  6
CONTINUOUS
370
25
 62
     7
100
AcDbLine
 10
460.399857
 20
374.446983
 11
460.399857
 21
371.446983
  0
LINE
  5
CF
100
AcDbEntity
  8
M1
  6
CONTINUOUS
370
25
 62
     7
100
AcDbLine
 10
451.399857
 20
378.446983
 11
451.399857
 21
373.446983
  0
LINE
  5
D0
100
AcDbEntity
  8
M1
  6
CONTINUOUS
370
25
 62
     7
100
AcDbLine
 10
449.19986
 20
374.946983
 11
449.19986
 21
373.446983
  0
LINE
  5
D1
100
AcDbEntity
  8
M1
  6
CONTINUOUS
370
25
 62
     7
100
AcDbLine
 10
438.899857
 20
373.546974
 11
438.899857
 21
367.946983
  0
LINE
  5
D2
100
AcDbEntity
  8
M1
  6
CONTINUOUS
370
25
 62
     7
100
AcDbLine
 10
436.899857
 20
365.946983
 11
436.899857
 21
363.946983
  0
LINE
  5
D3
100
AcDbEntity
  8
M1
  6
CONTINUOUS
370
25
 62
     7
100
AcDbLine
 10
433.399857
 20
365.946983
 11
433.399857
 21
363.946983
  0
LINE
  5
D4
100
AcDbEntity
  8
M1
  6
CONTINUOUS
370
25
 62
     7
100
AcDbLine
 10
451.399857
 20
373.446983
 11
449.19986
 21
373.446983
  0
LINE
  5
D5
100
AcDbEntity
  8
M1
  6
CONTINUOUS
370
25
 62
     7
100
AcDbLine
 10
436.899857
 20
363.946983
 11
433.399857
 21
363.946983
  0
LINE
  5
D6
100
AcDbEntity
  8
M1
  6
CONTINUOUS
370
25
 62
     7
100
AcDbLine
 10
438.899857
 20
367.946983
 11
436.899857
 21
365.946983
  0
LINE
  5
D7
100
AcDbEntity
  8
M1
  6
CONTINUOUS
370
25
 62
     7
100
AcDbLine
 10
433.399857
 20
365.946983
 11
431.399857
 21
363.946983
  0
LINE
  5
D8
100
AcDbEntity
  8
M1
  6
CONTINUOUS
370
25
 62
     7
100
AcDbLine
 10
451.399857
 20
374.946983
 11
459.899857
 21
374.946983
  0
LINE
  5
D9
100
AcDbEntity
  8
M1
  6
CONTINUOUS
370
25
 62
     7
100
AcDbLine
 10
432.399857
 20
359.946983
 11
432.399857
 21
362.446983
  0
LINE
  5
DA
100
AcDbEntity
  8
M1
  6
CONTINUOUS
370
25
 62
     7
100
AcDbLine
 10
436.399857
 20
359.946983
 11
436.399857
 21
362.446983
  0
LINE
  5
DB
100
AcDbEntity
  8
M1
  6
CONTINUOUS
370
25
 62
     7
100
AcDbLine
 10
438.899857
 20
361.946983
 11
438.899857
 21
363.946983
  0
LINE
  5
DC
100
AcDbEntity
  8
M1
  6
CONTINUOUS
370
25
 62
     7
100
AcDbLine
 10
447.899857
 20
363.946983
 11
447.899857
 21
366.946983
  0
LINE
  5
DD
100
AcDbEntity
  8
M1
  6
CONTINUOUS
370
25
 62
     7
100
AcDbLine
 10
448.399857
 20
366.946983
 11
448.399857
 21
370.946983
  0
LINE
  5
DE
100
AcDbEntity
  8
M1
  6
CONTINUOUS
370
25
 62
     7
100
AcDbLine
 10
459.899857
 20
370.946983
 11
448.399857
 21
370.946983
  0
LINE
  5
DF
100
AcDbEntity
  8
M1
  6
CONTINUOUS
370
25
 62
     7
100
AcDbLine
 10
448.399857
 20
366.946983
 11
447.899857
 21
366.946983
  0
LINE
  5
E0
100
AcDbEntity
  8
M1
  6
CONTINUOUS
370
25
 62
     7
100
AcDbLine
 10
447.899857
 20
363.946983
 11
438.899857
 21
363.946983
  0
LINE
  5
E1
100
AcDbEntity
  8
M1
  6
CONTINUOUS
370
25
 62
     7
100
AcDbLine
 10
437.399857
 20
360.446983
 11
436.399857
 21
360.446983
  0
LINE
  5
E2
100
AcDbEntity
  8
M1
  6
CONTINUOUS
370
25
 62
     7
100
AcDbLine
 10
432.399857
 20
360.446983
 11
431.399857
 21
360.446983
  0
LINE
  5
E3
100
AcDbEntity
  8
M1
  6
CONTINUOUS
370
25
 62
     7
100
AcDbLine
 10
436.399857
 20
362.446983
 11
432.399857
 21
362.446983
  0
LINE
  5
E4
100
AcDbEntity
  8
M1
  6
CONTINUOUS
370
25
 62
     7
100
AcDbLine
 10
460.399857
 20
371.446983
 11
459.899857
 21
370.946983
  0
LINE
  5
E5
100
AcDbEntity
  8
M1
  6
CONTINUOUS
370
25
 62
     7
100
AcDbLine
 10
460.399857
 20
374.446983
 11
459.899857
 21
374.946983
  0
LINE
  5
E6
100
AcDbEntity
  8
M1
  6
CONTINUOUS
370
25
 62
     7
100
AcDbLine
 10
438.899765
 20
361.947075
 11
437.399765
 21
360.447075
  0
LINE
  5
E7
100
AcDbEntity
  8
M1
  6
CONTINUOUS
370
25
 62
     7
100
AcDbLine
 10
460.399857
 20
325.446983
 11
460.399857
 21
349.946983
  0
LINE
  5
E8
100
AcDbEntity
  8
M1
  6
CONTINUOUS
370
25
 62
     7
100
AcDbLine
 10
460.399857
 20
325.446983
 11
459.899857
 21
324.946983
  0
LINE
  5
E9
100
AcDbEntity
  8
M1
  6
CONTINUOUS
370
25
 62
     7
100
AcDbLine
 10
451.399857
 20
324.946983
 11
459.899857
 21
324.946983
  0
LINE
  5
EA
100
AcDbEntity
  8
M1
  6
CONTINUOUS
370
25
 62
     7
100
AcDbLine
 10
451.399857
 20
321.446983
 11
451.399857
 21
349.946983
  0
LINE
  5
EB
100
AcDbEntity
  8
M1
  6
CONTINUOUS
370
25
 62
     7
100
AcDbLine
 10
402.79985
 20
369.696983
 11
402.79985
 21
372.046974
  0
LINE
  5
EC
100
AcDbEntity
  8
M1
  6
CONTINUOUS
370
25
 62
     7
100
AcDbLine
 10
403.29985
 20
372.546974
 11
436.29985
 21
372.546974
  0
LINE
  5
ED
100
AcDbEntity
  8
M1
  6
CONTINUOUS
370
25
 62
     7
100
AcDbLine
 10
436.79985
 20
372.046974
 11
436.79985
 21
369.696983
  0
LINE
  5
EE
100
AcDbEntity
  8
M1
  6
CONTINUOUS
370
25
 62
     7
100
AcDbLine
 10
427.29985
 20
359.946983
 11
412.29985
 21
359.946983
  0
LINE
  5
EF
100
AcDbEntity
  8
M1
  6
CONTINUOUS
370
25
 62
     7
100
AcDbLine
 10
427.29985
 20
361.696983
 11
427.29985
 21
359.946983
  0
LINE
  5
F0
100
AcDbEntity
  8
M1
  6
CONTINUOUS
370
25
 62
     7
100
AcDbLine
 10
412.29985
 20
359.946983
 11
412.29985
 21
361.696983
  0
LINE
  5
F1
100
AcDbEntity
  8
M1
  6
CONTINUOUS
370
25
 62
     7
100
AcDbLine
 10
436.79985
 20
369.696876
 11
427.29985
 21
361.696876
  0
LINE
  5
F2
100
AcDbEntity
  8
M1
  6
CONTINUOUS
370
25
 62
     7
100
AcDbLine
 10
412.29985
 20
361.696983
 11
402.79985
 21
369.696983
  0
LINE
  5
F3
100
AcDbEntity
  8
M1
  6
CONTINUOUS
370
25
 62
     7
100
AcDbLine
 10
448.399857
 20
374.946983
 11
438.399857
 21
374.946983
  0
LINE
  5
F4
100
AcDbEntity
  8
M1
  6
CONTINUOUS
370
25
 62
     7
100
AcDbLine
 10
437.399857
 20
375.946983
 11
437.399857
 21
384.946983
  0
LINE
  5
F5
100
AcDbEntity
  8
M1
  6
CONTINUOUS
370
25
 62
     7
100
AcDbLine
 10
438.399857
 20
385.946983
 11
448.399857
 21
385.946983
  0
LINE
  5
F6
100
AcDbEntity
  8
M1
  6
CONTINUOUS
370
25
 62
     7
100
AcDbLine
 10
449.399857
 20
384.946983
 11
449.399857
 21
373.446983
  0
LINE
  5
F7
100
AcDbEntity
  8
M1
  6
CONTINUOUS
370
25
 62
     7
100
AcDbLine
 10
449.399857
 20
378.612983
 11
446.575851
 21
378.612983
  0
LINE
  5
F8
100
AcDbEntity
  8
M1
  6
CONTINUOUS
370
25
 62
     7
100
AcDbLine
 10
437.399857
 20
382.279976
 11
440.224854
 21
382.279976
  0
LINE
  5
F9
100
AcDbEntity
  8
M1
  6
CONTINUOUS
370
25
 62
     7
100
AcDbLine
 10
438.566864
 20
376.779976
 11
438.566864
 21
384.112983
  0
LINE
  5
FA
100
AcDbEntity
  8
M1
  6
CONTINUOUS
370
25
 62
     7
100
AcDbLine
 10
448.232864
 20
384.112983
 11
448.232864
 21
376.779976
  0
LINE
  5
FB
100
AcDbEntity
  8
M1
  6
CONTINUOUS
370
25
 62
     7
100
AcDbLine
 10
446.575851
 20
382.279976
 11
449.399857
 21
382.279976
  0
LINE
  5
FC
100
AcDbEntity
  8
M1
  6
CONTINUOUS
370
25
 62
     7
100
AcDbLine
 10
440.224854
 20
378.612983
 11
437.399857
 21
378.612983
  0
LINE
  5
FD
100
AcDbEntity
  8
M1
  6
CONTINUOUS
370
25
 62
     7
100
AcDbLine
 10
391.399857
 20
374.946983
 11
401.399857
 21
374.946983
  0
LINE
  5
FE
100
AcDbEntity
  8
M1
  6
CONTINUOUS
370
25
 62
     7
100
AcDbLine
 10
402.399857
 20
375.946983
 11
402.400864
 21
384.946983
  0
LINE
  5
FF
100
AcDbEntity
  8
M1
  6
CONTINUOUS
370
25
 62
     7
100
AcDbLine
 10
401.400864
 20
385.946983
 11
391.400864
 21
385.946983
  0
LINE
  5
100
100
AcDbEntity
  8
M1
  6
CONTINUOUS
370
25
 62
     7
100
AcDbLine
 10
390.400864
 20
384.946983
 11
390.399857
 21
375.946983
  0
LINE
  5
101
100
AcDbEntity
  8
M1
  6
CONTINUOUS
370
25
 62
     7
100
AcDbLine
 10
390.399857
 20
378.612983
 11
393.224854
 21
378.612983
  0
LINE
  5
102
100
AcDbEntity
  8
M1
  6
CONTINUOUS
370
25
 62
     7
100
AcDbLine
 10
402.399857
 20
382.279976
 11
399.575851
 21
382.279976
  0
LINE
  5
103
100
AcDbEntity
  8
M1
  6
CONTINUOUS
370
25
 62
     7
100
AcDbLine
 10
401.233856
 20
376.779976
 11
401.233856
 21
384.112983
  0
LINE
  5
104
100
AcDbEntity
  8
M1
  6
CONTINUOUS
370
25
 62
     7
100
AcDbLine
 10
391.566864
 20
384.112983
 11
391.566864
 21
376.779976
  0
LINE
  5
105
100
AcDbEntity
  8
M1
  6
CONTINUOUS
370
25
 62
     7
100
AcDbLine
 10
393.224854
 20
382.279976
 11
390.399857
 21
382.279976
  0
LINE
  5
106
100
AcDbEntity
  8
M1
  6
CONTINUOUS
370
25
 62
     7
100
AcDbLine
 10
399.575851
 20
378.612983
 11
402.399857
 21
378.612983
  0
LINE
  5
107
100
AcDbEntity
  8
M1
  6
CONTINUOUS
370
25
 62
     7
100
AcDbLine
 10
390.400864
 20
386.446983
 11
390.400864
 21
389.946983
  0
LINE
  5
108
100
AcDbEntity
  8
M1
  6
CONTINUOUS
370
25
 62
     7
100
AcDbLine
 10
402.399857
 20
381.946983
 11
402.400864
 21
385.946983
  0
LINE
  5
109
100
AcDbEntity
  8
M1
  6
CONTINUOUS
370
25
 62
     7
100
AcDbLine
 10
403.29985
 20
375.846977
 11
403.29985
 21
381.946983
  0
LINE
  5
10A
100
AcDbEntity
  8
M1
  6
CONTINUOUS
370
25
 62
     7
100
AcDbLine
 10
436.499863
 20
375.846977
 11
403.29985
 21
375.846977
  0
LINE
  5
10B
100
AcDbEntity
  8
M1
  6
CONTINUOUS
370
25
 62
     7
100
AcDbLine
 10
403.29985
 20
381.946983
 11
402.399857
 21
381.946983
  0
LINE
  5
10C
100
AcDbEntity
  8
M1
  6
CONTINUOUS
370
25
 62
     7
100
AcDbLine
 10
402.400864
 20
385.946983
 11
390.900864
 21
385.946983
  0
LINE
  5
10D
100
AcDbEntity
  8
M1
  6
CONTINUOUS
370
25
 62
     7
100
AcDbLine
 10
390.900864
 20
385.946983
 11
390.400864
 21
386.446983
  0
LINE
  5
10E
100
AcDbEntity
  8
M1
  6
CONTINUOUS
370
25
 62
     7
100
AcDbLine
 10
390.399857
 20
313.446983
 11
390.399857
 21
309.946983
  0
LINE
  5
10F
100
AcDbEntity
  8
M1
  6
CONTINUOUS
370
25
 62
     7
100
AcDbLine
 10
449.399857
 20
386.446983
 11
449.399857
 21
389.946983
  0
LINE
  5
110
100
AcDbEntity
  8
M1
  6
CONTINUOUS
370
25
 62
     7
100
AcDbLine
 10
437.399857
 20
381.946983
 11
437.399857
 21
385.946983
  0
LINE
  5
111
100
AcDbEntity
  8
M1
  6
CONTINUOUS
370
25
 62
     7
100
AcDbLine
 10
436.499863
 20
375.846977
 11
436.499863
 21
381.946983
  0
LINE
  5
112
100
AcDbEntity
  8
M1
  6
CONTINUOUS
370
25
 62
     7
100
AcDbLine
 10
436.499863
 20
381.946983
 11
437.399857
 21
381.946983
  0
LINE
  5
113
100
AcDbEntity
  8
M1
  6
CONTINUOUS
370
25
 62
     7
100
AcDbLine
 10
437.399857
 20
385.946983
 11
448.899857
 21
385.946983
  0
LINE
  5
114
100
AcDbEntity
  8
M1
  6
CONTINUOUS
370
25
 62
     7
100
AcDbLine
 10
448.899857
 20
385.946983
 11
449.399857
 21
386.446983
  0
LINE
  5
115
100
AcDbEntity
  8
M1
  6
CONTINUOUS
370
25
 62
     7
100
AcDbLine
 10
395.899857
 20
361.946983
 11
399.899857
 21
359.946983
  0
LINE
  5
116
100
AcDbEntity
  8
M1
  6
CONTINUOUS
370
25
 62
     7
100
AcDbLine
 10
396.899857
 20
362.946983
 11
399.899857
 21
359.946983
  0
LINE
  5
117
100
AcDbEntity
  8
M1
  6
CONTINUOUS
370
25
 62
     7
100
AcDbLine
 10
396.899857
 20
362.946983
 11
399.899857
 21
362.946983
  0
LINE
  5
118
100
AcDbEntity
  8
M1
  6
CONTINUOUS
370
25
 62
     7
100
AcDbLine
 10
399.899857
 20
363.946983
 11
399.899857
 21
362.946983
  0
LINE
  5
119
100
AcDbEntity
  8
M1
  6
CONTINUOUS
370
25
 62
     7
100
AcDbLine
 10
395.899857
 20
363.946983
 11
395.899857
 21
361.946983
  0
LINE
  5
11A
100
AcDbEntity
  8
M1
  6
CONTINUOUS
370
25
 62
     7
100
AcDbLine
 10
447.899857
 20
363.946983
 11
447.899857
 21
361.946983
  0
LINE
  5
11B
100
AcDbEntity
  8
M1
  6
CONTINUOUS
370
25
 62
     7
100
AcDbLine
 10
443.899857
 20
359.946983
 11
447.899857
 21
361.946983
  0
LINE
  5
11C
100
AcDbEntity
  8
M1
  6
CONTINUOUS
370
25
 62
     7
100
AcDbLine
 10
446.899765
 20
362.947075
 11
443.899765
 21
359.947075
  0
LINE
  5
11D
100
AcDbEntity
  8
M1
  6
CONTINUOUS
370
25
 62
     7
100
AcDbLine
 10
443.899857
 20
362.946983
 11
446.899857
 21
362.946983
  0
LINE
  5
11E
100
AcDbEntity
  8
M1
  6
CONTINUOUS
370
25
 62
     7
100
AcDbLine
 10
443.899857
 20
363.946983
 11
443.899857
 21
362.946983
  0
LINE
  5
11F
100
AcDbEntity
  8
M1
  6
CONTINUOUS
370
25
 62
     7
100
AcDbLine
 10
422.37886
 20
393.946983
 11
417.42186
 21
393.946983
  0
LINE
  5
120
100
AcDbEntity
  8
M1
  6
CONTINUOUS
370
25
 62
     7
100
AcDbLine
 10
418.899857
 20
393.946983
 11
418.899857
 21
400.847984
  0
LINE
  5
121
100
AcDbEntity
  8
M1
  6
CONTINUOUS
370
25
 62
     7
100
AcDbLine
 10
415.899765
 20
419.607078
 11
414.899765
 21
417.874077
  0
LINE
  5
122
100
AcDbEntity
  8
M1
  6
CONTINUOUS
370
25
 62
     7
100
AcDbLine
 10
423.899857
 20
419.606987
 11
424.899857
 21
417.873985
  0
LINE
  5
123
100
AcDbEntity
  8
M1
  6
CONTINUOUS
370
25
 62
     7
100
AcDbLine
 10
415.399765
 20
418.739982
 11
411.069763
 21
421.239982
  0
LINE
  5
124
100
AcDbEntity
  8
M1
  6
CONTINUOUS
370
25
 62
     7
100
AcDbLine
 10
424.399857
 20
418.740974
 11
428.729858
 21
421.239982
  0
LINE
  5
125
100
AcDbEntity
  8
M1
  6
CONTINUOUS
370
25
 62
     7
100
AcDbLine
 10
420.899857
 20
393.946983
 11
420.899857
 21
399.511986
  0
LINE
  5
126
100
AcDbEntity
  8
M1
  6
CONTINUOUS
370
25
 62
     7
100
AcDbLine
 10
418.899857
 20
403.471977
 11
418.899857
 21
410.945976
  0
LINE
  5
127
100
AcDbEntity
  8
M1
  6
CONTINUOUS
370
25
 62
     7
100
AcDbLine
 10
420.899857
 20
402.012977
 11
420.899857
 21
410.945976
  0
LINE
  5
128
100
AcDbEntity
  8
M1
  6
CONTINUOUS
370
25
 62
     7
100
AcDbLine
 10
418.899857
 20
403.471885
 11
420.899857
 21
402.012886
  0
LINE
  5
129
100
AcDbEntity
  8
M1
  6
CONTINUOUS
370
25
 62
     7
100
AcDbLine
 10
418.899857
 20
400.847984
 11
420.899857
 21
399.511986
  0
LINE
  5
12A
100
AcDbEntity
  8
M1
  6
CONTINUOUS
370
13
 62
     7
100
AcDbLine
 10
245.19487
 20
388.329078
 11
251.142868
 21
382.382087
  0
LINE
  5
12B
100
AcDbEntity
  8
M1
  6
CONTINUOUS
370
13
 62
     7
100
AcDbLine
 10
245.612961
 20
311.981834
 11
251.341965
 21
317.710785
  0
LINE
  5
12C
100
AcDbEntity
  8
M1
  6
CONTINUOUS
370
13
 62
     7
100
AcDbLine
 10
315.962753
 20
317.563881
 11
322.089767
 21
311.436889
  0
LINE
  5
12D
100
AcDbEntity
  8
M1
  6
DASHDOT
370
13
 62
     7
100
AcDbLine
 10
283.578873
 20
383.946983
 11
283.578873
 21
375.946983
  0
LINE
  5
12E
100
AcDbEntity
  8
M1
  6
CONTINUOUS
370
13
 62
     7
100
AcDbLine
 10
249.578873
 20
349.946983
 11
257.725845
 21
349.946983
  0
LINE
  5
12F
100
AcDbEntity
  8
M1
  6
DASHDOT
370
13
 62
     7
100
AcDbLine
 10
283.578873
 20
315.946983
 11
283.578873
 21
323.946983
  0
LINE
  5
130
100
AcDbEntity
  8
M1
  6
CONTINUOUS
370
13
 62
     7
100
AcDbLine
 10
317.578873
 20
349.946983
 11
309.578873
 21
349.946983
  0
LINE
  5
131
100
AcDbEntity
  8
M1
  6
CONTINUOUS
370
13
 62
     7
100
AcDbLine
 10
283.578873
 20
360.346977
 11
283.578873
 21
354.844887
  0
LINE
  5
132
100
AcDbEntity
  8
M1
  6
CONTINUOUS
370
13
 62
     7
100
AcDbLine
 10
551.062485
 20
349.946983
 11
557.019295
 21
349.946983
  0
LINE
  5
133
100
AcDbEntity
  8
M1
  6
CONTINUOUS
370
25
 62
     7
100
AcDbLine
 10
551.443871
 20
364.020988
 11
553.327866
 21
364.020988
  0
LINE
  5
134
100
AcDbEntity
  8
M1
  6
CONTINUOUS
370
25
 62
     7
100
AcDbLine
 10
553.327866
 20
364.020988
 11
553.327866
 21
359.921974
  0
LINE
  5
135
100
AcDbEntity
  8
M1
  6
CONTINUOUS
370
25
 62
     7
100
AcDbLine
 10
551.443871
 20
364.020988
 11
551.443871
 21
362.185982
  0
LINE
  5
136
100
AcDbEntity
  8
M1
  6
CONTINUOUS
370
25
 62
     7
100
AcDbLine
 10
550.917854
 20
379.234977
 11
553.032845
 21
379.234977
  0
LINE
  5
137
100
AcDbEntity
  8
M1
  6
CONTINUOUS
370
25
 62
     7
100
AcDbLine
 10
553.032845
 20
379.234977
 11
553.032845
 21
374.926979
  0
LINE
  5
138
100
AcDbEntity
  8
M1
  6
CONTINUOUS
370
25
 62
     7
100
AcDbLine
 10
550.917854
 20
379.234977
 11
550.917854
 21
377.275978
  0
LINE
  5
139
100
AcDbEntity
  8
M1
  6
CONTINUOUS
370
25
 62
     7
100
AcDbLine
 10
554.737869
 20
364.020988
 11
554.737869
 21
359.921974
  0
LINE
  5
13A
100
AcDbEntity
  8
M1
  6
CONTINUOUS
370
25
 62
     7
100
AcDbLine
 10
556.621864
 20
364.020988
 11
554.737869
 21
364.020988
  0
LINE
  5
13B
100
AcDbEntity
  8
M1
  6
CONTINUOUS
370
25
 62
     7
100
AcDbLine
 10
556.621864
 20
364.020988
 11
556.621864
 21
362.185982
  0
LINE
  5
13C
100
AcDbEntity
  8
M1
  6
CONTINUOUS
370
25
 62
     7
100
AcDbLine
 10
555.032845
 20
379.234977
 11
555.032845
 21
374.926979
  0
LINE
  5
13D
100
AcDbEntity
  8
M1
  6
CONTINUOUS
370
25
 62
     7
100
AcDbLine
 10
557.147877
 20
379.234977
 11
555.032845
 21
379.234977
  0
LINE
  5
13E
100
AcDbEntity
  8
M1
  6
CONTINUOUS
370
25
 62
     7
100
AcDbLine
 10
557.147877
 20
379.234977
 11
557.147877
 21
377.275978
  0
LINE
  5
13F
100
AcDbEntity
  8
M1
  6
CONTINUOUS
370
25
 62
     7
100
AcDbLine
 10
550.83287
 20
393.946983
 11
557.232868
 21
393.946983
  0
LINE
  5
140
100
AcDbEntity
  8
M1
  6
CONTINUOUS
370
25
 62
     7
100
AcDbLine
 10
550.532845
 20
393.64698
 11
550.532845
 21
392.803978
  0
LINE
  5
141
100
AcDbEntity
  8
M1
  6
CONTINUOUS
370
25
 62
     7
100
AcDbLine
 10
557.532848
 20
393.64698
 11
557.532848
 21
392.803978
  0
LINE
  5
142
100
AcDbEntity
  8
M1
  6
CONTINUOUS
370
25
 62
     7
100
AcDbLine
 10
552.032845
 20
403.178779
 11
556.032845
 21
402.09478
  0
LINE
  5
143
100
AcDbEntity
  8
M1
  6
CONTINUOUS
370
25
 62
     7
100
AcDbLine
 10
552.032761
 20
401.106788
 11
556.032776
 21
400.021782
  0
LINE
  5
144
100
AcDbEntity
  8
M1
  6
DASHED
370
13
 62
     7
100
AcDbLine
 10
289.578873
 20
351.546974
 11
289.578873
 21
348.346977
  0
LINE
  5
145
100
AcDbEntity
  8
M1
  6
DASHED
370
13
 62
     7
100
AcDbLine
 10
290.078873
 20
351.946983
 11
290.078873
 21
347.946983
  0
LINE
  5
146
100
AcDbEntity
  8
M1
  6
DASHED
370
13
 62
     7
100
AcDbLine
 10
292.578873
 20
351.946983
 11
292.578873
 21
347.946983
  0
LINE
  5
147
100
AcDbEntity
  8
M1
  6
DASHED
370
13
 62
     7
100
AcDbLine
 10
293.078873
 20
351.546974
 11
293.078873
 21
348.346977
  0
LINE
  5
148
100
AcDbEntity
  8
M1
  6
DASHED
370
13
 62
     7
100
AcDbLine
 10
289.235855
 20
347.946983
 11
293.376846
 21
347.946983
  0
LINE
  5
149
100
AcDbEntity
  8
M1
  6
DASHED
370
13
 62
     7
100
AcDbLine
 10
289.361862
 20
348.346977
 11
293.449844
 21
348.346977
  0
LINE
  5
14A
100
AcDbEntity
  8
M1
  6
DASHED
370
13
 62
     7
100
AcDbLine
 10
293.449844
 20
351.546974
 11
289.361862
 21
351.546974
  0
LINE
  5
14B
100
AcDbEntity
  8
M1
  6
DASHED
370
13
 62
     7
100
AcDbLine
 10
293.376846
 20
351.946983
 11
289.235855
 21
351.946983
  0
LINE
  5
14C
100
AcDbEntity
  8
M1
  6
DASHED
370
13
 62
     7
100
AcDbLine
 10
289.579056
 20
351.546776
 11
290.079056
 21
351.946785
  0
LINE
  5
14D
100
AcDbEntity
  8
M1
  6
DASHED
370
13
 62
     7
100
AcDbLine
 10
292.578964
 20
351.947075
 11
293.078964
 21
351.547081
  0
LINE
  5
14E
100
AcDbEntity
  8
M1
  6
DASHED
370
13
 62
     7
100
AcDbLine
 10
289.578873
 20
348.346977
 11
290.078873
 21
347.946983
  0
LINE
  5
14F
100
AcDbEntity
  8
M1
  6
DASHED
370
13
 62
     7
100
AcDbLine
 10
292.578873
 20
347.947075
 11
293.078873
 21
348.347084
  0
LINE
  5
150
100
AcDbEntity
  8
M1
  6
DASHED
370
13
 62
     7
100
AcDbLine
 10
281.978867
 20
355.946983
 11
285.178848
 21
355.946983
  0
LINE
  5
151
100
AcDbEntity
  8
M1
  6
DASHED
370
13
 62
     7
100
AcDbLine
 10
281.578873
 20
356.446983
 11
285.578873
 21
356.446983
  0
LINE
  5
152
100
AcDbEntity
  8
M1
  6
DASHED
370
13
 62
     7
100
AcDbLine
 10
281.578873
 20
358.946983
 11
285.578873
 21
358.946983
  0
LINE
  5
153
100
AcDbEntity
  8
M1
  6
DASHED
370
13
 62
     7
100
AcDbLine
 10
281.978867
 20
359.446983
 11
285.178848
 21
359.446983
  0
LINE
  5
154
100
AcDbEntity
  8
M1
  6
DASHED
370
13
 62
     7
100
AcDbLine
 10
285.578873
 20
355.603981
 11
285.578873
 21
359.744987
  0
LINE
  5
155
100
AcDbEntity
  8
M1
  6
DASHED
370
13
 62
     7
100
AcDbLine
 10
285.178848
 20
355.728981
 11
285.178848
 21
359.817985
  0
LINE
  5
156
100
AcDbEntity
  8
M1
  6
DASHED
370
13
 62
     7
100
AcDbLine
 10
281.978867
 20
359.817985
 11
281.978867
 21
355.728981
  0
LINE
  5
157
100
AcDbEntity
  8
M1
  6
DASHED
370
13
 62
     7
100
AcDbLine
 10
281.578873
 20
359.744987
 11
281.578873
 21
355.603981
  0
LINE
  5
158
100
AcDbEntity
  8
M1
  6
DASHED
370
13
 62
     7
100
AcDbLine
 10
281.978867
 20
355.946983
 11
281.578873
 21
356.446983
  0
LINE
  5
159
100
AcDbEntity
  8
M1
  6
DASHED
370
13
 62
     7
100
AcDbLine
 10
281.578873
 20
358.946876
 11
281.978958
 21
359.446876
  0
LINE
  5
15A
100
AcDbEntity
  8
M1
  6
DASHED
370
13
 62
     7
100
AcDbLine
 10
285.178848
 20
355.946876
 11
285.578873
 21
356.446876
  0
LINE
  5
15B
100
AcDbEntity
  8
M1
  6
DASHED
370
13
 62
     7
100
AcDbLine
 10
285.578873
 20
358.946983
 11
285.17897
 21
359.446983
  0
LINE
  5
15C
100
AcDbEntity
  8
M1
  6
DASHED
370
13
 62
     7
100
AcDbLine
 10
552.432846
 20
355.946983
 11
555.632858
 21
355.946983
  0
LINE
  5
15D
100
AcDbEntity
  8
M1
  6
DASHED
370
13
 62
     7
100
AcDbLine
 10
552.032845
 20
356.446983
 11
556.032845
 21
356.446983
  0
LINE
  5
15E
100
AcDbEntity
  8
M1
  6
DASHED
370
13
 62
     7
100
AcDbLine
 10
552.032845
 20
358.946983
 11
556.032845
 21
358.946983
  0
LINE
  5
15F
100
AcDbEntity
  8
M1
  6
DASHED
370
13
 62
     7
100
AcDbLine
 10
552.432846
 20
359.446983
 11
555.632858
 21
359.446983
  0
LINE
  5
160
100
AcDbEntity
  8
M1
  6
DASHED
370
13
 62
     7
100
AcDbLine
 10
556.032845
 20
355.603981
 11
556.032845
 21
359.744987
  0
LINE
  5
161
100
AcDbEntity
  8
M1
  6
DASHED
370
13
 62
     7
100
AcDbLine
 10
555.632858
 20
355.728981
 11
555.632858
 21
359.817985
  0
LINE
  5
162
100
AcDbEntity
  8
M1
  6
DASHED
370
13
 62
     7
100
AcDbLine
 10
552.432846
 20
359.817985
 11
552.432846
 21
355.728981
  0
LINE
  5
163
100
AcDbEntity
  8
M1
  6
DASHED
370
13
 62
     7
100
AcDbLine
 10
552.032845
 20
359.744987
 11
552.032845
 21
355.603981
  0
LINE
  5
164
100
AcDbEntity
  8
M1
  6
DASHED
370
13
 62
     7
100
AcDbLine
 10
552.432831
 20
355.946983
 11
552.032829
 21
356.446983
  0
LINE
  5
165
100
AcDbEntity
  8
M1
  6
DASHED
370
13
 62
     7
100
AcDbLine
 10
552.032845
 20
358.946983
 11
552.432846
 21
359.446983
  0
LINE
  5
166
100
AcDbEntity
  8
M1
  6
DASHED
370
13
 62
     7
100
AcDbLine
 10
555.632851
 20
355.946983
 11
556.032845
 21
356.446983
  0
LINE
  5
167
100
AcDbEntity
  8
M1
  6
DASHED
370
13
 62
     7
100
AcDbLine
 10
556.032845
 20
358.946983
 11
555.632858
 21
359.446983
  0
LINE
  5
168
100
AcDbEntity
  8
M1
  6
DASHED
370
13
 62
     7
100
AcDbLine
 10
548.032845
 20
351.546974
 11
548.032845
 21
348.346977
  0
LINE
  5
169
100
AcDbEntity
  8
M1
  6
DASHED
370
13
 62
     7
100
AcDbLine
 10
547.532845
 20
351.946983
 11
547.532845
 21
347.946983
  0
LINE
  5
16A
100
AcDbEntity
  8
M1
  6
DASHED
370
13
 62
     7
100
AcDbLine
 10
545.032845
 20
351.946983
 11
545.032845
 21
347.946983
  0
LINE
  5
16B
100
AcDbEntity
  8
M1
  6
DASHED
370
13
 62
     7
100
AcDbLine
 10
544.532845
 20
351.546974
 11
544.532845
 21
348.346977
  0
LINE
  5
16C
100
AcDbEntity
  8
M1
  6
DASHED
370
13
 62
     7
100
AcDbLine
 10
548.37587
 20
347.946983
 11
544.234848
 21
347.946983
  0
LINE
  5
16D
100
AcDbEntity
  8
M1
  6
DASHED
370
13
 62
     7
100
AcDbLine
 10
548.249855
 20
348.346977
 11
544.16185
 21
348.346977
  0
LINE
  5
16E
100
AcDbEntity
  8
M1
  6
DASHED
370
13
 62
     7
100
AcDbLine
 10
544.16185
 20
351.546974
 11
548.249855
 21
351.546974
  0
LINE
  5
16F
100
AcDbEntity
  8
M1
  6
DASHED
370
13
 62
     7
100
AcDbLine
 10
544.234848
 20
351.946983
 11
548.37587
 21
351.946983
  0
LINE
  5
170
100
AcDbEntity
  8
M1
  6
DASHED
370
13
 62
     7
100
AcDbLine
 10
548.032791
 20
351.546882
 11
547.532791
 21
351.946983
  0
LINE
  5
171
100
AcDbEntity
  8
M1
  6
DASHED
370
13
 62
     7
100
AcDbLine
 10
545.032875
 20
351.946876
 11
544.532875
 21
351.546882
  0
LINE
  5
172
100
AcDbEntity
  8
M1
  6
DASHED
370
13
 62
     7
100
AcDbLine
 10
548.032875
 20
348.346977
 11
547.532867
 21
347.946983
  0
LINE
  5
173
100
AcDbEntity
  8
M1
  6
DASHED
370
13
 62
     7
100
AcDbLine
 10
545.032875
 20
347.946983
 11
544.532875
 21
348.346977
  0
LINE
  5
174
100
AcDbEntity
  8
M1
  6
CONTINUOUS
370
13
 62
     7
100
AcDbLine
 10
315.668961
 20
382.035881
 11
321.64296
 21
388.008888
  0
LINE
  5
175
100
AcDbEntity
  8
M1
  6
CONTINUOUS
370
13
 62
     7
100
AcDbLine
 10
586.122887
 20
382.035988
 11
592.096909
 21
388.00898
  0
LINE
  5
176
100
AcDbEntity
  8
M1
  6
CONTINUOUS
370
13
 62
     7
100
AcDbLine
 10
521.943871
 20
382.037086
 11
515.970856
 21
388.010078
  0
LINE
  5
177
100
AcDbEntity
  8
M1
  6
CONTINUOUS
370
13
 62
     7
100
AcDbLine
 10
521.942787
 20
317.857078
 11
515.969757
 21
311.884033
  0
LINE
  5
178
100
AcDbEntity
  8
M1
  6
CONTINUOUS
370
13
 62
     7
100
AcDbLine
 10
586.122837
 20
317.856979
 11
592.095867
 21
311.88295
  0
LINE
  5
179
100
AcDbEntity
  8
M1
  6
CONTINUOUS
370
13
 62
     7
100
AcDbLine
 10
283.578873
 20
315.499344
 11
283.578873
 21
324.663681
  0
LINE
  5
17A
100
AcDbEntity
  8
M1
  6
CONTINUOUS
370
25
 62
     7
100
AcDbLine
 10
288.578964
 20
419.606087
 11
289.578964
 21
417.874077
  0
LINE
  5
17B
100
AcDbEntity
  8
M1
  6
CONTINUOUS
370
25
 62
     7
100
AcDbLine
 10
278.579056
 20
419.605888
 11
277.579056
 21
417.873878
  0
LINE
  5
17C
100
AcDbEntity
  8
M1
  6
CONTINUOUS
370
25
 62
     7
100
AcDbLine
 10
289.078873
 20
418.739876
 11
293.408859
 21
421.239876
  0
LINE
  5
17D
100
AcDbEntity
  8
M1
  6
CONTINUOUS
370
25
 62
     7
100
AcDbLine
 10
278.078873
 20
418.739982
 11
273.748856
 21
421.239982
  0
LINE
  5
17E
100
AcDbEntity
  8
M1
  6
CONTINUOUS
370
25
 62
     7
100
AcDbLine
 10
283.578873
 20
410.945976
 11
283.578873
 21
405.946983
  0
LINE
  5
17F
100
AcDbEntity
  8
M1
  6
CONTINUOUS
370
25
 62
     7
100
AcDbLine
 10
281.578873
 20
405.911257
 11
281.578873
 21
410.945976
  0
LINE
  5
180
100
AcDbEntity
  8
M1
  6
CONTINUOUS
370
25
 62
     7
100
AcDbLine
 10
285.578873
 20
405.910988
 11
285.578873
 21
410.945976
  0
LINE
  5
181
100
AcDbEntity
  8
M1
  6
CONTINUOUS
370
13
 62
     7
100
AcDbLine
 10
554.032845
 20
346.61718
 11
554.032845
 21
353.261986
  0
LINE
  5
182
100
AcDbEntity
  8
M1
  6
CONTINUOUS
370
25
 62
     7
100
AcDbLine
 10
559.032837
 20
419.60598
 11
560.032837
 21
417.873985
  0
LINE
  5
183
100
AcDbEntity
  8
M1
  6
CONTINUOUS
370
25
 62
     7
100
AcDbLine
 10
549.032921
 20
419.60598
 11
548.032921
 21
417.873878
  0
LINE
  5
184
100
AcDbEntity
  8
M1
  6
CONTINUOUS
370
25
 62
     7
100
AcDbLine
 10
559.532707
 20
418.740181
 11
563.862728
 21
421.240181
  0
LINE
  5
185
100
AcDbEntity
  8
M1
  6
CONTINUOUS
370
25
 62
     7
100
AcDbLine
 10
548.532814
 20
418.739876
 11
544.202827
 21
421.239876
  0
LINE
  5
186
100
AcDbEntity
  8
M1
  6
CONTINUOUS
370
25
 62
     7
100
AcDbLine
 10
554.032845
 20
410.945976
 11
554.032845
 21
402.636986
  0
LINE
  5
187
100
AcDbEntity
  8
M1
  6
CONTINUOUS
370
25
 62
     7
100
AcDbLine
 10
552.032845
 20
393.946983
 11
552.032845
 21
401.106987
  0
LINE
  5
188
100
AcDbEntity
  8
M1
  6
CONTINUOUS
370
25
 62
     7
100
AcDbLine
 10
556.032845
 20
393.946983
 11
556.032845
 21
400.02198
  0
LINE
  5
189
100
AcDbEntity
  8
M1
  6
CONTINUOUS
370
25
 62
     7
100
AcDbLine
 10
552.032845
 20
403.178978
 11
552.032845
 21
410.945976
  0
LINE
  5
18A
100
AcDbEntity
  8
M1
  6
CONTINUOUS
370
25
 62
     7
100
AcDbLine
 10
556.032845
 20
402.094978
 11
556.032845
 21
410.945976
  0
LINE
  5
18B
100
AcDbEntity
  8
M1
  6
CONTINUOUS
370
25
 62
     7
100
AcDbLine
 10
554.032845
 20
400.564979
 11
554.032845
 21
393.946983
  0
LINE
  5
18C
100
AcDbEntity
  8
M1
  6
CONTINUOUS
370
13
 62
     7
100
AcDbLine
 10
279.419266
 20
349.946983
 11
287.266556
 21
349.946983
  0
LINE
  5
18D
100
AcDbEntity
  8
M1
  6
CONTINUOUS
370
13
 62
     7
100
AcDbLine
 10
283.578873
 20
375.754783
 11
283.578873
 21
383.773582
  0
LINE
  5
18E
100
AcDbEntity
  8
M1
  6
CONTINUOUS
370
13
 62
     7
100
AcDbLine
 10
283.578873
 20
345.741676
 11
283.578873
 21
353.531288
  0
LINE
  5
18F
100
AcDbEntity
  8
M1
  6
CONTINUOUS
370
13
 62
     7
100
AcDbLine
 10
374.473251
 20
349.946983
 11
367.711853
 21
349.946983
  0
LINE
  5
190
100
AcDbEntity
  8
M1
  6
CONTINUOUS
370
25
 62
     7
100
AcDbLine
 10
285.078873
 20
364.446983
 11
286.37886
 21
364.446983
  0
LINE
  5
191
100
AcDbEntity
  8
M1
  6
CONTINUOUS
370
25
 62
     7
100
AcDbLine
 10
284.578873
 20
363.946983
 11
284.578873
 21
359.896889
  0
LINE
  5
192
100
AcDbEntity
  8
M1
  6
CONTINUOUS
370
25
 62
     7
100
AcDbLine
 10
287.87886
 20
362.946983
 11
287.87886
 21
360.220588
  0
LINE
  5
193
100
AcDbEntity
  8
M1
  6
CONTINUOUS
370
25
 62
     7
100
AcDbLine
 10
282.578873
 20
363.946983
 11
282.578873
 21
359.896889
  0
LINE
  5
194
100
AcDbEntity
  8
M1
  6
CONTINUOUS
370
25
 62
     7
100
AcDbLine
 10
282.078873
 20
364.446983
 11
280.778854
 21
364.446983
  0
LINE
  5
195
100
AcDbEntity
  8
M1
  6
CONTINUOUS
370
25
 62
     7
100
AcDbLine
 10
279.278854
 20
362.946983
 11
279.278854
 21
360.220588
  0
LINE
  5
196
100
AcDbEntity
  8
M1
  6
CONTINUOUS
370
13
 62
     7
100
AcDbLine
 10
288.637161
 20
349.946983
 11
294.33577
 21
349.946983
  0
LINE
  5
197
100
AcDbEntity
  8
M1
  6
CONTINUOUS
370
13
 62
     7
100
AcDbLine
 10
554.032845
 20
361.198875
 11
554.032845
 21
355.10778
  0
LINE
  5
198
100
AcDbEntity
  8
M1
  6
CONTINUOUS
370
13
 62
     7
100
AcDbLine
 10
543.155365
 20
349.946983
 11
548.969566
 21
349.946983
  0
CIRCLE
  5
199
100
AcDbEntity
  8
M1
  6
CONTINUOUS
370
25
 62
     7
100
AcDbCircle
 10
454.399857
 20
365.446983
 40
3.667007
  0
ARC
  5
19A
100
AcDbEntity
  8
M1
  6
CONTINUOUS
370
25
 62
     7
100
AcDbCircle
 10
459.399857
 20
369.946983
 40
1.0
100
AcDbArc
 50
0.0
 51
90.0
  0
ARC
  5
19B
100
AcDbEntity
  8
M1
  6
CONTINUOUS
370
25
 62
     7
100
AcDbCircle
 10
449.399857
 20
369.946983
 40
1.0
100
AcDbArc
 50
90.0
 51
180.0
  0
ARC
  5
19C
100
AcDbEntity
  8
M1
  6
CONTINUOUS
370
25
 62
     7
100
AcDbCircle
 10
449.399857
 20
360.946983
 40
1.0
100
AcDbArc
 50
180.0
 51
270.0
  0
ARC
  5
19D
100
AcDbEntity
  8
M1
  6
CONTINUOUS
370
25
 62
     7
100
AcDbCircle
 10
459.399857
 20
360.946983
 40
1.0
100
AcDbArc
 50
270.0
 51
360.0
  0
CIRCLE
  5
19E
100
AcDbEntity
  8
M1
  6
CONTINUOUS
370
25
 62
     7
100
AcDbCircle
 10
389.399857
 20
365.446983
 40
3.667007
  0
ARC
  5
19F
100
AcDbEntity
  8
M1
  6
CONTINUOUS
370
25
 62
     7
100
AcDbCircle
 10
384.399857
 20
369.946983
 40
1.0
100
AcDbArc
 50
90.0
 51
180.0
  0
ARC
  5
1A0
100
AcDbEntity
  8
M1
  6
CONTINUOUS
370
25
 62
     7
100
AcDbCircle
 10
394.399857
 20
369.946983
 40
1.0
100
AcDbArc
 50
0.0
 51
90.0
  0
ARC
  5
1A1
100
AcDbEntity
  8
M1
  6
CONTINUOUS
370
25
 62
     7
100
AcDbCircle
 10
394.399857
 20
360.946983
 40
1.0
100
AcDbArc
 50
270.0
 51
360.0
  0
ARC
  5
1A2
100
AcDbEntity
  8
M1
  6
CONTINUOUS
370
25
 62
     7
100
AcDbCircle
 10
384.399857
 20
360.946983
 40
1.0
100
AcDbArc
 50
180.0
 51
270.0
  0
ARC
  5
1A3
100
AcDbEntity
  8
M1
  6
CONTINUOUS
370
25
 62
     7
100
AcDbCircle
 10
436.29985
 20
372.046974
 40
0.5
100
AcDbArc
 50
0.0
 51
90.0
  0
ARC
  5
1A4
100
AcDbEntity
  8
M1
  6
CONTINUOUS
370
25
 62
     7
100
AcDbCircle
 10
403.29985
 20
372.046974
 40
0.5
100
AcDbArc
 50
90.0
 51
180.0
  0
CIRCLE
  5
1A5
100
AcDbEntity
  8
M1
  6
CONTINUOUS
370
25
 62
     7
100
AcDbCircle
 10
443.399857
 20
380.446983
 40
3.667007
  0
ARC
  5
1A6
100
AcDbEntity
  8
M1
  6
CONTINUOUS
370
25
 62
     7
100
AcDbCircle
 10
438.399857
 20
384.946983
 40
1.0
100
AcDbArc
 50
90.0
 51
180.0
  0
ARC
  5
1A7
100
AcDbEntity
  8
M1
  6
CONTINUOUS
370
25
 62
     7
100
AcDbCircle
 10
448.399857
 20
384.946983
 40
1.0
100
AcDbArc
 50
0.0
 51
90.0
  0
ARC
  5
1A8
100
AcDbEntity
  8
M1
  6
CONTINUOUS
370
25
 62
     7
100
AcDbCircle
 10
448.399857
 20
375.946983
 40
1.0
100
AcDbArc
 50
270.0
 51
360.0
  0
ARC
  5
1A9
100
AcDbEntity
  8
M1
  6
CONTINUOUS
370
25
 62
     7
100
AcDbCircle
 10
438.399857
 20
375.946983
 40
1.0
100
AcDbArc
 50
180.0
 51
270.0
  0
CIRCLE
  5
1AA
100
AcDbEntity
  8
M1
  6
CONTINUOUS
370
25
 62
     7
100
AcDbCircle
 10
396.399857
 20
380.446983
 40
3.667007
  0
ARC
  5
1AB
100
AcDbEntity
  8
M1
  6
CONTINUOUS
370
25
 62
     7
100
AcDbCircle
 10
401.400864
 20
384.946983
 40
1.0
100
AcDbArc
 50
0.0
 51
90.0
  0
ARC
  5
1AC
100
AcDbEntity
  8
M1
  6
CONTINUOUS
370
25
 62
     7
100
AcDbCircle
 10
391.400864
 20
384.946983
 40
1.0
100
AcDbArc
 50
90.0
 51
180.0
  0
ARC
  5
1AD
100
AcDbEntity
  8
M1
  6
CONTINUOUS
370
25
 62
     7
100
AcDbCircle
 10
391.399857
 20
375.946983
 40
1.0
100
AcDbArc
 50
180.0
 51
270.0
  0
ARC
  5
1AE
100
AcDbEntity
  8
M1
  6
CONTINUOUS
370
25
 62
     7
100
AcDbCircle
 10
401.399857
 20
375.946983
 40
1.0
100
AcDbArc
 50
270.0
 51
360.0
  0
ARC
  5
1AF
100
AcDbEntity
  8
M1
  6
CONTINUOUS
370
25
 62
     7
100
AcDbCircle
 10
428.899857
 20
410.945976
 40
10.000655
100
AcDbArc
 50
119.997833
 51
180.0
  0
ARC
  5
1B0
100
AcDbEntity
  8
M1
  6
CONTINUOUS
370
25
 62
     7
100
AcDbCircle
 10
410.899857
 20
410.945976
 40
10.000048
100
AcDbArc
 50
25.842499
 51
60.002239
  0
ARC
  5
1B1
100
AcDbEntity
  8
M1
  6
CONTINUOUS
370
25
 62
     7
100
AcDbCircle
 10
428.899857
 20
410.945976
 40
7.999832
100
AcDbArc
 50
120.000694
 51
180.0
  0
ARC
  5
1B2
100
AcDbEntity
  8
M1
  6
CONTINUOUS
370
25
 62
     7
100
AcDbCircle
 10
410.899857
 20
410.945976
 40
8.0
100
AcDbArc
 50
0.0
 51
59.999352
  0
ARC
  5
1B3
100
AcDbEntity
  8
M1
  6
CONTINUOUS
370
25
 62
     7
100
AcDbCircle
 10
417.42186
 20
393.446983
 40
0.5
100
AcDbArc
 50
90.0
 51
180.0
  0
ARC
  5
1B4
100
AcDbEntity
  8
M1
  6
CONTINUOUS
370
25
 62
     7
100
AcDbCircle
 10
422.37886
 20
393.446983
 40
0.5
100
AcDbArc
 50
0.0
 51
90.0
  0
CIRCLE
  5
1B5
100
AcDbEntity
  8
M1
  6
CONTINUOUS
370
25
 62
     7
100
AcDbCircle
 10
283.578873
 20
349.946983
 40
56.0
  0
CIRCLE
  5
1B6
100
AcDbEntity
  8
M1
  6
CONTINUOUS
370
25
 62
     7
100
AcDbCircle
 10
283.578873
 20
349.946983
 40
43.0
  0
CIRCLE
  5
1B7
100
AcDbEntity
  8
M1
  6
CONTINUOUS
370
25
 62
     7
100
AcDbCircle
 10
283.578873
 20
349.946983
 40
10.0
  0
CIRCLE
  5
1B8
100
AcDbEntity
  8
M1
  6
CONTINUOUS
370
25
 62
     7
100
AcDbCircle
 10
283.578873
 20
349.946983
 40
6.0
  0
CIRCLE
  5
1B9
100
AcDbEntity
  8
M1
  6
CONTINUOUS
370
25
 62
     7
100
AcDbCircle
 10
283.578873
 20
349.946983
 40
35.0
  0
CIRCLE
  5
1BA
100
AcDbEntity
  8
M1
  6
CONTINUOUS
370
25
 62
     7
100
AcDbCircle
 10
283.578873
 20
349.946983
 40
21.0
  0
CIRCLE
  5
1BB
100
AcDbEntity
  8
M1
  6
CONTINUOUS
370
13
 62
     7
100
AcDbCircle
 10
283.578873
 20
379.946983
 40
2.0
  0
CIRCLE
  5
1BC
100
AcDbEntity
  8
M1
  6
CONTINUOUS
370
25
 62
     7
100
AcDbCircle
 10
283.578873
 20
379.946983
 40
1.599976
  0
ARC
  5
1BD
100
AcDbEntity
  8
M1
  6
CONTINUOUS
370
13
 62
     7
100
AcDbCircle
 10
283.578873
 20
349.946983
 40
29.999979
100
AcDbArc
 50
84.623543
 51
95.405487
  0
CIRCLE
  5
1BE
100
AcDbEntity
  8
M1
  6
CONTINUOUS
370
13
 62
     7
100
AcDbCircle
 10
253.578873
 20
349.946983
 40
2.0
  0
CIRCLE
  5
1BF
100
AcDbEntity
  8
M1
  6
CONTINUOUS
370
25
 62
     7
100
AcDbCircle
 10
253.578873
 20
349.946983
 40
1.599976
  0
ARC
  5
1C0
100
AcDbEntity
  8
M1
  6
CONTINUOUS
370
13
 62
     7
100
AcDbCircle
 10
283.578873
 20
349.946983
 40
29.999903
100
AcDbArc
 50
174.625397
 51
185.405292
  0
CIRCLE
  5
1C1
100
AcDbEntity
  8
M1
  6
CONTINUOUS
370
13
 62
     7
100
AcDbCircle
 10
283.578873
 20
319.946983
 40
2.0
  0
CIRCLE
  5
1C2
100
AcDbEntity
  8
M1
  6
CONTINUOUS
370
25
 62
     7
100
AcDbCircle
 10
283.578873
 20
319.946983
 40
1.599976
  0
ARC
  5
1C3
100
AcDbEntity
  8
M1
  6
CONTINUOUS
370
13
 62
     7
100
AcDbCircle
 10
283.578873
 20
349.946983
 40
29.999899
100
AcDbArc
 50
264.625336
 51
275.40509
  0
CIRCLE
  5
1C4
100
AcDbEntity
  8
M1
  6
CONTINUOUS
370
13
 62
     7
100
AcDbCircle
 10
313.578873
 20
349.946983
 40
2.0
  0
CIRCLE
  5
1C5
100
AcDbEntity
  8
M1
  6
CONTINUOUS
370
25
 62
     7
100
AcDbCircle
 10
313.578873
 20
349.946983
 40
1.599976
  0
ARC
  5
1C6
100
AcDbEntity
  8
M1
  6
CONTINUOUS
370
13
 62
     7
100
AcDbCircle
 10
283.578873
 20
349.946983
 40
29.999968
100
AcDbArc
 50
354.623474
 51
365.405279
  0
CIRCLE
  5
1C7
100
AcDbEntity
  8
M1
  6
CONTINUOUS
370
25
 62
     7
100
AcDbCircle
 10
248.223862
 20
385.301979
 40
2.25
  0
ARC
  5
1C8
100
AcDbEntity
  8
M1
  6
CONTINUOUS
370
13
 62
     7
100
AcDbCircle
 10
283.578873
 20
349.946983
 40
49.999989
100
AcDbArc
 50
130.725845
 51
139.253038
  0
CIRCLE
  5
1C9
100
AcDbEntity
  8
M1
  6
CONTINUOUS
370
25
 62
     7
100
AcDbCircle
 10
248.223862
 20
314.59098
 40
2.25
  0
ARC
  5
1CA
100
AcDbEntity
  8
M1
  6
CONTINUOUS
370
13
 62
     7
100
AcDbCircle
 10
283.578873
 20
349.946983
 40
50.000008
100
AcDbArc
 50
220.725815
 51
229.25299
  0
CIRCLE
  5
1CB
100
AcDbEntity
  8
M1
  6
CONTINUOUS
370
25
 62
     7
100
AcDbCircle
 10
318.93486
 20
314.59098
 40
2.25
  0
ARC
  5
1CC
100
AcDbEntity
  8
M1
  6
CONTINUOUS
370
13
 62
     7
100
AcDbCircle
 10
283.578873
 20
349.946983
 40
49.999969
100
AcDbArc
 50
310.72583
 51
319.253026
  0
ARC
  5
1CD
100
AcDbEntity
  8
M1
  6
CONTINUOUS
370
25
 62
     7
100
AcDbCircle
 10
554.032845
 20
349.946983
 40
55.999729
100
AcDbArc
 50
92.046738
 51
447.953262
  0
CIRCLE
  5
1CE
100
AcDbEntity
  8
M1
  6
CONTINUOUS
370
25
 62
     7
100
AcDbCircle
 10
554.032845
 20
349.946983
 40
43.000004
  0
CIRCLE
  5
1CF
100
AcDbEntity
  8
M1
  6
CONTINUOUS
370
25
 62
     7
100
AcDbCircle
 10
554.032845
 20
349.946983
 40
25.000004
  0
CIRCLE
  5
1D0
100
AcDbEntity
  8
M1
  6
CONTINUOUS
370
25
 62
     7
100
AcDbCircle
 10
554.032845
 20
349.946983
 40
10.000004
  0
CIRCLE
  5
1D1
100
AcDbEntity
  8
M1
  6
CONTINUOUS
370
25
 62
     7
100
AcDbCircle
 10
554.032845
 20
349.946983
 40
6.000004
  0
ARC
  5
1D2
100
AcDbEntity
  8
M1
  6
CONTINUOUS
370
25
 62
     7
100
AcDbCircle
 10
554.032845
 20
349.446983
 40
12.999421
100
AcDbArc
 50
101.487953
 51
438.511909
  0
ARC
  5
1D3
100
AcDbEntity
  8
M1
  6
CONTINUOUS
370
25
 62
     7
100
AcDbCircle
 10
554.032845
 20
348.946983
 40
28.499739
100
AcDbArc
 50
96.274902
 51
443.725006
  0
CIRCLE
  5
1D4
100
AcDbEntity
  8
M1
  6
CONTINUOUS
370
25
 62
     7
100
AcDbCircle
 10
552.109848
 20
378.119987
 40
0.600006
  0
CIRCLE
  5
1D5
100
AcDbEntity
  8
M1
  6
CONTINUOUS
370
25
 62
     7
100
AcDbCircle
 10
552.379868
 20
363.020988
 40
0.599983
  0
CIRCLE
  5
1D6
100
AcDbEntity
  8
M1
  6
CONTINUOUS
370
25
 62
     7
100
AcDbCircle
 10
555.685867
 20
363.020988
 40
0.599983
  0
CIRCLE
  5
1D7
100
AcDbEntity
  8
M1
  6
CONTINUOUS
370
25
 62
     7
100
AcDbCircle
 10
555.955856
 20
378.119987
 40
0.599998
  0
ARC
  5
1D8
100
AcDbEntity
  8
M1
  6
CONTINUOUS
370
25
 62
     7
100
AcDbCircle
 10
557.232868
 20
393.64698
 40
0.29998
100
AcDbArc
 50
0.0
 51
90.0
  0
ARC
  5
1D9
100
AcDbEntity
  8
M1
  6
CONTINUOUS
370
25
 62
     7
100
AcDbCircle
 10
550.83287
 20
393.64698
 40
0.300003
100
AcDbArc
 50
90.0
 51
180.0
  0
CIRCLE
  5
1DA
100
AcDbEntity
  8
M1
  6
CONTINUOUS
370
25
 62
     7
100
AcDbCircle
 10
318.93486
 20
385.301979
 40
2.25
  0
ARC
  5
1DB
100
AcDbEntity
  8
M1
  6
CONTINUOUS
370
13
 62
     7
100
AcDbCircle
 10
283.578873
 20
349.946983
 40
49.999981
100
AcDbArc
 50
40.72583
 51
49.253129
  0
CIRCLE
  5
1DC
100
AcDbEntity
  8
M1
  6
CONTINUOUS
370
25
 62
     7
100
AcDbCircle
 10
589.387867
 20
385.301979
 40
2.25
  0
ARC
  5
1DD
100
AcDbEntity
  8
M1
  6
CONTINUOUS
370
13
 62
     7
100
AcDbCircle
 10
554.032845
 20
349.946983
 40
49.999985
100
AcDbArc
 50
40.725826
 51
49.253053
  0
CIRCLE
  5
1DE
100
AcDbEntity
  8
M1
  6
CONTINUOUS
370
25
 62
     7
100
AcDbCircle
 10
518.677856
 20
385.301979
 40
2.25
  0
ARC
  5
1DF
100
AcDbEntity
  8
M1
  6
CONTINUOUS
370
13
 62
     7
100
AcDbCircle
 10
554.032845
 20
349.946983
 40
49.999989
100
AcDbArc
 50
130.725845
 51
139.253927
  0
CIRCLE
  5
1E0
100
AcDbEntity
  8
M1
  6
CONTINUOUS
370
25
 62
     7
100
AcDbCircle
 10
518.677856
 20
314.59098
 40
2.25
  0
ARC
  5
1E1
100
AcDbEntity
  8
M1
  6
CONTINUOUS
370
13
 62
     7
100
AcDbCircle
 10
554.032845
 20
349.946983
 40
49.999973
100
AcDbArc
 50
220.725845
 51
229.253043
  0
CIRCLE
  5
1E2
100
AcDbEntity
  8
M1
  6
CONTINUOUS
370
25
 62
     7
100
AcDbCircle
 10
589.387867
 20
314.59098
 40
2.25
  0
ARC
  5
1E3
100
AcDbEntity
  8
M1
  6
CONTINUOUS
370
13
 62
     7
100
AcDbCircle
 10
554.032845
 20
349.946983
 40
49.999992
100
AcDbArc
 50
310.725861
 51
319.253026
  0
ARC
  5
1E4
100
AcDbEntity
  8
M1
  6
CONTINUOUS
370
25
 62
     7
100
AcDbCircle
 10
273.578873
 20
410.945976
 40
10.0
100
AcDbArc
 50
0.0
 51
59.999397
  0
ARC
  5
1E5
100
AcDbEntity
  8
M1
  6
CONTINUOUS
370
25
 62
     7
100
AcDbCircle
 10
293.578873
 20
410.945976
 40
9.999784
100
AcDbArc
 50
120.000717
 51
180.0
  0
ARC
  5
1E6
100
AcDbEntity
  8
M1
  6
CONTINUOUS
370
25
 62
     7
100
AcDbCircle
 10
273.578873
 20
410.945976
 40
8.0
100
AcDbArc
 50
0.0
 51
59.999447
  0
ARC
  5
1E7
100
AcDbEntity
  8
M1
  6
CONTINUOUS
370
25
 62
     7
100
AcDbCircle
 10
293.578873
 20
410.945976
 40
7.999832
100
AcDbArc
 50
120.000694
 51
180.0
  0
ARC
  5
1E8
100
AcDbEntity
  8
M1
  6
CONTINUOUS
370
25
 62
     7
100
AcDbCircle
 10
544.032845
 20
410.945976
 40
10.0
100
AcDbArc
 50
0.0
 51
59.999283
  0
ARC
  5
1E9
100
AcDbEntity
  8
M1
  6
CONTINUOUS
370
25
 62
     7
100
AcDbCircle
 10
564.032848
 20
410.945976
 40
9.999784
100
AcDbArc
 50
120.000717
 51
180.0
  0
ARC
  5
1EA
100
AcDbEntity
  8
M1
  6
CONTINUOUS
370
25
 62
     7
100
AcDbCircle
 10
544.032845
 20
410.945976
 40
8.0
100
AcDbArc
 50
0.0
 51
59.999447
  0
ARC
  5
1EB
100
AcDbEntity
  8
M1
  6
CONTINUOUS
370
25
 62
     7
100
AcDbCircle
 10
564.032848
 20
410.945976
 40
7.999832
100
AcDbArc
 50
120.000694
 51
180.0
  0
ARC
  5
1EC
100
AcDbEntity
  8
M1
  6
CONTINUOUS
370
25
 62
     7
100
AcDbCircle
 10
283.578873
 20
349.446983
 40
11.600032
100
AcDbArc
 50
111.758194
 51
428.241959
  0
ARC
  5
1ED
100
AcDbEntity
  8
M1
  6
CONTINUOUS
370
25
 62
     7
100
AcDbCircle
 10
285.078873
 20
363.946983
 40
0.5
100
AcDbArc
 50
90.0
 51
180.0
  0
ARC
  5
1EE
100
AcDbEntity
  8
M1
  6
CONTINUOUS
370
25
 62
     7
100
AcDbCircle
 10
286.37886
 20
362.946983
 40
1.5
100
AcDbArc
 50
0.0
 51
90.0
  0
CIRCLE
  5
1EF
100
AcDbEntity
  8
M1
  6
CONTINUOUS
370
25
 62
     7
100
AcDbCircle
 10
286.148453
 20
361.995277
 40
1.0
  0
ARC
  5
1F0
100
AcDbEntity
  8
M1
  6
CONTINUOUS
370
25
 62
     7
100
AcDbCircle
 10
282.078873
 20
363.946983
 40
0.5
100
AcDbArc
 50
0.0
 51
90.0
  0
ARC
  5
1F1
100
AcDbEntity
  8
M1
  6
CONTINUOUS
370
25
 62
     7
100
AcDbCircle
 10
280.778854
 20
362.946983
 40
1.5
100
AcDbArc
 50
90.0
 51
180.0
  0
CIRCLE
  5
1F2
100
AcDbEntity
  8
M1
  6
CONTINUOUS
370
25
 62
     7
100
AcDbCircle
 10
281.009171
 20
361.995277
 40
1.0
  0
LINE
  5
1F3
100
AcDbEntity
  8
M1
  6
CONTINUOUS
370
13
 62
     7
100
AcDbLine
 10
375.399857
 20
356.446983
 11
379.399857
 21
356.446983
  0
LINE
  5
1F4
100
AcDbEntity
  8
M1
  6
CONTINUOUS
370
25
 62
     7
100
AcDbLine
 10
379.399857
 20
359.446983
 11
378.999954
 21
359.946983
  0
LINE
  5
1F5
100
AcDbEntity
  8
M1
  6
CONTINUOUS
370
13
 62
     7
100
AcDbLine
 10
379.399857
 20
355.946983
 11
379.399857
 21
359.946983
  0
LINE
  5
1F6
100
AcDbEntity
  8
M1
  6
CONTINUOUS
370
13
 62
     7
100
AcDbLine
 10
375.399857
 20
359.946983
 11
375.399857
 21
355.946983
  0
LINE
  5
1F7
100
AcDbEntity
  8
M1
  6
CONTINUOUS
370
25
 62
     7
100
AcDbLine
 10
375.799851
 20
355.946983
 11
375.399857
 21
356.446983
  0
LINE
  5
1F8
100
AcDbEntity
  8
M1
  6
CONTINUOUS
370
25
 62
     7
100
AcDbLine
 10
378.999832
 20
355.946983
 11
378.999832
 21
359.946983
  0
LINE
  5
1F9
100
AcDbEntity
  8
M1
  6
CONTINUOUS
370
25
 62
     7
100
AcDbLine
 10
378.999832
 20
355.946876
 11
379.399857
 21
356.446876
  0
LINE
  5
1FA
100
AcDbEntity
  8
M1
  6
CONTINUOUS
370
13
 62
     7
100
AcDbLine
 10
375.399857
 20
359.446983
 11
379.399857
 21
359.446983
  0
LINE
  5
1FB
100
AcDbEntity
  8
M1
  6
CONTINUOUS
370
25
 62
     7
100
AcDbLine
 10
375.799851
 20
359.946983
 11
375.799851
 21
355.946983
  0
LINE
  5
1FC
100
AcDbEntity
  8
M1
  6
CONTINUOUS
370
25
 62
     7
100
AcDbLine
 10
375.399857
 20
359.446876
 11
375.799942
 21
359.946876
  0
LINE
  5
1FD
100
AcDbEntity
  8
M1
  6
CONTINUOUS
370
25
 62
     7
100
AcDbLine
 10
467.999832
 20
355.946983
 11
467.999832
 21
359.946983
  0
LINE
  5
1FE
100
AcDbEntity
  8
M1
  6
CONTINUOUS
370
25
 62
     7
100
AcDbLine
 10
464.799851
 20
355.946983
 11
464.399857
 21
356.446983
  0
LINE
  5
1FF
100
AcDbEntity
  8
M1
  6
CONTINUOUS
370
25
 62
     7
100
AcDbLine
 10
467.999832
 20
355.946876
 11
468.399857
 21
356.446876
  0
LINE
  5
200
100
AcDbEntity
  8
M1
  6
CONTINUOUS
370
25
 62
     7
100
AcDbLine
 10
464.799851
 20
359.946983
 11
464.799851
 21
355.946983
  0
LINE
  5
201
100
AcDbEntity
  8
M1
  6
CONTINUOUS
370
13
 62
     7
100
AcDbLine
 10
464.399857
 20
359.446983
 11
468.399857
 21
359.446983
  0
LINE
  5
202
100
AcDbEntity
  8
M1
  6
CONTINUOUS
370
13
 62
     7
100
AcDbLine
 10
464.399857
 20
356.446983
 11
468.399857
 21
356.446983
  0
LINE
  5
203
100
AcDbEntity
  8
M1
  6
CONTINUOUS
370
25
 62
     7
100
AcDbLine
 10
464.399857
 20
359.946983
 11
468.399857
 21
359.946983
  0
LINE
  5
204
100
AcDbEntity
  8
M1
  6
CONTINUOUS
370
25
 62
     7
100
AcDbLine
 10
468.399857
 20
359.446983
 11
467.999954
 21
359.946983
  0
LINE
  5
205
100
AcDbEntity
  8
M1
  6
CONTINUOUS
370
13
 62
     7
100
AcDbLine
 10
464.399857
 20
359.946983
 11
464.399857
 21
355.946983
  0
LINE
  5
206
100
AcDbEntity
  8
M1
  6
CONTINUOUS
370
13
 62
     7
100
AcDbLine
 10
468.399857
 20
355.946983
 11
468.399857
 21
359.946983
  0
LINE
  5
207
100
AcDbEntity
  8
M1
  6
CONTINUOUS
370
25
 62
     7
100
AcDbLine
 10
464.399857
 20
359.446876
 11
464.799942
 21
359.946876
  0
ARC
  5
208
100
AcDbEntity
  8
M1
  6
CONTINUOUS
370
13
100
AcDbCircle
 10
377.399857
 20
349.946983
 40
2.0
100
AcDbArc
 50
180.0
 51
360.0
  0
ARC
  5
209
100
AcDbEntity
  8
M1
  6
CONTINUOUS
370
25
100
AcDbCircle
 10
377.399857
 20
349.946968
 40
1.599999
100
AcDbArc
 50
179.999454
 51
360.000546
  0
ARC
  5
20A
100
AcDbEntity
  8
M1
  6
CONTINUOUS
370
13
100
AcDbCircle
 10
466.399857
 20
349.946983
 40
2.0
100
AcDbArc
 50
180.0
 51
360.0
  0
ARC
  5
20B
100
AcDbEntity
  8
M1
  6
CONTINUOUS
370
25
100
AcDbCircle
 10
466.399857
 20
349.946968
 40
1.599999
100
AcDbArc
 50
179.999454
 51
360.000546
  0
TEXT
  5
20C
100
AcDbEntity
  8
M2
100
AcDbText
 10
580.073242
 20
229.447693
 40
4.5
  1
ＰＭＣ－４０Ａ
 41
0.833333
  7
STANDARD
100
AcDbText
  0
TEXT
  5
20D
100
AcDbEntity
  8
M2
100
AcDbText
 10
609.959839
 20
230.436569
 40
2.242
  1
３
 41
0.83259
  7
STANDARD
100
AcDbText
  0
TEXT
  5
20E
100
AcDbEntity
  8
M2
100
AcDbText
 10
272.936768
 20
260.535278
 40
4.5
  1
Ｄ１
 41
0.712963
  7
STANDARD
100
AcDbText
  0
TEXT
  5
20F
100
AcDbEntity
  8
M2
100
AcDbText
 10
416.304871
 20
267.491669
 40
4.5
  1
Ｄ２
 41
0.833333
  7
STANDARD
100
AcDbText
  0
TEXT
  5
210
100
AcDbEntity
  8
M2
100
AcDbText
 10
558.749146
 20
267.491669
 40
4.5
  1
Ｄ３
 41
0.833333
  7
STANDARD
100
AcDbText
  0
TEXT
  5
211
100
AcDbEntity
  8
M2
100
AcDbText
 10
574.525635
 20
219.603302
 40
4.5
  1
（ＳＤＫ６５６４）
 41
0.833333
  7
STANDARD
100
AcDbText
  0
ENDSEC
  0
SECTION
  2
OBJECTS
  0
DICTIONARY
  5
C
100
AcDbDictionary
  3
ACAD_GROUP
350
D
  3
ACAD_MLINESTYLE
350
E
  0
DICTIONARY
  5
D
102
{ACAD_REACTORS
330
C
102
}
100
AcDbDictionary
  0
DICTIONARY
  5
E
102
{ACAD_REACTORS
330
C
102
}
100
AcDbDictionary
  3
STANDARD
350
13
  0
MLINESTYLE
  5
13
102
{ACAD_REACTORS
330
E
102
}
100
AcDbMlineStyle
  2
STANDARD
 70
     0
  3

 62
     0
 51
90.0
 52
90.0
 71
     2
 49
0.5
 62
   256
  6
BYLAYER
 49
-0.5
 62
   256
  6
BYLAYER
  0
ENDSEC
  0
EOF
