  0
SECTION
  2
HEADER
  9
$ACADVER
  1
AC1015
  9
$INSBASE
 10
0.0
 20
0.0
  9
$VIEWCTR
 10
7.531722
 20
4.5
  9
$VIEWSIZE
 40
9.0
  9
$SNAPMODE
 70
     0
  9
$SNAPUNIT
 10
1.0
 20
1.0
  9
$SNAPBASE
 10
0.0
 20
0.0
  9
$SNAPANG
 50
0.0
  9
$SNAPSTYLE
 70
     0
  9
$SNAPISOPAIR
 70
     0
  9
$GRIDMODE
 70
     0
  9
$GRIDUNIT
 10
0.0
 20
0.0
  9
$ORTHOMODE
 70
     0
  9
$REGENMODE
 70
     1
  9
$FILLMODE
 70
     1
  9
$QTEXTMODE
 70
     0
  9
$DRAGMODE
 70
     2
  9
$LTSCALE
 40
1.0
  9
$OSMODE
 70
     0
  9
$ATTMODE
 70
     1
  9
$TEXTSIZE
 40
0.2
  9
$TRACEWID
 40
0.05
  9
$TEXTSTYLE
  7
STANDARD
  9
$CELTYPE
  6
BYLAYER
  9
$CECOLOR
 62
   256
  9
$DIMSCALE
 40
1.0
  9
$DIMASZ
 40
0.18
  9
$DIMEXO
 40
0.0625
  9
$DIMDLI
 40
0.38
  9
$DIMRND
 40
0.0
  9
$DIMDLE
 40
0.0
  9
$DIMEXE
 40
0.18
  9
$DIMTP
 40
0.0
  9
$DIMTM
 40
0.0
  9
$DIMTXT
 40
0.18
  9
$DIMCEN
 40
0.09
  9
$DIMTSZ
 40
0.0
  9
$DIMADEC
 70
     0
  9
$DIMALTRND
 40
0.000000
  9
$DIMAZIN
 70
     0
  9
$DIMDSEP
 70
    46
  9
$DIMATFIT
 70
     3
  9
$DIMFRAC
 70
     0
  9
$DIMLDRBLK
  1

  9
$DIMLUNIT
 70
     2
  9
$DIMLWD
 70
   13
  9
$DIMLWE
 70
   13
  9
$DIMTMOVE
 70
     0
  9
$CELWEIGHT
370
    25
  9
$LWDISPLAY
290
    1
  9
$EXTNAMES
290
    1
  9
$DIMTOL
 70
     0
  9
$DIMLIM
 70
     0
  9
$DIMTIH
 70
     1
  9
$DIMTOH
 70
     1
  9
$DIMSE1
 70
     0
  9
$DIMSE2
 70
     0
  9
$DIMTAD
 70
     0
  9
$DIMZIN
 70
     0
  9
$DIMBLK
  1

  9
$LUNITS
 70
     2
  9
$LUPREC
 70
     4
  9
$AXISMODE
 70
     0
  9
$AXISUNIT
 10
0.0
 20
0.0
  9
$SKETCHINC
 40
0.1
  9
$FILLETRAD
 40
0.0
  9
$AUNITS
 70
     0
  9
$AUPREC
 70
     0
  9
$MENU
  1
ACAD
  9
$ELEVATION
 40
0.0
  9
$THICKNESS
 40
0.0
  9
$VIEWDIR
 10
0.0
 20
0.0
 30
1.0
  9
$LIMCHECK
 70
     0
  9
$BLIPMODE
 70
     1
  9
$CHAMFERA
 40
0.0
  9
$CHAMFERB
 40
0.0
  9
$FASTZOOM
 70
     1
  9
$SKPOLY
 70
     0
  9
$TDCREATE
 40
0000000.0000000000
  9
$TDUPDATE
 40
0000000.0000000000
  9
$TDINDWG
 40
0.0000000000
  9
$TDUSRTIMER
 40
0.0000000000
  9
$USRTIMER
 70
     1
  9
$ANGBASE
 50
0.0
  9
$ANGDIR
 70
     0
  9
$PDMODE
 70
     0
  9
$PDSIZE
 40
0.0
  9
$PLINEWID
 40
0.0
  9
$COORDS
 70
     0
  9
$USERI1
 70
     0
  9
$USERI2
 70
     0
  9
$USERI3
 70
     0
  9
$USERI4
 70
     0
  9
$USERI5
 70
     0
  9
$USERR1
 40
0.0
  9
$USERR2
 40
0.0
  9
$USERR3
 40
0.0
  9
$USERR4
 40
0.0
  9
$USERR5
 40
0.0
  9
$CLAYER
  8
M0
  9
$EXTMIN
 10
0.0
 20
0.0
  9
$EXTMAX
 10
841.0
 20
594.0
  9
$LIMMIN
 10
0.0
 20
0.0
  9
$LIMMAX
 10
841.0
 20
594.0
  9
$HANDSEED
  5
173
  0
ENDSEC
  0
SECTION
  2
CLASSES
  0
ENDSEC
  0
SECTION
  2
TABLES
  0
TABLE
  2
VPORT
  5
8
100
AcDbSymbolTable
 70
     2
  0
VPORT
  5
14
100
AcDbSymbolTableRecord
100
AcDbViewportTableRecord
  2
*ACTIVE
 70
     0
 10
0.0
 20
0.0
 11
1.0
 21
1.0
 12
484.0
 22
297.0
 13
0.0
 23
0.0
 14
1.0
 24
1.0
 15
0.0
 25
0.0
 16
0.0
 26
0.0
 36
1.0
 17
0.0
 27
0.0
 37
0.0
 40
594.0
 41
2.0
 42
50.0
 43
0.0
 44
0.0
 50
0.0
 51
0.0
 71
     0
 72
   100
 73
     1
 74
     1
 75
     0
 76
     0
 77
     0
 78
     0
  0
ENDTAB
  0
TABLE
  2
LTYPE
  5
5
100
AcDbSymbolTable
 70
     5
  0
LTYPE
  5
15
100
AcDbSymbolTableRecord
100
AcDbLinetypeTableRecord
  2
BYBLOCK
 70
     0
  3

 72
    65
 73
     0
 40
0.0
  0
LTYPE
  5
16
100
AcDbSymbolTableRecord
100
AcDbLinetypeTableRecord
  2
BYLAYER
 70
     0
  3

 72
    65
 73
     0
 40
0.0
  0
LTYPE
  5
17
100
AcDbSymbolTableRecord
100
AcDbLinetypeTableRecord
  2
CONTINUOUS
 70
    64
  3
Solid line
 72
    65
 73
     0
 40
0.0
  0
LTYPE
  5
18
100
AcDbSymbolTableRecord
100
AcDbLinetypeTableRecord
  2
DASHED
 70
    64
  3
__ __ __ __ __ __ __ __ __ __ __ __ __ __ __ __
 72
    65
 73
     2
 40
0.75
 49
0.5
 74
     0
 49
-0.25
 74
     0
  0
LTYPE
  5
19
100
AcDbSymbolTableRecord
100
AcDbLinetypeTableRecord
  2
DASHDOT
 70
    64
  3
__ . __ . __ . __ . __ . __ . __ . __ . __ . __
 72
    65
 73
     4
 40
1.0
 49
0.5
 74
     0
 49
-0.25
 74
     0
 49
0.0
 74
     0
 49
-0.25
 74
     0
  0
LTYPE
  5
1A
100
AcDbSymbolTableRecord
100
AcDbLinetypeTableRecord
  2
DIVIDE
 70
    64
  3
____ . . ____ . . ____ . . ____ . . ____ . . __
 72
    65
 73
     6
 40
1.25
 49
0.5
 74
     0
 49
-0.25
 74
     0
 49
0.0
 74
     0
 49
-0.25
 74
     0
 49
0.0
 74
     0
 49
-0.25
 74
     0
  0
LTYPE
  5
1B
100
AcDbSymbolTableRecord
100
AcDbLinetypeTableRecord
  2
DOT
 70
    64
  3
. . . . . . . . . . . . . . . . . . . . . . . .
 72
    65
 73
     2
 40
0.25
 49
0.0
 74
     0
 49
-0.25
 74
     0
  0
ENDTAB
  0
TABLE
  2
LAYER
  5
2
100
AcDbSymbolTable
 70
   102
  0
LAYER
  5
F
100
AcDbSymbolTableRecord
100
AcDbLayerTableRecord
  2
0
 70
     0
 62
     7
  6
CONTINUOUS
370
     -3
390
F
  0
LAYER
  5
1C
100
AcDbSymbolTableRecord
100
AcDbLayerTableRecord
  2
M0
 70
     0
 62
     7
  6
CONTINUOUS
370
     -3
390
F
  0
ENDTAB
  0
TABLE
  2
STYLE
  5
3
100
AcDbSymbolTable
 70
     2
  0
STYLE
  5
10
100
AcDbSymbolTableRecord
100
AcDbTextStyleTableRecord
  2
STANDARD
 70
     0
 40
0.0
 41
1.0
 50
0.0
 71
     0
 42
0.2
  3
txt
  4
BIGFONT
  0
ENDTAB
  0
TABLE
  2
VIEW
  5
6
100
AcDbSymbolTable
 70
     0
  0
ENDTAB
  0
TABLE
  2
UCS
  5
7
100
AcDbSymbolTable
 70
     0
  0
ENDTAB
  0
TABLE
  2
APPID
  5
9
100
AcDbSymbolTable
 70
     1
  0
APPID
  5
11
100
AcDbSymbolTableRecord
100
AcDbRegAppTableRecord
  2
ACAD
 70
     0
  0
ENDTAB
  0
TABLE
  2
DIMSTYLE
  5
A
100
AcDbSymbolTable
 70
     2
100
AcDbDimStyleTable
 71
     1
  0
DIMSTYLE
105
23
100
AcDbSymbolTableRecord
100
AcDbDimStyleTableRecord
  2
STANDARD
 70
     0
  3

  4

  5

  6
_OPEN
  7
_OPEN
 40
1.0
 41
3.0
 42
0.5
 43
8.0
 44
1.5
 45
0.0
 46
0.0
 47
0.0
 48
0.0
140
3.15
141
0.09
142
0.0
143
0.03937
144
1.0
145
0.0
146
1.0
147
1.0
148
0.000000
 71
     0
 72
     0
 73
     0
 74
     0
 75
     0
 76
     0
 77
     3
 78
     8
170
     0
171
     2
172
     0
173
     1
174
     0
175
     0
176
     0
177
     0
178
     0
270
     2
271
     2
272
     4
273
     2
274
     2
340
10
275
     0
278
    46
280
     0
281
     0
282
     0
283
     1
284
     0
285
     0
286
     0
287
     3
288
     0
371
   13
372
   13
  0
DIMSTYLE
105
24
100
AcDbSymbolTableRecord
100
AcDbDimStyleTableRecord
  2
LEADSTYL
 70
     0
  3

  4

  5

  6
_OPEN
  7
_OPEN
 40
1.0
 41
3.0
 42
0.0625
 43
0.38
 44
0.18
 45
0.0
 46
0.0
 47
0.0
 48
0.0
140
3.15
141
0.09
142
0.0
143
25.4
144
1.0
145
0.0
146
1.0
147
1.0
 71
     0
 72
     0
 73
     1
 74
     1
 75
     0
 76
     0
 77
     0
 78
     0
170
     0
171
     2
172
     0
173
     1
174
     0
175
     0
176
     0
177
     0
178
     0
270
     2
271
     4
272
     4
273
     2
274
     2
340
10
275
     0
280
     0
281
     0
282
     0
283
     1
284
     0
285
     0
286
     0
287
     3
288
     0
  0
ENDTAB
  0
TABLE
  2
BLOCK_RECORD
  5
1
100
AcDbSymbolTable
 70
     6
  0
BLOCK_RECORD
  5
1D
100
AcDbSymbolTableRecord
100
AcDbBlockTableRecord
  2
*MODEL_SPACE
  0
BLOCK_RECORD
  5
20
100
AcDbSymbolTableRecord
100
AcDbBlockTableRecord
  2
*PAPER_SPACE
  0
BLOCK_RECORD
  5
25
100
AcDbSymbolTableRecord
100
AcDbBlockTableRecord
  2
_NONE
  0
BLOCK_RECORD
  5
29
100
AcDbSymbolTableRecord
100
AcDbBlockTableRecord
  2
_OPEN
  0
BLOCK_RECORD
  5
2F
100
AcDbSymbolTableRecord
100
AcDbBlockTableRecord
  2
_CLOSED
  0
BLOCK_RECORD
  5
36
100
AcDbSymbolTableRecord
100
AcDbBlockTableRecord
  2
_ORIGIN
  0
BLOCK_RECORD
  5
3B
100
AcDbSymbolTableRecord
100
AcDbBlockTableRecord
  2
_DOT
  0
BLOCK_RECORD
  5
43
100
AcDbSymbolTableRecord
100
AcDbBlockTableRecord
  2
_OBLIQUE
  0
ENDTAB
  0
ENDSEC
  0
SECTION
  2
BLOCKS
  0
BLOCK
  5
1E
100
AcDbEntity
  8
0
100
AcDbBlockBegin
  2
*MODEL_SPACE
 70
     0
 10
0.0
 20
0.0
 30
0.0
  3
*MODEL_SPACE
  1

  0
ENDBLK
  5
1F
100
AcDbEntity
  8
0
100
AcDbBlockEnd
  0
BLOCK
  5
21
100
AcDbEntity
 67
     1
  8
0
100
AcDbBlockBegin
  2
*PAPER_SPACE
 70
     0
 10
0.0
 20
0.0
 30
0.0
  3
*PAPER_SPACE
  1

  0
ENDBLK
  5
22
100
AcDbEntity
 67
     1
  8
0
100
AcDbBlockEnd
  0
BLOCK
  5
26
100
AcDbEntity
  8
0
100
AcDbBlockBegin
  2
_NONE
 70
     0
 10
0.0
 20
0.0
  0
CIRCLE
  5
27
100
AcDbEntity
  8
0
 62
     0
370
13
100
AcDbCircle
 10
0.0
 20
0.0
 40
0.25
  0
ENDBLK
  5
28
100
AcDbEntity
  8
0
100
AcDbBlockEnd
  0
BLOCK
  5
2A
100
AcDbEntity
  8
0
100
AcDbBlockBegin
  2
_OPEN
 70
     0
 10
0.0
 20
0.0
  0
LINE
  5
2B
100
AcDbEntity
  8
0
 62
     0
370
13
100
AcDbLine
 10
-0.965926
 20
0.258819
 11
0.0
 21
0.0
  0
LINE
  5
2C
100
AcDbEntity
  8
0
 62
     0
370
13
100
AcDbLine
 10
0.0
 20
0.0
 11
-0.965926
 21
-0.258819
  0
LINE
  5
2D
100
AcDbEntity
  8
0
 62
     0
370
13
100
AcDbLine
 10
0.0
 20
0.0
 11
-1.0
 21
0.0
  0
ENDBLK
  5
2E
100
AcDbEntity
  8
0
100
AcDbBlockEnd
  0
BLOCK
  5
30
100
AcDbEntity
  8
0
100
AcDbBlockBegin
  2
_CLOSED
 70
     0
 10
0.0
 20
0.0
  0
LINE
  5
31
100
AcDbEntity
  8
0
 62
     0
370
13
100
AcDbLine
 10
-0.965926
 20
0.258819
 11
0.0
 21
0.0
  0
LINE
  5
32
100
AcDbEntity
  8
0
 62
     0
370
13
100
AcDbLine
 10
0.0
 20
0.0
 11
-0.965926
 21
-0.258819
  0
LINE
  5
33
100
AcDbEntity
  8
0
 62
     0
370
13
100
AcDbLine
 10
-0.965926
 20
0.258819
 11
-0.965926
 21
-0.258819
  0
LINE
  5
34
100
AcDbEntity
  8
0
 62
     0
370
13
100
AcDbLine
 10
0.0
 20
0.0
 11
-1.0
 21
0.0
  0
ENDBLK
  5
35
100
AcDbEntity
  8
0
100
AcDbBlockEnd
  0
BLOCK
  5
37
100
AcDbEntity
  8
0
100
AcDbBlockBegin
  2
_ORIGIN
 70
     0
 10
0.0
 20
0.0
  0
CIRCLE
  5
38
100
AcDbEntity
  8
0
 62
     0
370
13
100
AcDbCircle
 10
0.0
 20
0.0
 40
0.5
  0
LINE
  5
39
100
AcDbEntity
  8
0
 62
     0
370
13
100
AcDbLine
 10
0.0
 20
0.0
 11
-1.0
 21
0.0
  0
ENDBLK
  5
3A
100
AcDbEntity
  8
0
100
AcDbBlockEnd
  0
BLOCK
  5
3C
100
AcDbEntity
  8
0
100
AcDbBlockBegin
  2
_DOT
 70
     0
 10
0.0
 20
0.0
  0
POLYLINE
  5
3D
100
AcDbEntity
  8
0
 62
     0
100
AcDb2dPolyline
 66
     1
 70
     1
 40
0.5
 41
0.5
  0
VERTEX
  5
3E
100
AcDbEntity
  8
0
 62
     0
100
AcDbVertex
100
AcDb2dVertex
 10
-0.25
 20
0.0
 42
1.0
  0
VERTEX
  5
3F
100
AcDbEntity
  8
0
 62
     0
100
AcDbVertex
100
AcDb2dVertex
 10
0.25
 20
0.0
 42
1.0
  0
SEQEND
  5
40
100
AcDbEntity
  8
0
 62
     0
  0
LINE
  5
41
100
AcDbEntity
  8
0
 62
     0
370
13
100
AcDbLine
 10
-0.5
 20
0.0
 11
-1.0
 21
0.0
  0
ENDBLK
  5
42
100
AcDbEntity
  8
0
100
AcDbBlockEnd
  0
BLOCK
  5
44
100
AcDbEntity
  8
0
100
AcDbBlockBegin
  2
_OBLIQUE
 70
     0
 10
0.0
 20
0.0
  0
LINE
  5
45
100
AcDbEntity
  8
0
 62
     0
370
13
100
AcDbLine
 10
-0.353553
 20
-0.353553
 11
0.353553
 21
0.353553
  0
ENDBLK
  5
46
100
AcDbEntity
  8
0
100
AcDbBlockEnd
  0
ENDSEC
  0
SECTION
  2
ENTITIES
  0
CIRCLE
  5
47
100
AcDbEntity
  8
M0
  6
CONTINUOUS
370
25
100
AcDbCircle
 10
72.874446
 20
166.589897
 40
42.95
  0
CIRCLE
  5
48
100
AcDbEntity
  8
M0
  6
CONTINUOUS
370
25
100
AcDbCircle
 10
72.874446
 20
166.589897
 40
37.35
  0
CIRCLE
  5
49
100
AcDbEntity
  8
M0
  6
CONTINUOUS
370
25
100
AcDbCircle
 10
72.874446
 20
166.589897
 40
36.5
  0
CIRCLE
  5
4A
100
AcDbEntity
  8
M0
  6
CONTINUOUS
370
25
100
AcDbCircle
 10
72.874446
 20
166.589897
 40
25.0
  0
CIRCLE
  5
4B
100
AcDbEntity
  8
M0
  6
CONTINUOUS
370
25
100
AcDbCircle
 10
72.874446
 20
166.589897
 40
20.0
  0
ARC
  5
4C
100
AcDbEntity
  8
M0
  6
CONTINUOUS
370
25
100
AcDbCircle
 10
72.874446
 20
166.589897
 40
31.24
100
AcDbArc
 50
47.696206
 51
73.149222
  0
ARC
  5
4D
100
AcDbEntity
  8
M0
  6
CONTINUOUS
370
25
100
AcDbCircle
 10
328.713807
 20
166.589897
 40
15.0
100
AcDbArc
 50
103.493399
 51
436.506601
  0
CIRCLE
  5
4E
100
AcDbEntity
  8
M0
  6
CONTINUOUS
370
25
100
AcDbCircle
 10
328.713807
 20
166.589897
 40
30.0
  0
CIRCLE
  5
4F
100
AcDbEntity
  8
M0
  6
CONTINUOUS
370
25
100
AcDbCircle
 10
328.713807
 20
166.589897
 40
20.0
  0
CIRCLE
  5
50
100
AcDbEntity
  8
M0
  6
CONTINUOUS
370
25
100
AcDbCircle
 10
88.494446
 20
193.64453
 40
2.75
  0
CIRCLE
  5
51
100
AcDbEntity
  8
M0
  6
DASHED
370
25
100
AcDbCircle
 10
88.494446
 20
193.64453
 40
4.5
  0
CIRCLE
  5
52
100
AcDbEntity
  8
M0
  6
CONTINUOUS
370
25
100
AcDbCircle
 10
57.254446
 20
193.64453
 40
3.0
  0
CIRCLE
  5
53
100
AcDbEntity
  8
M0
  6
CONTINUOUS
370
25
100
AcDbCircle
 10
57.254446
 20
139.535263
 40
3.0
  0
CIRCLE
  5
54
100
AcDbEntity
  8
M0
  6
CONTINUOUS
370
25
100
AcDbCircle
 10
104.114446
 20
166.589897
 40
3.0
  0
CIRCLE
  5
55
100
AcDbEntity
  8
M0
  6
CONTINUOUS
370
25
100
AcDbCircle
 10
41.634446
 20
166.589897
 40
2.75
  0
CIRCLE
  5
56
100
AcDbEntity
  8
M0
  6
DASHED
370
25
100
AcDbCircle
 10
41.634446
 20
166.589897
 40
4.5
  0
CIRCLE
  5
57
100
AcDbEntity
  8
M0
  6
CONTINUOUS
370
25
100
AcDbCircle
 10
88.494446
 20
139.535263
 40
2.75
  0
CIRCLE
  5
58
100
AcDbEntity
  8
M0
  6
DASHED
370
25
100
AcDbCircle
 10
88.494446
 20
139.535263
 40
4.5
  0
ARC
  5
59
100
AcDbEntity
  8
M0
  6
CONTINUOUS
370
25
100
AcDbCircle
 10
72.874446
 20
166.589897
 40
31.24
100
AcDbArc
 50
111.491434
 51
128.356508
  0
LINE
  5
5A
100
AcDbEntity
  8
M0
  6
CONTINUOUS
370
25
100
AcDbLine
 10
59.498976
 20
189.756891
 11
55.171557
 21
197.2522
  0
LINE
  5
5B
100
AcDbEntity
  8
M0
  6
CONTINUOUS
370
25
100
AcDbLine
 10
85.471695
 20
188.408971
 11
91.502641
 21
198.854876
  0
ARC
  5
5C
100
AcDbEntity
  8
M0
  6
CONTINUOUS
370
25
100
AcDbCircle
 10
72.874446
 20
166.589897
 40
31.24
100
AcDbArc
 50
231.491434
 51
248.356508
  0
LINE
  5
5D
100
AcDbEntity
  8
M0
  6
CONTINUOUS
370
25
100
AcDbLine
 10
59.498976
 20
143.422903
 11
55.171557
 21
135.927594
  0
ARC
  5
5E
100
AcDbEntity
  8
M0
  6
CONTINUOUS
370
25
100
AcDbCircle
 10
72.874446
 20
166.589897
 40
31.24
100
AcDbArc
 50
167.696206
 51
193.149222
  0
LINE
  5
5F
100
AcDbEntity
  8
M0
  6
CONTINUOUS
370
25
100
AcDbLine
 10
47.679949
 20
166.589897
 11
35.618057
 21
166.589897
  0
ARC
  5
60
100
AcDbEntity
  8
M0
  6
CONTINUOUS
370
25
100
AcDbCircle
 10
72.874446
 20
166.589897
 40
31.24
100
AcDbArc
 50
351.491434
 51
368.356508
  0
LINE
  5
61
100
AcDbEntity
  8
M0
  6
CONTINUOUS
370
25
100
AcDbLine
 10
99.625387
 20
166.589897
 11
108.280224
 21
166.589897
  0
ARC
  5
62
100
AcDbEntity
  8
M0
  6
CONTINUOUS
370
25
100
AcDbCircle
 10
72.874446
 20
166.589897
 40
31.24
100
AcDbArc
 50
287.696206
 51
313.149222
  0
LINE
  5
63
100
AcDbEntity
  8
M0
  6
CONTINUOUS
370
25
100
AcDbLine
 10
85.471695
 20
144.770822
 11
91.502641
 21
134.324917
  0
LINE
  5
64
100
AcDbEntity
  8
M0
  6
CONTINUOUS
370
25
100
AcDbLine
 10
79.874446
 20
166.589897
 11
65.874446
 21
166.589897
  0
LINE
  5
65
100
AcDbEntity
  8
M0
  6
CONTINUOUS
370
25
100
AcDbLine
 10
72.874446
 20
173.589897
 11
72.874446
 21
159.589897
  0
ARC
  5
66
100
AcDbEntity
  8
M0
  6
CONTINUOUS
370
25
100
AcDbCircle
 10
328.713807
 20
166.589897
 40
43.0
100
AcDbArc
 50
105.713861
 51
434.286139
  0
LINE
  5
67
100
AcDbEntity
  8
M0
  6
CONTINUOUS
370
25
100
AcDbLine
 10
335.713807
 20
166.589897
 11
321.713807
 21
166.589897
  0
LINE
  5
68
100
AcDbEntity
  8
M0
  6
CONTINUOUS
370
25
100
AcDbLine
 10
328.713807
 20
173.589897
 11
328.713807
 21
159.589897
  0
LINE
  5
69
100
AcDbEntity
  8
M0
  6
CONTINUOUS
370
25
100
AcDbLine
 10
332.213807
 20
184.589897
 11
325.213807
 21
184.589897
  0
LINE
  5
6A
100
AcDbEntity
  8
M0
  6
CONTINUOUS
370
25
100
AcDbLine
 10
332.213807
 20
184.589897
 11
332.213807
 21
181.175849
  0
LINE
  5
6B
100
AcDbEntity
  8
M0
  6
CONTINUOUS
370
25
100
AcDbLine
 10
325.213807
 20
184.589897
 11
325.213807
 21
181.175849
  0
LINE
  5
6C
100
AcDbEntity
  8
M0
  6
CONTINUOUS
370
25
100
AcDbLine
 10
322.713807
 20
230.589897
 11
334.713807
 21
230.589897
  0
LINE
  5
6D
100
AcDbEntity
  8
M0
  6
CONTINUOUS
370
25
100
AcDbLine
 10
336.713807
 20
228.589897
 11
336.713807
 21
212.795957
  0
LINE
  5
6E
100
AcDbEntity
  8
M0
  6
CONTINUOUS
370
25
100
AcDbLine
 10
320.713807
 20
228.589897
 11
320.713807
 21
212.795957
  0
CIRCLE
  5
6F
100
AcDbEntity
  8
M0
  6
CONTINUOUS
370
25
100
AcDbCircle
 10
328.713807
 20
224.589897
 40
2.75
  0
LINE
  5
70
100
AcDbEntity
  8
M0
  6
CONTINUOUS
370
25
100
AcDbLine
 10
333.713807
 20
224.589897
 11
323.713807
 21
224.589897
  0
LINE
  5
71
100
AcDbEntity
  8
M0
  6
CONTINUOUS
370
25
100
AcDbLine
 10
328.713807
 20
229.589897
 11
328.713807
 21
219.589897
  0
ARC
  5
72
100
AcDbEntity
  8
M0
  6
CONTINUOUS
370
25
100
AcDbCircle
 10
315.713807
 20
212.795957
 40
5.0
100
AcDbArc
 50
285.713861
 51
360.0
  0
ARC
  5
73
100
AcDbEntity
  8
M0
  6
CONTINUOUS
370
25
100
AcDbCircle
 10
341.713807
 20
212.795957
 40
5.0
100
AcDbArc
 50
180.0
 51
254.286139
  0
LINE
  5
74
100
AcDbEntity
  8
M0
  6
CONTINUOUS
370
25
100
AcDbLine
 10
320.713807
 20
228.589897
 11
322.713807
 21
230.589897
  0
LINE
  5
75
100
AcDbEntity
  8
M0
  6
CONTINUOUS
370
25
100
AcDbLine
 10
334.713807
 20
230.589897
 11
336.713807
 21
228.589897
  0
CIRCLE
  5
76
100
AcDbEntity
  8
M0
  6
CONTINUOUS
370
25
100
AcDbCircle
 10
328.713807
 20
205.089897
 40
3.5
  0
CIRCLE
  5
77
100
AcDbEntity
  8
M0
  6
CONTINUOUS
370
25
100
AcDbCircle
 10
290.213807
 20
166.589897
 40
3.5
  0
CIRCLE
  5
78
100
AcDbEntity
  8
M0
  6
CONTINUOUS
370
25
100
AcDbCircle
 10
328.713807
 20
128.089897
 40
3.5
  0
CIRCLE
  5
79
100
AcDbEntity
  8
M0
  6
CONTINUOUS
370
25
100
AcDbCircle
 10
367.213807
 20
166.589897
 40
3.5
  0
LINE
  5
7A
100
AcDbEntity
  8
M0
  6
CONTINUOUS
370
25
100
AcDbLine
 10
330.128021
 20
206.50411
 11
327.299594
 21
203.675683
  0
LINE
  5
7B
100
AcDbEntity
  8
M0
  6
CONTINUOUS
370
25
100
AcDbLine
 10
327.299594
 20
206.50411
 11
330.128021
 21
203.675683
  0
LINE
  5
7C
100
AcDbEntity
  8
M0
  6
CONTINUOUS
370
25
100
AcDbLine
 10
288.799594
 20
168.00411
 11
291.628021
 21
165.175683
  0
LINE
  5
7D
100
AcDbEntity
  8
M0
  6
CONTINUOUS
370
25
100
AcDbLine
 10
288.799594
 20
165.175683
 11
291.628021
 21
168.00411
  0
LINE
  5
7E
100
AcDbEntity
  8
M0
  6
CONTINUOUS
370
25
100
AcDbLine
 10
327.299594
 20
126.675683
 11
330.128021
 21
129.50411
  0
LINE
  5
7F
100
AcDbEntity
  8
M0
  6
CONTINUOUS
370
25
100
AcDbLine
 10
330.128021
 20
126.675683
 11
327.299594
 21
129.50411
  0
LINE
  5
80
100
AcDbEntity
  8
M0
  6
CONTINUOUS
370
25
100
AcDbLine
 10
368.628021
 20
165.175683
 11
365.799594
 21
168.00411
  0
LINE
  5
81
100
AcDbEntity
  8
M0
  6
CONTINUOUS
370
25
100
AcDbLine
 10
368.628021
 20
168.00411
 11
365.799594
 21
165.175683
  0
ARC
  5
82
100
AcDbEntity
  8
M0
  6
CONTINUOUS
370
25
100
AcDbCircle
 10
328.713807
 20
166.589897
 40
24.3
100
AcDbArc
 50
84.140448
 51
88.820991
  0
ARC
  5
83
100
AcDbEntity
  8
M0
  6
CONTINUOUS
370
25
100
AcDbCircle
 10
328.713807
 20
165.464897
 40
21.875
100
AcDbArc
 50
105.99492
 51
434.00508
  0
CIRCLE
  5
84
100
AcDbEntity
  8
M0
  6
CONTINUOUS
370
25
100
AcDbCircle
 10
331.172115
 20
188.280399
 40
1.25
  0
LINE
  5
85
100
AcDbEntity
  8
M0
  6
CONTINUOUS
370
25
100
AcDbLine
 10
329.213807
 20
190.884752
 11
329.213807
 21
186.583646
  0
LINE
  5
86
100
AcDbEntity
  8
M0
  6
CONTINUOUS
370
25
100
AcDbLine
 10
332.899513
 20
189.36951
 11
333.383522
 21
187.819476
  0
ARC
  5
87
100
AcDbEntity
  8
M0
  6
CONTINUOUS
370
25
100
AcDbCircle
 10
330.990421
 20
188.773382
 40
2.0
100
AcDbArc
 50
17.341345
 51
84.140448
  0
ARC
  5
88
100
AcDbEntity
  8
M0
  6
CONTINUOUS
370
25
100
AcDbCircle
 10
335.292614
 20
188.415603
 40
2.0
100
AcDbArc
 50
197.341345
 51
254.00508
  0
ARC
  5
89
100
AcDbEntity
  8
M0
  6
CONTINUOUS
370
25
100
AcDbCircle
 10
322.135
 20
188.415603
 40
2.0
100
AcDbArc
 50
285.99492
 51
342.658655
  0
ARC
  5
8A
100
AcDbEntity
  8
M0
  6
CONTINUOUS
370
25
100
AcDbCircle
 10
326.437193
 20
188.773382
 40
2.0
100
AcDbArc
 50
95.859552
 51
162.658655
  0
LINE
  5
8B
100
AcDbEntity
  8
M0
  6
CONTINUOUS
370
25
100
AcDbLine
 10
324.528101
 20
189.36951
 11
324.044092
 21
187.819476
  0
LINE
  5
8C
100
AcDbEntity
  8
M0
  6
CONTINUOUS
370
25
100
AcDbLine
 10
328.213807
 20
190.884752
 11
328.213807
 21
186.583646
  0
CIRCLE
  5
8D
100
AcDbEntity
  8
M0
  6
CONTINUOUS
370
25
100
AcDbCircle
 10
326.255499
 20
188.280399
 40
1.25
  0
ARC
  5
8E
100
AcDbEntity
  8
M0
  6
CONTINUOUS
370
25
100
AcDbCircle
 10
328.713807
 20
166.589897
 40
24.3
100
AcDbArc
 50
91.179009
 51
95.859552
  0
LINE
  5
8F
100
AcDbEntity
  8
M0
  6
CONTINUOUS
370
25
100
AcDbLine
 10
153.099657
 20
166.589897
 11
163.599657
 21
166.589897
  0
LINE
  5
90
100
AcDbEntity
  8
M0
  6
CONTINUOUS
370
25
100
AcDbLine
 10
64.874446
 20
228.589897
 11
66.874446
 21
230.589897
  0
LINE
  5
91
100
AcDbEntity
  8
M0
  6
CONTINUOUS
370
25
100
AcDbLine
 10
64.874446
 20
228.589897
 11
64.874446
 21
212.795957
  0
LINE
  5
92
100
AcDbEntity
  8
M0
  6
CONTINUOUS
370
25
100
AcDbLine
 10
80.874446
 20
228.589897
 11
80.874446
 21
212.795957
  0
LINE
  5
93
100
AcDbEntity
  8
M0
  6
CONTINUOUS
370
25
100
AcDbLine
 10
78.874446
 20
230.589897
 11
80.874446
 21
228.589897
  0
ARC
  5
94
100
AcDbEntity
  8
M0
  6
CONTINUOUS
370
25
100
AcDbCircle
 10
59.874446
 20
212.795957
 40
5.0
100
AcDbArc
 50
285.713861
 51
360.0
  0
ARC
  5
95
100
AcDbEntity
  8
M0
  6
CONTINUOUS
370
25
100
AcDbCircle
 10
85.874446
 20
212.795957
 40
5.0
100
AcDbArc
 50
180.0
 51
254.286139
  0
LINE
  5
96
100
AcDbEntity
  8
M0
  6
CONTINUOUS
370
25
100
AcDbLine
 10
160.099657
 20
166.589897
 11
160.099657
 21
202.289897
  0
LINE
  5
97
100
AcDbEntity
  8
M0
  6
CONTINUOUS
370
25
100
AcDbLine
 10
172.799657
 20
206.589897
 11
172.799657
 21
166.589897
  0
LINE
  5
98
100
AcDbEntity
  8
M0
  6
CONTINUOUS
370
25
100
AcDbLine
 10
160.899657
 20
191.589897
 11
171.999657
 21
191.589897
  0
LINE
  5
99
100
AcDbEntity
  8
M0
  6
CONTINUOUS
370
25
100
AcDbLine
 10
160.899657
 20
203.089897
 11
168.999657
 21
203.089897
  0
LINE
  5
9A
100
AcDbEntity
  8
M0
  6
CONTINUOUS
370
25
100
AcDbLine
 10
168.999657
 20
203.939897
 11
168.999657
 21
203.089897
  0
LINE
  5
9B
100
AcDbEntity
  8
M0
  6
CONTINUOUS
370
25
100
AcDbLine
 10
168.999657
 20
203.589897
 11
172.799657
 21
203.589897
  0
ARC
  5
9C
100
AcDbEntity
  8
M0
  6
CONTINUOUS
370
25
100
AcDbCircle
 10
170.799657
 20
199.039897
 40
6.4
100
AcDbArc
 50
71.790043
 51
90.0
  0
LINE
  5
9D
100
AcDbEntity
  8
M0
  6
CONTINUOUS
370
25
100
AcDbLine
 10
158.353206
 20
197.829897
 11
179.717642
 21
197.829897
  0
LINE
  5
9E
100
AcDbEntity
  8
M0
  6
CONTINUOUS
370
25
100
AcDbLine
 10
166.299657
 20
202.329897
 11
166.299657
 21
193.329897
  0
LINE
  5
9F
100
AcDbEntity
  8
M0
  6
CONTINUOUS
370
25
100
AcDbLine
 10
160.099657
 20
200.579897
 11
166.299657
 21
200.579897
  0
LINE
  5
A0
100
AcDbEntity
  8
M0
  6
CONTINUOUS
370
25
100
AcDbLine
 10
160.099657
 20
195.079897
 11
166.299657
 21
195.079897
  0
LINE
  5
A1
100
AcDbEntity
  8
M0
  6
CONTINUOUS
370
25
100
AcDbLine
 10
166.299657
 20
202.329897
 11
172.799657
 21
202.329897
  0
LINE
  5
A2
100
AcDbEntity
  8
M0
  6
CONTINUOUS
370
25
100
AcDbLine
 10
166.299657
 20
193.329897
 11
172.799657
 21
193.329897
  0
LINE
  5
A3
100
AcDbEntity
  8
M0
  6
CONTINUOUS
370
25
100
AcDbLine
 10
160.099657
 20
202.289897
 11
160.899657
 21
203.089897
  0
LINE
  5
A4
100
AcDbEntity
  8
M0
  6
CONTINUOUS
370
25
100
AcDbLine
 10
160.099657
 20
192.389897
 11
160.899657
 21
191.589897
  0
LINE
  5
A5
100
AcDbEntity
  8
M0
  6
CONTINUOUS
370
25
100
AcDbLine
 10
171.999657
 20
191.589897
 11
172.799657
 21
192.389897
  0
LINE
  5
A6
100
AcDbEntity
  8
M0
  6
CONTINUOUS
370
25
100
AcDbLine
 10
160.099657
 20
166.589897
 11
160.099657
 21
130.889897
  0
LINE
  5
A7
100
AcDbEntity
  8
M0
  6
CONTINUOUS
370
25
100
AcDbLine
 10
172.799657
 20
126.589897
 11
172.799657
 21
166.589897
  0
LINE
  5
A8
100
AcDbEntity
  8
M0
  6
CONTINUOUS
370
25
100
AcDbLine
 10
171.999657
 20
141.589897
 11
172.799657
 21
140.789897
  0
LINE
  5
A9
100
AcDbEntity
  8
M0
  6
CONTINUOUS
370
25
100
AcDbLine
 10
160.099657
 20
140.789897
 11
160.899657
 21
141.589897
  0
LINE
  5
AA
100
AcDbEntity
  8
M0
  6
CONTINUOUS
370
25
100
AcDbLine
 10
160.899657
 20
141.589897
 11
171.999657
 21
141.589897
  0
LINE
  5
AB
100
AcDbEntity
  8
M0
  6
CONTINUOUS
370
25
100
AcDbLine
 10
160.099657
 20
130.889897
 11
160.899657
 21
130.089897
  0
LINE
  5
AC
100
AcDbEntity
  8
M0
  6
CONTINUOUS
370
25
100
AcDbLine
 10
160.899657
 20
130.089897
 11
168.999657
 21
130.089897
  0
ARC
  5
AD
100
AcDbEntity
  8
M0
  6
CONTINUOUS
370
25
100
AcDbCircle
 10
170.799657
 20
134.139897
 40
6.4
100
AcDbArc
 50
270.0
 51
288.209957
  0
LINE
  5
AE
100
AcDbEntity
  8
M0
  6
CONTINUOUS
370
25
100
AcDbLine
 10
168.999657
 20
129.589897
 11
172.799657
 21
129.589897
  0
LINE
  5
AF
100
AcDbEntity
  8
M0
  6
CONTINUOUS
370
25
100
AcDbLine
 10
168.999657
 20
129.239897
 11
168.999657
 21
130.089897
  0
LINE
  5
B0
100
AcDbEntity
  8
M0
  6
CONTINUOUS
370
25
100
AcDbLine
 10
158.353206
 20
135.349897
 11
179.717642
 21
135.349897
  0
LINE
  5
B1
100
AcDbEntity
  8
M0
  6
CONTINUOUS
370
25
100
AcDbLine
 10
160.099657
 20
138.349897
 11
172.799657
 21
138.349897
  0
LINE
  5
B2
100
AcDbEntity
  8
M0
  6
CONTINUOUS
370
25
100
AcDbLine
 10
160.099657
 20
132.349897
 11
172.799657
 21
132.349897
  0
LINE
  5
B3
100
AcDbEntity
  8
M0
  6
CONTINUOUS
370
25
100
AcDbLine
 10
167.799657
 20
209.539897
 11
179.599657
 21
209.539897
  0
LINE
  5
B4
100
AcDbEntity
  8
M0
  6
CONTINUOUS
370
25
100
AcDbLine
 10
166.799657
 20
208.539897
 11
166.799657
 21
204.939897
  0
LINE
  5
B5
100
AcDbEntity
  8
M0
  6
CONTINUOUS
370
25
100
AcDbLine
 10
179.599657
 20
209.539897
 11
179.599657
 21
206.289897
  0
LINE
  5
B6
100
AcDbEntity
  8
M0
  6
CONTINUOUS
370
25
100
AcDbLine
 10
173.599657
 20
186.589897
 11
177.999657
 21
186.589897
  0
LINE
  5
B7
100
AcDbEntity
  8
M0
  6
CONTINUOUS
370
25
100
AcDbLine
 10
178.799657
 20
206.289897
 11
179.599657
 21
206.289897
  0
LINE
  5
B8
100
AcDbEntity
  8
M0
  6
CONTINUOUS
370
25
100
AcDbLine
 10
178.299657
 20
203.589897
 11
178.799657
 21
203.589897
  0
LINE
  5
B9
100
AcDbEntity
  8
M0
  6
CONTINUOUS
370
25
100
AcDbLine
 10
178.299657
 20
195.589897
 11
178.799657
 21
195.589897
  0
LINE
  5
BA
100
AcDbEntity
  8
M0
  6
CONTINUOUS
370
25
100
AcDbLine
 10
178.799657
 20
206.289897
 11
178.799657
 21
203.589897
  0
LINE
  5
BB
100
AcDbEntity
  8
M0
  6
CONTINUOUS
370
25
100
AcDbLine
 10
178.299657
 20
203.589897
 11
178.299657
 21
195.589897
  0
LINE
  5
BC
100
AcDbEntity
  8
M0
  6
CONTINUOUS
370
25
100
AcDbLine
 10
170.799657
 20
206.589897
 11
170.799657
 21
203.939897
  0
LINE
  5
BD
100
AcDbEntity
  8
M0
  6
CONTINUOUS
370
25
100
AcDbLine
 10
166.799657
 20
205.789897
 11
170.799657
 21
205.789897
  0
LINE
  5
BE
100
AcDbEntity
  8
M0
  6
CONTINUOUS
370
25
100
AcDbLine
 10
167.799657
 20
203.939897
 11
170.799657
 21
203.939897
  0
LINE
  5
BF
100
AcDbEntity
  8
M0
  6
CONTINUOUS
370
25
100
AcDbLine
 10
170.799657
 20
206.589897
 11
172.799657
 21
206.589897
  0
LINE
  5
C0
100
AcDbEntity
  8
M0
  6
CONTINUOUS
370
25
100
AcDbLine
 10
172.799657
 20
187.389897
 11
173.599657
 21
186.589897
  0
LINE
  5
C1
100
AcDbEntity
  8
M0
  6
CONTINUOUS
370
25
100
AcDbLine
 10
166.799657
 20
208.539897
 11
167.799657
 21
209.539897
  0
LINE
  5
C2
100
AcDbEntity
  8
M0
  6
CONTINUOUS
370
25
100
AcDbLine
 10
166.799657
 20
204.939897
 11
167.799657
 21
203.939897
  0
LINE
  5
C3
100
AcDbEntity
  8
M0
  6
CONTINUOUS
370
25
100
AcDbLine
 10
178.799657
 20
187.389897
 11
177.999657
 21
186.589897
  0
LINE
  5
C4
100
AcDbEntity
  8
M0
  6
CONTINUOUS
370
25
100
AcDbLine
 10
178.799657
 20
195.589897
 11
178.799657
 21
187.389897
  0
LINE
  5
C5
100
AcDbEntity
  8
M0
  6
CONTINUOUS
370
25
100
AcDbLine
 10
172.799657
 20
202.329897
 11
178.299657
 21
202.329897
  0
LINE
  5
C6
100
AcDbEntity
  8
M0
  6
CONTINUOUS
370
25
100
AcDbLine
 10
172.799657
 20
193.329897
 11
178.799657
 21
193.329897
  0
ARC
  5
C7
100
AcDbEntity
  8
M0
  6
CONTINUOUS
370
25
100
AcDbCircle
 10
222.749657
 20
205.739897
 40
44.45
100
AcDbArc
 50
175.095837
 51
182.772419
  0
ARC
  5
C8
100
AcDbEntity
  8
M0
  6
CONTINUOUS
370
25
100
AcDbCircle
 10
222.749657
 20
127.439897
 40
44.45
100
AcDbArc
 50
177.227581
 51
184.904163
  0
LINE
  5
C9
100
AcDbEntity
  8
M0
  6
CONTINUOUS
370
25
100
AcDbLine
 10
178.799657
 20
137.589897
 11
178.799657
 21
166.589897
  0
LINE
  5
CA
100
AcDbEntity
  8
M0
  6
CONTINUOUS
370
25
100
AcDbLine
 10
178.799657
 20
145.789897
 11
177.999657
 21
146.589897
  0
LINE
  5
CB
100
AcDbEntity
  8
M0
  6
CONTINUOUS
370
25
100
AcDbLine
 10
172.799657
 20
145.789897
 11
173.599657
 21
146.589897
  0
LINE
  5
CC
100
AcDbEntity
  8
M0
  6
CONTINUOUS
370
25
100
AcDbLine
 10
178.299657
 20
129.589897
 11
178.299657
 21
137.589897
  0
LINE
  5
CD
100
AcDbEntity
  8
M0
  6
CONTINUOUS
370
25
100
AcDbLine
 10
178.799657
 20
126.889897
 11
178.799657
 21
129.589897
  0
LINE
  5
CE
100
AcDbEntity
  8
M0
  6
CONTINUOUS
370
25
100
AcDbLine
 10
178.299657
 20
137.589897
 11
178.799657
 21
137.589897
  0
LINE
  5
CF
100
AcDbEntity
  8
M0
  6
CONTINUOUS
370
25
100
AcDbLine
 10
178.299657
 20
129.589897
 11
178.799657
 21
129.589897
  0
LINE
  5
D0
100
AcDbEntity
  8
M0
  6
CONTINUOUS
370
25
100
AcDbLine
 10
178.799657
 20
126.889897
 11
179.599657
 21
126.889897
  0
LINE
  5
D1
100
AcDbEntity
  8
M0
  6
CONTINUOUS
370
25
100
AcDbLine
 10
173.599657
 20
146.589897
 11
177.999657
 21
146.589897
  0
LINE
  5
D2
100
AcDbEntity
  8
M0
  6
CONTINUOUS
370
25
100
AcDbLine
 10
179.599657
 20
123.639897
 11
179.599657
 21
126.889897
  0
LINE
  5
D3
100
AcDbEntity
  8
M0
  6
CONTINUOUS
370
25
100
AcDbLine
 10
167.799657
 20
123.639897
 11
179.599657
 21
123.639897
  0
LINE
  5
D4
100
AcDbEntity
  8
M0
  6
CONTINUOUS
370
25
100
AcDbLine
 10
166.799657
 20
124.639897
 11
167.799657
 21
123.639897
  0
LINE
  5
D5
100
AcDbEntity
  8
M0
  6
CONTINUOUS
370
25
100
AcDbLine
 10
166.799657
 20
124.639897
 11
166.799657
 21
128.239897
  0
LINE
  5
D6
100
AcDbEntity
  8
M0
  6
CONTINUOUS
370
25
100
AcDbLine
 10
166.799657
 20
127.389897
 11
170.799657
 21
127.389897
  0
LINE
  5
D7
100
AcDbEntity
  8
M0
  6
CONTINUOUS
370
25
100
AcDbLine
 10
166.799657
 20
128.239897
 11
167.799657
 21
129.239897
  0
LINE
  5
D8
100
AcDbEntity
  8
M0
  6
CONTINUOUS
370
25
100
AcDbLine
 10
167.799657
 20
129.239897
 11
170.799657
 21
129.239897
  0
LINE
  5
D9
100
AcDbEntity
  8
M0
  6
CONTINUOUS
370
25
100
AcDbLine
 10
170.799657
 20
126.589897
 11
170.799657
 21
129.239897
  0
LINE
  5
DA
100
AcDbEntity
  8
M0
  6
CONTINUOUS
370
25
100
AcDbLine
 10
170.799657
 20
126.589897
 11
172.799657
 21
126.589897
  0
LINE
  5
DB
100
AcDbEntity
  8
M0
  6
CONTINUOUS
370
25
100
AcDbLine
 10
172.799657
 20
138.849897
 11
178.799657
 21
138.849897
  0
LINE
  5
DC
100
AcDbEntity
  8
M0
  6
CONTINUOUS
370
25
100
AcDbLine
 10
172.799657
 20
131.849897
 11
178.299657
 21
131.849897
  0
LINE
  5
DD
100
AcDbEntity
  8
M0
  6
CONTINUOUS
370
25
100
AcDbLine
 10
234.099657
 20
186.089897
 11
234.099657
 21
166.589897
  0
LINE
  5
DE
100
AcDbEntity
  8
M0
  6
CONTINUOUS
370
25
100
AcDbLine
 10
179.899657
 20
209.539897
 11
179.899657
 21
206.289897
  0
LINE
  5
DF
100
AcDbEntity
  8
M0
  6
CONTINUOUS
370
25
100
AcDbLine
 10
179.899657
 20
209.539897
 11
206.649657
 21
209.539897
  0
LINE
  5
E0
100
AcDbEntity
  8
M0
  6
CONTINUOUS
370
25
100
AcDbLine
 10
180.599657
 20
206.289897
 11
180.599657
 21
166.589897
  0
LINE
  5
E1
100
AcDbEntity
  8
M0
  6
CONTINUOUS
370
25
100
AcDbLine
 10
179.899657
 20
206.289897
 11
180.599657
 21
206.289897
  0
LINE
  5
E2
100
AcDbEntity
  8
M0
  6
CONTINUOUS
370
25
100
AcDbLine
 10
207.149657
 20
209.039897
 11
207.149657
 21
207.089897
  0
LINE
  5
E3
100
AcDbEntity
  8
M0
  6
CONTINUOUS
370
25
100
AcDbLine
 10
184.899657
 20
190.589897
 11
214.149657
 21
190.589897
  0
LINE
  5
E4
100
AcDbEntity
  8
M0
  6
CONTINUOUS
370
25
100
AcDbLine
 10
215.149657
 20
186.589897
 11
228.949657
 21
186.589897
  0
LINE
  5
E5
100
AcDbEntity
  8
M0
  6
CONTINUOUS
370
25
100
AcDbLine
 10
184.399657
 20
206.089897
 11
184.399657
 21
191.089897
  0
LINE
  5
E6
100
AcDbEntity
  8
M0
  6
CONTINUOUS
370
25
100
AcDbLine
 10
184.899657
 20
206.589897
 11
206.649657
 21
206.589897
  0
LINE
  5
E7
100
AcDbEntity
  8
M0
  6
CONTINUOUS
370
25
100
AcDbLine
 10
230.849657
 20
191.389897
 11
230.849657
 21
185.589897
  0
LINE
  5
E8
100
AcDbEntity
  8
M0
  6
CONTINUOUS
370
25
100
AcDbLine
 10
228.949657
 20
186.589897
 11
228.949657
 21
185.589897
  0
LINE
  5
E9
100
AcDbEntity
  8
M0
  6
CONTINUOUS
370
25
100
AcDbLine
 10
214.149657
 20
199.589897
 11
214.149657
 21
187.589897
  0
LINE
  5
EA
100
AcDbEntity
  8
M0
  6
CONTINUOUS
370
25
100
AcDbLine
 10
228.949657
 20
185.589897
 11
230.849657
 21
185.589897
  0
LINE
  5
EB
100
AcDbEntity
  8
M0
  6
CONTINUOUS
370
25
100
AcDbLine
 10
180.799657
 20
181.589897
 11
234.099657
 21
181.589897
  0
LINE
  5
EC
100
AcDbEntity
  8
M0
  6
CONTINUOUS
370
25
100
AcDbLine
 10
180.799657
 20
184.589897
 11
234.099657
 21
184.589897
  0
ARC
  5
ED
100
AcDbEntity
  8
M0
  6
CONTINUOUS
370
25
100
AcDbCircle
 10
136.149657
 20
205.739897
 40
44.45
100
AcDbArc
 50
0.0
 51
4.904163
  0
LINE
  5
EE
100
AcDbEntity
  8
M0
  6
CONTINUOUS
370
25
100
AcDbLine
 10
206.649657
 20
209.539897
 11
207.149657
 21
209.039897
  0
LINE
  5
EF
100
AcDbEntity
  8
M0
  6
CONTINUOUS
370
25
100
AcDbLine
 10
230.849657
 20
186.589897
 11
233.599657
 21
186.589897
  0
LINE
  5
F0
100
AcDbEntity
  8
M0
  6
CONTINUOUS
370
25
100
AcDbLine
 10
206.649657
 20
206.589897
 11
207.149657
 21
207.089897
  0
LINE
  5
F1
100
AcDbEntity
  8
M0
  6
CONTINUOUS
370
25
100
AcDbLine
 10
233.599657
 20
186.589897
 11
234.099657
 21
186.089897
  0
ARC
  5
F2
100
AcDbEntity
  8
M0
  6
CONTINUOUS
370
25
100
AcDbCircle
 10
215.149657
 20
187.589897
 40
1.0
100
AcDbArc
 50
180.0
 51
270.0
  0
ARC
  5
F3
100
AcDbEntity
  8
M0
  6
CONTINUOUS
370
25
100
AcDbCircle
 10
184.899657
 20
206.089897
 40
0.5
100
AcDbArc
 50
90.0
 51
180.0
  0
ARC
  5
F4
100
AcDbEntity
  8
M0
  6
CONTINUOUS
370
25
100
AcDbCircle
 10
184.899657
 20
191.089897
 40
0.5
100
AcDbArc
 50
180.0
 51
270.0
  0
LINE
  5
F5
100
AcDbEntity
  8
M0
  6
CONTINUOUS
370
25
100
AcDbLine
 10
215.149657
 20
200.589897
 11
228.649657
 21
200.589897
  0
LINE
  5
F6
100
AcDbEntity
  8
M0
  6
CONTINUOUS
370
25
100
AcDbLine
 10
229.149657
 20
199.089897
 11
229.149657
 21
185.589897
  0
CIRCLE
  5
F7
100
AcDbEntity
  8
M0
  6
CONTINUOUS
370
25
100
AcDbCircle
 10
221.649657
 20
193.589897
 40
4.66665
  0
ARC
  5
F8
100
AcDbEntity
  8
M0
  6
CONTINUOUS
370
25
100
AcDbCircle
 10
215.649657
 20
199.089897
 40
1.5
100
AcDbArc
 50
90.0
 51
180.0
  0
ARC
  5
F9
100
AcDbEntity
  8
M0
  6
CONTINUOUS
370
25
100
AcDbCircle
 10
227.649657
 20
199.089897
 40
1.5
100
AcDbArc
 50
0.0
 51
90.0
  0
ARC
  5
FA
100
AcDbEntity
  8
M0
  6
CONTINUOUS
370
25
100
AcDbCircle
 10
227.649657
 20
188.089897
 40
1.5
100
AcDbArc
 50
270.0
 51
360.0
  0
ARC
  5
FB
100
AcDbEntity
  8
M0
  6
CONTINUOUS
370
25
100
AcDbCircle
 10
215.649657
 20
188.089897
 40
1.5
100
AcDbArc
 50
180.0
 51
270.0
  0
LINE
  5
FC
100
AcDbEntity
  8
M0
  6
CONTINUOUS
370
25
100
AcDbLine
 10
214.149657
 20
195.923222
 11
217.608219
 21
195.923222
  0
LINE
  5
FD
100
AcDbEntity
  8
M0
  6
CONTINUOUS
370
25
100
AcDbLine
 10
229.149657
 20
191.256572
 11
225.691094
 21
191.256572
  0
LINE
  5
FE
100
AcDbEntity
  8
M0
  6
CONTINUOUS
370
25
100
AcDbLine
 10
225.691094
 20
195.923222
 11
229.149657
 21
195.923222
  0
LINE
  5
FF
100
AcDbEntity
  8
M0
  6
CONTINUOUS
370
25
100
AcDbLine
 10
217.608219
 20
191.256572
 11
214.149657
 21
191.256572
  0
LINE
  5
100
100
AcDbEntity
  8
M0
  6
CONTINUOUS
370
25
100
AcDbLine
 10
215.878938
 20
198.297227
 11
215.878938
 21
188.975336
  0
LINE
  5
101
100
AcDbEntity
  8
M0
  6
CONTINUOUS
370
25
100
AcDbLine
 10
227.420375
 20
198.297227
 11
227.420375
 21
188.975336
  0
LINE
  5
102
100
AcDbEntity
  8
M0
  6
CONTINUOUS
370
25
100
AcDbLine
 10
229.149657
 20
191.389897
 11
230.849657
 21
191.389897
  0
LINE
  5
103
100
AcDbEntity
  8
M0
  6
CONTINUOUS
370
25
100
AcDbLine
 10
222.149657
 20
209.589897
 11
229.149657
 21
209.589897
  0
LINE
  5
104
100
AcDbEntity
  8
M0
  6
CONTINUOUS
370
25
100
AcDbLine
 10
229.149657
 20
230.589897
 11
229.149657
 21
199.089897
  0
LINE
  5
105
100
AcDbEntity
  8
M0
  6
CONTINUOUS
370
25
100
AcDbLine
 10
186.149657
 20
204.339897
 11
186.149657
 21
192.839897
  0
LINE
  5
106
100
AcDbEntity
  8
M0
  6
CONTINUOUS
370
25
100
AcDbLine
 10
221.149657
 20
208.589897
 11
221.149657
 21
206.339897
  0
LINE
  5
107
100
AcDbEntity
  8
M0
  6
CONTINUOUS
370
25
100
AcDbLine
 10
199.149657
 20
206.339897
 11
199.149657
 21
205.839897
  0
LINE
  5
108
100
AcDbEntity
  8
M0
  6
CONTINUOUS
370
25
100
AcDbLine
 10
199.149657
 20
191.339897
 11
199.149657
 21
190.839897
  0
LINE
  5
109
100
AcDbEntity
  8
M0
  6
CONTINUOUS
370
25
100
AcDbLine
 10
199.149657
 20
206.339897
 11
221.149657
 21
206.339897
  0
LINE
  5
10A
100
AcDbEntity
  8
M0
  6
CONTINUOUS
370
25
100
AcDbLine
 10
187.649657
 20
205.839897
 11
199.149657
 21
205.839897
  0
LINE
  5
10B
100
AcDbEntity
  8
M0
  6
CONTINUOUS
370
25
100
AcDbLine
 10
187.649657
 20
191.339897
 11
199.149657
 21
191.339897
  0
LINE
  5
10C
100
AcDbEntity
  8
M0
  6
CONTINUOUS
370
25
100
AcDbLine
 10
199.149657
 20
190.839897
 11
212.049657
 21
190.839897
  0
LINE
  5
10D
100
AcDbEntity
  8
M0
  6
CONTINUOUS
370
25
100
AcDbLine
 10
214.149657
 20
195.589897
 11
213.549657
 21
195.589897
  0
LINE
  5
10E
100
AcDbEntity
  8
M0
  6
CONTINUOUS
370
25
100
AcDbLine
 10
213.549657
 20
195.589897
 11
213.549657
 21
192.339897
  0
LINE
  5
10F
100
AcDbEntity
  8
M0
  6
CONTINUOUS
370
25
100
AcDbLine
 10
228.649657
 20
200.589897
 11
229.149657
 21
201.089897
  0
LINE
  5
110
100
AcDbEntity
  8
M0
  6
CONTINUOUS
370
25
100
AcDbLine
 10
186.149657
 20
204.339897
 11
187.649657
 21
205.839897
  0
LINE
  5
111
100
AcDbEntity
  8
M0
  6
CONTINUOUS
370
25
100
AcDbLine
 10
186.149657
 20
192.839897
 11
187.649657
 21
191.339897
  0
LINE
  5
112
100
AcDbEntity
  8
M0
  6
CONTINUOUS
370
25
100
AcDbLine
 10
212.049657
 20
190.839897
 11
213.549657
 21
192.339897
  0
ARC
  5
113
100
AcDbEntity
  8
M0
  6
CONTINUOUS
370
25
100
AcDbCircle
 10
215.149657
 20
199.589897
 40
1.0
100
AcDbArc
 50
90.0
 51
180.0
  0
LINE
  5
114
100
AcDbEntity
  8
M0
  6
CONTINUOUS
370
25
100
AcDbLine
 10
221.149657
 20
208.589897
 11
222.149657
 21
209.589897
  0
LINE
  5
115
100
AcDbEntity
  8
M0
  6
CONTINUOUS
370
25
100
AcDbLine
 10
209.149657
 20
208.339897
 11
217.149657
 21
208.339897
  0
LINE
  5
116
100
AcDbEntity
  8
M0
  6
CONTINUOUS
370
25
100
AcDbLine
 10
218.149657
 20
207.339897
 11
218.149657
 21
206.339897
  0
LINE
  5
117
100
AcDbEntity
  8
M0
  6
CONTINUOUS
370
25
100
AcDbLine
 10
208.149657
 20
207.339897
 11
208.149657
 21
206.339897
  0
ARC
  5
118
100
AcDbEntity
  8
M0
  6
CONTINUOUS
370
25
100
AcDbCircle
 10
209.149657
 20
207.339897
 40
1.0
100
AcDbArc
 50
90.0
 51
180.0
  0
ARC
  5
119
100
AcDbEntity
  8
M0
  6
CONTINUOUS
370
25
100
AcDbCircle
 10
217.149657
 20
207.339897
 40
1.0
100
AcDbArc
 50
0.0
 51
90.0
  0
LINE
  5
11A
100
AcDbEntity
  8
M0
  6
CONTINUOUS
370
25
100
AcDbLine
 10
229.149657
 20
230.589897
 11
230.949657
 21
230.589897
  0
LINE
  5
11B
100
AcDbEntity
  8
M0
  6
CONTINUOUS
370
25
100
AcDbLine
 10
227.079626
 20
224.589897
 11
233.151402
 21
224.589897
  0
LINE
  5
11C
100
AcDbEntity
  8
M0
  6
CONTINUOUS
370
25
100
AcDbLine
 10
230.949657
 20
230.589897
 11
230.949657
 21
196.589897
  0
LINE
  5
11D
100
AcDbEntity
  8
M0
  6
CONTINUOUS
370
25
100
AcDbLine
 10
229.149657
 20
196.589897
 11
230.949657
 21
196.589897
  0
LINE
  5
11E
100
AcDbEntity
  8
M0
  6
CONTINUOUS
370
25
100
AcDbLine
 10
229.149657
 20
227.339897
 11
230.949657
 21
227.339897
  0
LINE
  5
11F
100
AcDbEntity
  8
M0
  6
CONTINUOUS
370
25
100
AcDbLine
 10
229.149657
 20
221.839897
 11
230.949657
 21
221.839897
  0
LINE
  5
120
100
AcDbEntity
  8
M0
  6
CONTINUOUS
370
25
100
AcDbLine
 10
230.949657
 20
208.589897
 11
231.838683
 21
208.543305
  0
LINE
  5
121
100
AcDbEntity
  8
M0
  6
CONTINUOUS
370
25
100
AcDbLine
 10
230.949657
 20
201.589897
 11
231.838683
 21
201.636489
  0
ARC
  5
122
100
AcDbEntity
  8
M0
  6
CONTINUOUS
370
25
100
AcDbCircle
 10
228.22076
 20
205.089897
 40
5.328897
100
AcDbArc
 50
325.453985
 51
394.546015
  0
ARC
  5
123
100
AcDbEntity
  8
M0
  6
CONTINUOUS
370
25
100
AcDbCircle
 10
231.786347
 20
207.544675
 40
1.0
100
AcDbArc
 50
34.546015
 51
87.0
  0
ARC
  5
124
100
AcDbEntity
  8
M0
  6
CONTINUOUS
370
25
100
AcDbCircle
 10
231.786347
 20
202.635118
 40
1.0
100
AcDbArc
 50
273.0
 51
325.453985
  0
LINE
  5
125
100
AcDbEntity
  8
M0
  6
CONTINUOUS
370
25
100
AcDbLine
 10
179.899657
 20
123.639897
 11
206.649657
 21
123.639897
  0
LINE
  5
126
100
AcDbEntity
  8
M0
  6
CONTINUOUS
370
25
100
AcDbLine
 10
206.649657
 20
123.639897
 11
207.149657
 21
124.139897
  0
LINE
  5
127
100
AcDbEntity
  8
M0
  6
CONTINUOUS
370
25
100
AcDbLine
 10
207.149657
 20
124.139897
 11
207.149657
 21
166.589897
  0
LINE
  5
128
100
AcDbEntity
  8
M0
  6
CONTINUOUS
370
25
100
AcDbLine
 10
207.149657
 20
126.839897
 11
221.149657
 21
126.839897
  0
LINE
  5
129
100
AcDbEntity
  8
M0
  6
CONTINUOUS
370
25
100
AcDbLine
 10
221.149657
 20
124.589897
 11
221.149657
 21
166.589897
  0
LINE
  5
12A
100
AcDbEntity
  8
M0
  6
CONTINUOUS
370
25
100
AcDbLine
 10
221.149657
 20
124.589897
 11
222.149657
 21
123.589897
  0
LINE
  5
12B
100
AcDbEntity
  8
M0
  6
CONTINUOUS
370
25
100
AcDbLine
 10
222.149657
 20
123.589897
 11
230.949657
 21
123.589897
  0
LINE
  5
12C
100
AcDbEntity
  8
M0
  6
CONTINUOUS
370
25
100
AcDbLine
 10
229.149657
 20
123.589897
 11
229.149657
 21
166.589897
  0
LINE
  5
12D
100
AcDbEntity
  8
M0
  6
CONTINUOUS
370
25
100
AcDbLine
 10
230.949657
 20
123.589897
 11
230.949657
 21
166.589897
  0
ARC
  5
12E
100
AcDbEntity
  8
M0
  6
CONTINUOUS
370
25
100
AcDbCircle
 10
231.786347
 20
130.544675
 40
1.0
100
AcDbArc
 50
34.546015
 51
87.0
  0
ARC
  5
12F
100
AcDbEntity
  8
M0
  6
CONTINUOUS
370
25
100
AcDbCircle
 10
231.786347
 20
125.635118
 40
1.0
100
AcDbArc
 50
273.0
 51
325.453985
  0
ARC
  5
130
100
AcDbEntity
  8
M0
  6
CONTINUOUS
370
25
100
AcDbCircle
 10
228.22076
 20
128.089897
 40
5.328897
100
AcDbArc
 50
325.453985
 51
394.546015
  0
LINE
  5
131
100
AcDbEntity
  8
M0
  6
CONTINUOUS
370
25
100
AcDbLine
 10
230.949657
 20
131.589897
 11
231.838683
 21
131.543305
  0
LINE
  5
132
100
AcDbEntity
  8
M0
  6
CONTINUOUS
370
25
100
AcDbLine
 10
230.949657
 20
124.589897
 11
231.838683
 21
124.636489
  0
LINE
  5
133
100
AcDbEntity
  8
M0
  6
CONTINUOUS
370
25
100
AcDbLine
 10
233.599657
 20
146.589897
 11
234.099657
 21
147.089897
  0
LINE
  5
134
100
AcDbEntity
  8
M0
  6
CONTINUOUS
370
25
100
AcDbLine
 10
230.949657
 20
146.589897
 11
233.599657
 21
146.589897
  0
LINE
  5
135
100
AcDbEntity
  8
M0
  6
CONTINUOUS
370
25
100
AcDbLine
 10
234.099657
 20
147.089897
 11
234.099657
 21
166.589897
  0
ARC
  5
136
100
AcDbEntity
  8
M0
  6
CONTINUOUS
370
25
100
AcDbCircle
 10
231.786347
 20
164.135118
 40
1.0
100
AcDbArc
 50
273.0
 51
325.453985
  0
LINE
  5
137
100
AcDbEntity
  8
M0
  6
CONTINUOUS
370
25
100
AcDbLine
 10
230.949657
 20
163.089897
 11
231.838683
 21
163.136489
  0
ARC
  5
138
100
AcDbEntity
  8
M0
  6
CONTINUOUS
370
25
100
AcDbCircle
 10
228.22076
 20
166.589897
 40
5.328897
100
AcDbArc
 50
325.453985
 51
360.0
  0
LINE
  5
139
100
AcDbEntity
  8
M0
  6
CONTINUOUS
370
25
100
AcDbLine
 10
214.149657
 20
236.073151
 11
214.149657
 21
220.530619
  0
LINE
  5
13A
100
AcDbEntity
  8
M0
  6
CONTINUOUS
370
25
100
AcDbLine
 10
212.149657
 20
236.075283
 11
212.149657
 21
221.944976
  0
ARC
  5
13B
100
AcDbEntity
  8
M0
  6
CONTINUOUS
370
25
100
AcDbCircle
 10
226.98029
 20
236.044759
 40
14.830665
100
AcDbArc
 50
124.423372
 51
180.117927
  0
ARC
  5
13C
100
AcDbEntity
  8
M0
  6
CONTINUOUS
370
25
100
AcDbCircle
 10
226.98029
 20
236.044759
 40
12.830665
100
AcDbArc
 50
124.423372
 51
180.117927
  0
LINE
  5
13D
100
AcDbEntity
  8
M0
  6
CONTINUOUS
370
25
100
AcDbLine
 10
218.596463
 20
248.278321
 11
219.72707
 21
246.628556
  0
LINE
  5
13E
100
AcDbEntity
  8
M0
  6
CONTINUOUS
370
25
100
AcDbLine
 10
219.161766
 20
247.453439
 11
221.941502
 21
249.175694
  0
LINE
  5
13F
100
AcDbEntity
  8
M0
  6
CONTINUOUS
370
25
100
AcDbLine
 10
207.137547
 20
247.453439
 11
204.357811
 21
249.175694
  0
LINE
  5
140
100
AcDbEntity
  8
M0
  6
CONTINUOUS
370
25
100
AcDbLine
 10
207.70285
 20
248.278321
 11
206.572243
 21
246.628556
  0
ARC
  5
141
100
AcDbEntity
  8
M0
  6
CONTINUOUS
370
25
100
AcDbCircle
 10
199.319023
 20
236.044759
 40
12.830665
100
AcDbArc
 50
359.882073
 51
415.576628
  0
ARC
  5
142
100
AcDbEntity
  8
M0
  6
CONTINUOUS
370
25
100
AcDbCircle
 10
199.319023
 20
236.044759
 40
14.830665
100
AcDbArc
 50
21.160955
 51
55.576628
  0
LINE
  5
143
100
AcDbEntity
  8
M0
  6
CONTINUOUS
370
25
100
AcDbLine
 10
212.149657
 20
221.944976
 11
214.149657
 21
220.530619
  0
LINE
  5
144
100
AcDbEntity
  8
M0
  6
CONTINUOUS
370
25
100
AcDbLine
 10
212.149657
 20
219.183636
 11
214.149657
 21
217.883381
  0
LINE
  5
145
100
AcDbEntity
  8
M0
  6
CONTINUOUS
370
25
100
AcDbLine
 10
212.149657
 20
219.183636
 11
212.149657
 21
208.339897
  0
LINE
  5
146
100
AcDbEntity
  8
M0
  6
CONTINUOUS
370
25
100
AcDbLine
 10
214.149657
 20
217.883381
 11
214.149657
 21
208.339897
  0
LINE
  5
147
100
AcDbEntity
  8
M0
  6
CONTINUOUS
370
25
100
AcDbLine
 10
74.874446
 20
216.634615
 11
74.874446
 21
209.493306
  0
LINE
  5
148
100
AcDbEntity
  8
M0
  6
CONTINUOUS
370
25
100
AcDbLine
 10
72.874446
 20
217.93487
 11
72.874446
 21
209.539897
  0
LINE
  5
149
100
AcDbEntity
  8
M0
  6
CONTINUOUS
370
25
100
AcDbLine
 10
70.874446
 20
219.235126
 11
74.874446
 21
216.634615
  0
LINE
  5
14A
100
AcDbEntity
  8
M0
  6
CONTINUOUS
370
25
100
AcDbLine
 10
70.874446
 20
234.424928
 11
74.874446
 21
231.596214
  0
LINE
  5
14B
100
AcDbEntity
  8
M0
  6
CONTINUOUS
370
25
100
AcDbLine
 10
72.874446
 20
236.076904
 11
72.874446
 21
233.010571
  0
LINE
  5
14C
100
AcDbEntity
  8
M0
  6
CONTINUOUS
370
25
100
AcDbLine
 10
74.874446
 20
236.074771
 11
74.874446
 21
231.596214
  0
ARC
  5
14D
100
AcDbEntity
  8
M0
  6
CONTINUOUS
370
25
100
AcDbCircle
 10
87.705079
 20
236.046379
 40
12.830665
100
AcDbArc
 50
124.423372
 51
180.117927
  0
ARC
  5
14E
100
AcDbEntity
  8
M0
  6
CONTINUOUS
370
25
100
AcDbCircle
 10
87.705079
 20
236.046379
 40
14.830665
100
AcDbArc
 50
124.423372
 51
180.117927
  0
LINE
  5
14F
100
AcDbEntity
  8
M0
  6
CONTINUOUS
370
25
100
AcDbLine
 10
79.886556
 20
247.455059
 11
82.666291
 21
249.177314
  0
LINE
  5
150
100
AcDbEntity
  8
M0
  6
CONTINUOUS
370
25
100
AcDbLine
 10
79.321252
 20
248.279942
 11
80.451859
 21
246.630176
  0
ARC
  5
151
100
AcDbEntity
  8
M0
  6
CONTINUOUS
370
25
100
AcDbCircle
 10
58.043813
 20
236.046379
 40
14.830665
100
AcDbArc
 50
359.882073
 51
415.576628
  0
ARC
  5
152
100
AcDbEntity
  8
M0
  6
CONTINUOUS
370
25
100
AcDbCircle
 10
58.043813
 20
236.046379
 40
12.830665
100
AcDbArc
 50
359.882073
 51
415.576628
  0
LINE
  5
153
100
AcDbEntity
  8
M0
  6
CONTINUOUS
370
25
100
AcDbLine
 10
65.862337
 20
247.455059
 11
63.082601
 21
249.177314
  0
LINE
  5
154
100
AcDbEntity
  8
M0
  6
CONTINUOUS
370
25
100
AcDbLine
 10
66.42764
 20
248.279942
 11
65.297033
 21
246.630176
  0
LINE
  5
155
100
AcDbEntity
  8
M0
  6
CONTINUOUS
370
25
100
AcDbLine
 10
70.874446
 20
236.074771
 11
70.874446
 21
234.424928
  0
LINE
  5
156
100
AcDbEntity
  8
M0
  6
CONTINUOUS
370
25
100
AcDbLine
 10
70.874446
 20
219.235126
 11
70.874446
 21
209.493306
  0
LINE
  5
157
100
AcDbEntity
  8
M0
  6
CONTINUOUS
370
25
100
AcDbLine
 10
66.874446
 20
230.589897
 11
78.874446
 21
230.589897
  0
LINE
  5
158
100
AcDbEntity
  8
M0
  6
CONTINUOUS
370
25
100
AcDbLine
 10
230.599657
 20
166.589897
 11
241.099657
 21
166.589897
  0
LINE
  5
159
100
AcDbEntity
  8
M0
  6
CONTINUOUS
370
25
100
AcDbLine
 10
179.899657
 20
123.639897
 11
179.899657
 21
166.589897
  0
LINE
  5
15A
100
AcDbEntity
  8
M0
  6
CONTINUOUS
370
25
100
AcDbLine
 10
47.212757
 20
211.037246
 11
54.14096
 21
215.037246
  0
LINE
  5
15B
100
AcDbEntity
  8
M0
  6
CONTINUOUS
370
25
100
AcDbLine
 10
47.212757
 20
211.037246
 11
50.412838
 21
211.894543
  0
LINE
  5
15C
100
AcDbEntity
  8
M0
  6
CONTINUOUS
370
25
100
AcDbLine
 10
47.212757
 20
211.037246
 11
49.555238
 21
213.379949
  0
LINE
  5
15D
100
AcDbEntity
  8
M0
  6
CONTINUOUS
370
25
100
AcDbLine
 10
49.212757
 20
207.573144
 11
45.212757
 21
214.501348
  0
LINE
  5
15E
100
AcDbEntity
  8
M0
  6
CONTINUOUS
370
25
100
AcDbLine
 10
98.10578
 20
122.794103
 11
105.03378
 21
126.794903
  0
LINE
  5
15F
100
AcDbEntity
  8
M0
  6
CONTINUOUS
370
25
100
AcDbLine
 10
98.10578
 20
122.794103
 11
100.44818
 21
125.137303
  0
LINE
  5
160
100
AcDbEntity
  8
M0
  6
CONTINUOUS
370
25
100
AcDbLine
 10
98.10578
 20
122.794103
 11
101.30578
 21
123.651703
  0
LINE
  5
161
100
AcDbEntity
  8
M0
  6
CONTINUOUS
370
25
100
AcDbLine
 10
96.10578
 20
126.258903
 11
100.10498
 21
119.330103
  0
LINE
  5
162
100
AcDbEntity
  8
M0
  6
CONTINUOUS
370
25
100
AcDbLine
 10
72.874446
 20
229.589897
 11
72.874446
 21
219.589897
  0
LINE
  5
163
100
AcDbEntity
  8
M0
  6
CONTINUOUS
370
25
100
AcDbLine
 10
77.874446
 20
224.589897
 11
67.874446
 21
224.589897
  0
CIRCLE
  5
164
100
AcDbEntity
  8
M0
  6
CONTINUOUS
370
25
100
AcDbCircle
 10
72.874446
 20
224.589897
 40
2.75
  0
ARC
  5
165
100
AcDbEntity
  8
M0
  6
CONTINUOUS
370
25
100
AcDbCircle
 10
313.883174
 20
236.046379
 40
12.830665
100
AcDbArc
 50
359.882073
 51
415.576628
  0
ARC
  5
166
100
AcDbEntity
  8
M0
  6
CONTINUOUS
370
25
100
AcDbCircle
 10
313.883174
 20
236.046379
 40
14.830665
100
AcDbArc
 50
359.882073
 51
415.576628
  0
ARC
  5
167
100
AcDbEntity
  8
M0
  6
CONTINUOUS
370
25
100
AcDbCircle
 10
343.54444
 20
236.046379
 40
14.830665
100
AcDbArc
 50
124.423372
 51
180.117927
  0
ARC
  5
168
100
AcDbEntity
  8
M0
  6
CONTINUOUS
370
25
100
AcDbCircle
 10
343.54444
 20
236.046379
 40
12.830665
100
AcDbArc
 50
124.423372
 51
180.117927
  0
LINE
  5
169
100
AcDbEntity
  8
M0
  6
CONTINUOUS
370
25
100
AcDbLine
 10
326.713807
 20
236.074771
 11
326.713807
 21
230.589897
  0
LINE
  5
16A
100
AcDbEntity
  8
M0
  6
CONTINUOUS
370
25
100
AcDbLine
 10
322.267001
 20
248.279942
 11
321.136394
 21
246.630176
  0
LINE
  5
16B
100
AcDbEntity
  8
M0
  6
CONTINUOUS
370
25
100
AcDbLine
 10
335.160613
 20
248.279942
 11
336.29122
 21
246.630176
  0
LINE
  5
16C
100
AcDbEntity
  8
M0
  6
CONTINUOUS
370
25
100
AcDbLine
 10
335.725917
 20
247.455059
 11
338.505652
 21
249.177314
  0
LINE
  5
16D
100
AcDbEntity
  8
M0
  6
CONTINUOUS
370
25
100
AcDbLine
 10
330.713807
 20
236.074771
 11
330.713807
 21
230.589897
  0
LINE
  5
16E
100
AcDbEntity
  8
M0
  6
CONTINUOUS
370
25
100
AcDbLine
 10
328.713807
 20
236.076904
 11
328.713807
 21
230.589897
  0
LINE
  5
16F
100
AcDbEntity
  8
M0
  6
CONTINUOUS
370
25
100
AcDbLine
 10
321.701697
 20
247.455059
 11
318.921962
 21
249.177314
  0
TEXT
  5
170
100
AcDbEntity
  8
M0
100
AcDbText
 10
328.562335
 20
46.447351
 40
6.0
  1
ＴＺ－１０
 41
0.972222
  7
STANDARD
100
AcDbText
  0
TEXT
  5
171
100
AcDbEntity
  8
M0
100
AcDbText
 10
319.076251
 20
38.02643
 40
5.0
  1
（ＳＤＫ３０１４）
 41
0.966667
  7
STANDARD
100
AcDbText
  0
ENDSEC
  0
SECTION
  2
OBJECTS
  0
DICTIONARY
  5
C
100
AcDbDictionary
  3
ACAD_GROUP
350
D
  3
ACAD_MLINESTYLE
350
E
  0
DICTIONARY
  5
D
102
{ACAD_REACTORS
330
C
102
}
100
AcDbDictionary
  0
DICTIONARY
  5
E
102
{ACAD_REACTORS
330
C
102
}
100
AcDbDictionary
  3
STANDARD
350
13
  0
MLINESTYLE
  5
13
102
{ACAD_REACTORS
330
E
102
}
100
AcDbMlineStyle
  2
STANDARD
 70
     0
  3

 62
     0
 51
90.0
 52
90.0
 71
     2
 49
0.5
 62
   256
  6
BYLAYER
 49
-0.5
 62
   256
  6
BYLAYER
  0
ENDSEC
  0
EOF
