  0
SECTION
  2
HEADER
  9
$ACADVER
  1
AC1015
  9
$INSBASE
 10
0.0
 20
0.0
  9
$VIEWCTR
 10
7.531722
 20
4.5
  9
$VIEWSIZE
 40
9.0
  9
$SNAPMODE
 70
     0
  9
$SNAPUNIT
 10
1.0
 20
1.0
  9
$SNAPBASE
 10
0.0
 20
0.0
  9
$SNAPANG
 50
0.0
  9
$SNAPSTYLE
 70
     0
  9
$SNAPISOPAIR
 70
     0
  9
$GRIDMODE
 70
     0
  9
$GRIDUNIT
 10
0.0
 20
0.0
  9
$ORTHOMODE
 70
     0
  9
$REGENMODE
 70
     1
  9
$FILLMODE
 70
     1
  9
$QTEXTMODE
 70
     0
  9
$DRAGMODE
 70
     2
  9
$LTSCALE
 40
1.0
  9
$OSMODE
 70
     0
  9
$ATTMODE
 70
     1
  9
$TEXTSIZE
 40
0.2
  9
$TRACEWID
 40
0.05
  9
$TEXTSTYLE
  7
STANDARD
  9
$CELTYPE
  6
BYLAYER
  9
$CECOLOR
 62
   256
  9
$DIMSCALE
 40
1.0
  9
$DIMASZ
 40
0.18
  9
$DIMEXO
 40
0.0625
  9
$DIMDLI
 40
0.38
  9
$DIMRND
 40
0.0
  9
$DIMDLE
 40
0.0
  9
$DIMEXE
 40
0.18
  9
$DIMTP
 40
0.0
  9
$DIMTM
 40
0.0
  9
$DIMTXT
 40
0.18
  9
$DIMCEN
 40
0.09
  9
$DIMTSZ
 40
0.0
  9
$DIMADEC
 70
     0
  9
$DIMALTRND
 40
0.000000
  9
$DIMAZIN
 70
     0
  9
$DIMDSEP
 70
    46
  9
$DIMATFIT
 70
     3
  9
$DIMFRAC
 70
     0
  9
$DIMLDRBLK
  1

  9
$DIMLUNIT
 70
     2
  9
$DIMLWD
 70
   13
  9
$DIMLWE
 70
   13
  9
$DIMTMOVE
 70
     0
  9
$CELWEIGHT
370
    25
  9
$LWDISPLAY
290
    1
  9
$EXTNAMES
290
    1
  9
$DIMTOL
 70
     0
  9
$DIMLIM
 70
     0
  9
$DIMTIH
 70
     1
  9
$DIMTOH
 70
     1
  9
$DIMSE1
 70
     0
  9
$DIMSE2
 70
     0
  9
$DIMTAD
 70
     0
  9
$DIMZIN
 70
     0
  9
$DIMBLK
  1

  9
$LUNITS
 70
     2
  9
$LUPREC
 70
     4
  9
$AXISMODE
 70
     0
  9
$AXISUNIT
 10
0.0
 20
0.0
  9
$SKETCHINC
 40
0.1
  9
$FILLETRAD
 40
0.0
  9
$AUNITS
 70
     0
  9
$AUPREC
 70
     0
  9
$MENU
  1
ACAD
  9
$ELEVATION
 40
0.0
  9
$THICKNESS
 40
0.0
  9
$VIEWDIR
 10
0.0
 20
0.0
 30
1.0
  9
$LIMCHECK
 70
     0
  9
$BLIPMODE
 70
     1
  9
$CHAMFERA
 40
0.0
  9
$CHAMFERB
 40
0.0
  9
$FASTZOOM
 70
     1
  9
$SKPOLY
 70
     0
  9
$TDCREATE
 40
0000000.0000000000
  9
$TDUPDATE
 40
0000000.0000000000
  9
$TDINDWG
 40
0.0000000000
  9
$TDUSRTIMER
 40
0.0000000000
  9
$USRTIMER
 70
     1
  9
$ANGBASE
 50
0.0
  9
$ANGDIR
 70
     0
  9
$PDMODE
 70
     0
  9
$PDSIZE
 40
0.0
  9
$PLINEWID
 40
0.0
  9
$COORDS
 70
     0
  9
$USERI1
 70
     0
  9
$USERI2
 70
     0
  9
$USERI3
 70
     0
  9
$USERI4
 70
     0
  9
$USERI5
 70
     0
  9
$USERR1
 40
0.0
  9
$USERR2
 40
0.0
  9
$USERR3
 40
0.0
  9
$USERR4
 40
0.0
  9
$USERR5
 40
0.0
  9
$CLAYER
  8
M0
  9
$EXTMIN
 10
0.0
 20
0.0
  9
$EXTMAX
 10
841.0
 20
594.0
  9
$LIMMIN
 10
0.0
 20
0.0
  9
$LIMMAX
 10
841.0
 20
594.0
  9
$HANDSEED
  5
197
  0
ENDSEC
  0
SECTION
  2
CLASSES
  0
ENDSEC
  0
SECTION
  2
TABLES
  0
TABLE
  2
VPORT
  5
8
100
AcDbSymbolTable
 70
     2
  0
VPORT
  5
14
100
AcDbSymbolTableRecord
100
AcDbViewportTableRecord
  2
*ACTIVE
 70
     0
 10
0.0
 20
0.0
 11
1.0
 21
1.0
 12
484.0
 22
297.0
 13
0.0
 23
0.0
 14
1.0
 24
1.0
 15
0.0
 25
0.0
 16
0.0
 26
0.0
 36
1.0
 17
0.0
 27
0.0
 37
0.0
 40
594.0
 41
2.0
 42
50.0
 43
0.0
 44
0.0
 50
0.0
 51
0.0
 71
     0
 72
   100
 73
     1
 74
     1
 75
     0
 76
     0
 77
     0
 78
     0
  0
ENDTAB
  0
TABLE
  2
LTYPE
  5
5
100
AcDbSymbolTable
 70
     5
  0
LTYPE
  5
15
100
AcDbSymbolTableRecord
100
AcDbLinetypeTableRecord
  2
BYBLOCK
 70
     0
  3

 72
    65
 73
     0
 40
0.0
  0
LTYPE
  5
16
100
AcDbSymbolTableRecord
100
AcDbLinetypeTableRecord
  2
BYLAYER
 70
     0
  3

 72
    65
 73
     0
 40
0.0
  0
LTYPE
  5
17
100
AcDbSymbolTableRecord
100
AcDbLinetypeTableRecord
  2
CONTINUOUS
 70
    64
  3
Solid line
 72
    65
 73
     0
 40
0.0
  0
LTYPE
  5
18
100
AcDbSymbolTableRecord
100
AcDbLinetypeTableRecord
  2
DASHED
 70
    64
  3
__ __ __ __ __ __ __ __ __ __ __ __ __ __ __ __
 72
    65
 73
     2
 40
0.75
 49
0.5
 74
     0
 49
-0.25
 74
     0
  0
LTYPE
  5
19
100
AcDbSymbolTableRecord
100
AcDbLinetypeTableRecord
  2
DASHDOT
 70
    64
  3
__ . __ . __ . __ . __ . __ . __ . __ . __ . __
 72
    65
 73
     4
 40
1.0
 49
0.5
 74
     0
 49
-0.25
 74
     0
 49
0.0
 74
     0
 49
-0.25
 74
     0
  0
LTYPE
  5
1A
100
AcDbSymbolTableRecord
100
AcDbLinetypeTableRecord
  2
DIVIDE
 70
    64
  3
____ . . ____ . . ____ . . ____ . . ____ . . __
 72
    65
 73
     6
 40
1.25
 49
0.5
 74
     0
 49
-0.25
 74
     0
 49
0.0
 74
     0
 49
-0.25
 74
     0
 49
0.0
 74
     0
 49
-0.25
 74
     0
  0
LTYPE
  5
1B
100
AcDbSymbolTableRecord
100
AcDbLinetypeTableRecord
  2
DOT
 70
    64
  3
. . . . . . . . . . . . . . . . . . . . . . . .
 72
    65
 73
     2
 40
0.25
 49
0.0
 74
     0
 49
-0.25
 74
     0
  0
ENDTAB
  0
TABLE
  2
LAYER
  5
2
100
AcDbSymbolTable
 70
   102
  0
LAYER
  5
F
100
AcDbSymbolTableRecord
100
AcDbLayerTableRecord
  2
0
 70
     0
 62
     7
  6
CONTINUOUS
370
     -3
390
F
  0
LAYER
  5
1C
100
AcDbSymbolTableRecord
100
AcDbLayerTableRecord
  2
M0
 70
     0
 62
     7
  6
CONTINUOUS
370
     -3
390
F
  0
ENDTAB
  0
TABLE
  2
STYLE
  5
3
100
AcDbSymbolTable
 70
     2
  0
STYLE
  5
10
100
AcDbSymbolTableRecord
100
AcDbTextStyleTableRecord
  2
STANDARD
 70
     0
 40
0.0
 41
1.0
 50
0.0
 71
     0
 42
0.2
  3
txt
  4
BIGFONT
  0
ENDTAB
  0
TABLE
  2
VIEW
  5
6
100
AcDbSymbolTable
 70
     0
  0
ENDTAB
  0
TABLE
  2
UCS
  5
7
100
AcDbSymbolTable
 70
     0
  0
ENDTAB
  0
TABLE
  2
APPID
  5
9
100
AcDbSymbolTable
 70
     1
  0
APPID
  5
11
100
AcDbSymbolTableRecord
100
AcDbRegAppTableRecord
  2
ACAD
 70
     0
  0
ENDTAB
  0
TABLE
  2
DIMSTYLE
  5
A
100
AcDbSymbolTable
 70
     2
100
AcDbDimStyleTable
 71
     1
  0
DIMSTYLE
105
23
100
AcDbSymbolTableRecord
100
AcDbDimStyleTableRecord
  2
STANDARD
 70
     0
  3

  4

  5

  6
_OPEN
  7
_OPEN
 40
1.0
 41
3.0
 42
0.5
 43
8.0
 44
1.5
 45
0.0
 46
0.0
 47
0.0
 48
0.0
140
3.15
141
0.09
142
0.0
143
0.03937
144
1.0
145
0.0
146
1.0
147
1.0
148
0.000000
 71
     0
 72
     0
 73
     0
 74
     0
 75
     0
 76
     0
 77
     3
 78
     8
170
     0
171
     2
172
     0
173
     1
174
     0
175
     0
176
     0
177
     0
178
     0
270
     2
271
     2
272
     4
273
     2
274
     2
340
10
275
     0
278
    46
280
     0
281
     0
282
     0
283
     1
284
     0
285
     0
286
     0
287
     3
288
     0
371
   13
372
   13
  0
DIMSTYLE
105
24
100
AcDbSymbolTableRecord
100
AcDbDimStyleTableRecord
  2
LEADSTYL
 70
     0
  3

  4

  5

  6
_OPEN
  7
_OPEN
 40
1.0
 41
3.0
 42
0.0625
 43
0.38
 44
0.18
 45
0.0
 46
0.0
 47
0.0
 48
0.0
140
3.15
141
0.09
142
0.0
143
25.4
144
1.0
145
0.0
146
1.0
147
1.0
 71
     0
 72
     0
 73
     1
 74
     1
 75
     0
 76
     0
 77
     0
 78
     0
170
     0
171
     2
172
     0
173
     1
174
     0
175
     0
176
     0
177
     0
178
     0
270
     2
271
     4
272
     4
273
     2
274
     2
340
10
275
     0
280
     0
281
     0
282
     0
283
     1
284
     0
285
     0
286
     0
287
     3
288
     0
  0
ENDTAB
  0
TABLE
  2
BLOCK_RECORD
  5
1
100
AcDbSymbolTable
 70
     6
  0
BLOCK_RECORD
  5
1D
100
AcDbSymbolTableRecord
100
AcDbBlockTableRecord
  2
*MODEL_SPACE
  0
BLOCK_RECORD
  5
20
100
AcDbSymbolTableRecord
100
AcDbBlockTableRecord
  2
*PAPER_SPACE
  0
BLOCK_RECORD
  5
25
100
AcDbSymbolTableRecord
100
AcDbBlockTableRecord
  2
_NONE
  0
BLOCK_RECORD
  5
29
100
AcDbSymbolTableRecord
100
AcDbBlockTableRecord
  2
_OPEN
  0
BLOCK_RECORD
  5
2F
100
AcDbSymbolTableRecord
100
AcDbBlockTableRecord
  2
_CLOSED
  0
BLOCK_RECORD
  5
36
100
AcDbSymbolTableRecord
100
AcDbBlockTableRecord
  2
_ORIGIN
  0
BLOCK_RECORD
  5
3B
100
AcDbSymbolTableRecord
100
AcDbBlockTableRecord
  2
_DOT
  0
BLOCK_RECORD
  5
43
100
AcDbSymbolTableRecord
100
AcDbBlockTableRecord
  2
_OBLIQUE
  0
ENDTAB
  0
ENDSEC
  0
SECTION
  2
BLOCKS
  0
BLOCK
  5
1E
100
AcDbEntity
  8
0
100
AcDbBlockBegin
  2
*MODEL_SPACE
 70
     0
 10
0.0
 20
0.0
 30
0.0
  3
*MODEL_SPACE
  1

  0
ENDBLK
  5
1F
100
AcDbEntity
  8
0
100
AcDbBlockEnd
  0
BLOCK
  5
21
100
AcDbEntity
 67
     1
  8
0
100
AcDbBlockBegin
  2
*PAPER_SPACE
 70
     0
 10
0.0
 20
0.0
 30
0.0
  3
*PAPER_SPACE
  1

  0
ENDBLK
  5
22
100
AcDbEntity
 67
     1
  8
0
100
AcDbBlockEnd
  0
BLOCK
  5
26
100
AcDbEntity
  8
0
100
AcDbBlockBegin
  2
_NONE
 70
     0
 10
0.0
 20
0.0
  0
CIRCLE
  5
27
100
AcDbEntity
  8
0
 62
     0
370
13
100
AcDbCircle
 10
0.0
 20
0.0
 40
0.25
  0
ENDBLK
  5
28
100
AcDbEntity
  8
0
100
AcDbBlockEnd
  0
BLOCK
  5
2A
100
AcDbEntity
  8
0
100
AcDbBlockBegin
  2
_OPEN
 70
     0
 10
0.0
 20
0.0
  0
LINE
  5
2B
100
AcDbEntity
  8
0
 62
     0
370
13
100
AcDbLine
 10
-0.965926
 20
0.258819
 11
0.0
 21
0.0
  0
LINE
  5
2C
100
AcDbEntity
  8
0
 62
     0
370
13
100
AcDbLine
 10
0.0
 20
0.0
 11
-0.965926
 21
-0.258819
  0
LINE
  5
2D
100
AcDbEntity
  8
0
 62
     0
370
13
100
AcDbLine
 10
0.0
 20
0.0
 11
-1.0
 21
0.0
  0
ENDBLK
  5
2E
100
AcDbEntity
  8
0
100
AcDbBlockEnd
  0
BLOCK
  5
30
100
AcDbEntity
  8
0
100
AcDbBlockBegin
  2
_CLOSED
 70
     0
 10
0.0
 20
0.0
  0
LINE
  5
31
100
AcDbEntity
  8
0
 62
     0
370
13
100
AcDbLine
 10
-0.965926
 20
0.258819
 11
0.0
 21
0.0
  0
LINE
  5
32
100
AcDbEntity
  8
0
 62
     0
370
13
100
AcDbLine
 10
0.0
 20
0.0
 11
-0.965926
 21
-0.258819
  0
LINE
  5
33
100
AcDbEntity
  8
0
 62
     0
370
13
100
AcDbLine
 10
-0.965926
 20
0.258819
 11
-0.965926
 21
-0.258819
  0
LINE
  5
34
100
AcDbEntity
  8
0
 62
     0
370
13
100
AcDbLine
 10
0.0
 20
0.0
 11
-1.0
 21
0.0
  0
ENDBLK
  5
35
100
AcDbEntity
  8
0
100
AcDbBlockEnd
  0
BLOCK
  5
37
100
AcDbEntity
  8
0
100
AcDbBlockBegin
  2
_ORIGIN
 70
     0
 10
0.0
 20
0.0
  0
CIRCLE
  5
38
100
AcDbEntity
  8
0
 62
     0
370
13
100
AcDbCircle
 10
0.0
 20
0.0
 40
0.5
  0
LINE
  5
39
100
AcDbEntity
  8
0
 62
     0
370
13
100
AcDbLine
 10
0.0
 20
0.0
 11
-1.0
 21
0.0
  0
ENDBLK
  5
3A
100
AcDbEntity
  8
0
100
AcDbBlockEnd
  0
BLOCK
  5
3C
100
AcDbEntity
  8
0
100
AcDbBlockBegin
  2
_DOT
 70
     0
 10
0.0
 20
0.0
  0
POLYLINE
  5
3D
100
AcDbEntity
  8
0
 62
     0
100
AcDb2dPolyline
 66
     1
 70
     1
 40
0.5
 41
0.5
  0
VERTEX
  5
3E
100
AcDbEntity
  8
0
 62
     0
100
AcDbVertex
100
AcDb2dVertex
 10
-0.25
 20
0.0
 42
1.0
  0
VERTEX
  5
3F
100
AcDbEntity
  8
0
 62
     0
100
AcDbVertex
100
AcDb2dVertex
 10
0.25
 20
0.0
 42
1.0
  0
SEQEND
  5
40
100
AcDbEntity
  8
0
 62
     0
  0
LINE
  5
41
100
AcDbEntity
  8
0
 62
     0
370
13
100
AcDbLine
 10
-0.5
 20
0.0
 11
-1.0
 21
0.0
  0
ENDBLK
  5
42
100
AcDbEntity
  8
0
100
AcDbBlockEnd
  0
BLOCK
  5
44
100
AcDbEntity
  8
0
100
AcDbBlockBegin
  2
_OBLIQUE
 70
     0
 10
0.0
 20
0.0
  0
LINE
  5
45
100
AcDbEntity
  8
0
 62
     0
370
13
100
AcDbLine
 10
-0.353553
 20
-0.353553
 11
0.353553
 21
0.353553
  0
ENDBLK
  5
46
100
AcDbEntity
  8
0
100
AcDbBlockEnd
  0
ENDSEC
  0
SECTION
  2
ENTITIES
  0
LINE
  5
47
100
AcDbEntity
  8
M0
  6
CONTINUOUS
370
25
100
AcDbLine
 10
240.307963
 20
144.955106
 11
259.307963
 21
144.955106
  0
LINE
  5
48
100
AcDbEntity
  8
M0
  6
CONTINUOUS
370
25
100
AcDbLine
 10
240.307963
 20
134.955106
 11
259.307963
 21
134.955106
  0
LINE
  5
49
100
AcDbEntity
  8
M0
  6
CONTINUOUS
370
25
100
AcDbLine
 10
259.307963
 20
145.755106
 11
267.557963
 21
145.755106
  0
LINE
  5
4A
100
AcDbEntity
  8
M0
  6
CONTINUOUS
370
25
100
AcDbLine
 10
259.307963
 20
134.155106
 11
267.057963
 21
134.155106
  0
LINE
  5
4B
100
AcDbEntity
  8
M0
  6
CONTINUOUS
370
25
100
AcDbLine
 10
268.507865
 20
242.085106
 11
251.707963
 21
242.085106
  0
LINE
  5
4C
100
AcDbEntity
  8
M0
  6
CONTINUOUS
370
25
100
AcDbLine
 10
250.707963
 20
241.085106
 11
250.707963
 21
236.285106
  0
LINE
  5
4D
100
AcDbEntity
  8
M0
  6
CONTINUOUS
370
25
100
AcDbLine
 10
257.607963
 20
238.135106
 11
259.307963
 21
238.135106
  0
LINE
  5
4E
100
AcDbEntity
  8
M0
  6
CONTINUOUS
370
25
100
AcDbLine
 10
250.707963
 20
237.635106
 11
257.307963
 21
237.635106
  0
LINE
  5
4F
100
AcDbEntity
  8
M0
  6
CONTINUOUS
370
25
100
AcDbLine
 10
267.057963
 20
234.885106
 11
267.557963
 21
234.885106
  0
LINE
  5
50
100
AcDbEntity
  8
M0
  6
CONTINUOUS
370
25
100
AcDbLine
 10
259.307963
 20
233.385106
 11
259.807963
 21
233.385106
  0
LINE
  5
51
100
AcDbEntity
  8
M0
  6
CONTINUOUS
370
25
100
AcDbLine
 10
267.057963
 20
224.385106
 11
267.557963
 21
224.385106
  0
LINE
  5
52
100
AcDbEntity
  8
M0
  6
CONTINUOUS
370
25
100
AcDbLine
 10
251.207963
 20
235.785106
 11
256.807963
 21
235.785106
  0
LINE
  5
53
100
AcDbEntity
  8
M0
  6
CONTINUOUS
370
25
100
AcDbLine
 10
260.107963
 20
210.885106
 11
266.757963
 21
210.885106
  0
LINE
  5
54
100
AcDbEntity
  8
M0
  6
CONTINUOUS
370
25
100
AcDbLine
 10
267.557963
 20
238.135106
 11
267.557963
 21
234.885106
  0
LINE
  5
55
100
AcDbEntity
  8
M0
  6
CONTINUOUS
370
25
100
AcDbLine
 10
267.057963
 20
234.885106
 11
267.057963
 21
224.385106
  0
LINE
  5
56
100
AcDbEntity
  8
M0
  6
CONTINUOUS
370
25
100
AcDbLine
 10
259.307963
 20
183.385106
 11
259.307963
 21
233.385106
  0
LINE
  5
57
100
AcDbEntity
  8
M0
  6
CONTINUOUS
370
25
100
AcDbLine
 10
259.807963
 20
233.385106
 11
259.807963
 21
237.635106
  0
LINE
  5
58
100
AcDbEntity
  8
M0
  6
CONTINUOUS
370
25
100
AcDbLine
 10
257.307963
 20
237.835106
 11
257.307963
 21
236.285106
  0
LINE
  5
59
100
AcDbEntity
  8
M0
  6
CONTINUOUS
370
25
100
AcDbLine
 10
251.707963
 20
242.085106
 11
250.707963
 21
241.085106
  0
ARC
  5
5A
100
AcDbEntity
  8
M0
  6
CONTINUOUS
370
25
100
AcDbCircle
 10
257.607963
 20
237.835106
 40
0.3
100
AcDbArc
 50
90.0
 51
180.0
  0
ARC
  5
5B
100
AcDbEntity
  8
M0
  6
CONTINUOUS
370
25
100
AcDbCircle
 10
259.307963
 20
237.635106
 40
0.5
100
AcDbArc
 50
0.0
 51
90.0
  0
LINE
  5
5C
100
AcDbEntity
  8
M0
  6
CONTINUOUS
370
25
100
AcDbLine
 10
267.557963
 20
224.385106
 11
267.557963
 21
211.685106
  0
LINE
  5
5D
100
AcDbEntity
  8
M0
  6
CONTINUOUS
370
25
100
AcDbLine
 10
250.707963
 20
236.285106
 11
251.207963
 21
235.785106
  0
LINE
  5
5E
100
AcDbEntity
  8
M0
  6
CONTINUOUS
370
25
100
AcDbLine
 10
256.807963
 20
235.785106
 11
257.307963
 21
236.285106
  0
LINE
  5
5F
100
AcDbEntity
  8
M0
  6
CONTINUOUS
370
25
100
AcDbLine
 10
259.307963
 20
211.685106
 11
260.107963
 21
210.885106
  0
LINE
  5
60
100
AcDbEntity
  8
M0
  6
CONTINUOUS
370
25
100
AcDbLine
 10
266.757963
 20
210.885106
 11
267.557963
 21
211.685106
  0
ARC
  5
61
100
AcDbEntity
  8
M0
  6
CONTINUOUS
370
25
100
AcDbCircle
 10
311.257963
 20
242.085106
 40
44.45
100
AcDbArc
 50
180.0
 51
189.321826
  0
LINE
  5
62
100
AcDbEntity
  8
M0
  6
CONTINUOUS
370
25
100
AcDbLine
 10
250.707963
 20
125.685106
 11
250.707963
 21
130.485106
  0
LINE
  5
63
100
AcDbEntity
  8
M0
  6
CONTINUOUS
370
25
100
AcDbLine
 10
251.707963
 20
124.685106
 11
250.707963
 21
125.685106
  0
LINE
  5
64
100
AcDbEntity
  8
M0
  6
CONTINUOUS
370
25
100
AcDbLine
 10
268.507963
 20
124.685106
 11
251.707963
 21
124.685106
  0
LINE
  5
65
100
AcDbEntity
  8
M0
  6
CONTINUOUS
370
25
100
AcDbLine
 10
267.557963
 20
128.635106
 11
268.507865
 21
128.635106
  0
LINE
  5
66
100
AcDbEntity
  8
M0
  6
CONTINUOUS
370
25
100
AcDbLine
 10
267.557963
 20
128.635106
 11
267.557963
 21
131.885106
  0
ARC
  5
67
100
AcDbEntity
  8
M0
  6
CONTINUOUS
370
25
100
AcDbCircle
 10
311.257963
 20
124.685106
 40
44.450003
100
AcDbArc
 50
170.678174
 51
180.0
  0
LINE
  5
68
100
AcDbEntity
  8
M0
  6
CONTINUOUS
370
25
100
AcDbLine
 10
267.057963
 20
131.885106
 11
267.557963
 21
131.885106
  0
LINE
  5
69
100
AcDbEntity
  8
M0
  6
CONTINUOUS
370
25
100
AcDbLine
 10
267.057963
 20
131.885106
 11
267.057963
 21
142.385106
  0
LINE
  5
6A
100
AcDbEntity
  8
M0
  6
CONTINUOUS
370
25
100
AcDbLine
 10
267.057963
 20
142.385106
 11
267.557963
 21
142.385106
  0
LINE
  5
6B
100
AcDbEntity
  8
M0
  6
CONTINUOUS
370
25
100
AcDbLine
 10
267.557963
 20
142.385106
 11
267.557963
 21
183.385106
  0
LINE
  5
6C
100
AcDbEntity
  8
M0
  6
CONTINUOUS
370
25
100
AcDbLine
 10
259.807963
 20
133.385106
 11
259.807963
 21
129.135106
  0
ARC
  5
6D
100
AcDbEntity
  8
M0
  6
CONTINUOUS
370
25
100
AcDbCircle
 10
259.307963
 20
129.135106
 40
0.5
100
AcDbArc
 50
270.0
 51
360.0
  0
LINE
  5
6E
100
AcDbEntity
  8
M0
  6
CONTINUOUS
370
25
100
AcDbLine
 10
257.607963
 20
128.635106
 11
259.307963
 21
128.635106
  0
ARC
  5
6F
100
AcDbEntity
  8
M0
  6
CONTINUOUS
370
25
100
AcDbCircle
 10
257.607963
 20
128.935106
 40
0.3
100
AcDbArc
 50
180.0
 51
270.0
  0
LINE
  5
70
100
AcDbEntity
  8
M0
  6
CONTINUOUS
370
25
100
AcDbLine
 10
250.707963
 20
129.135106
 11
257.307963
 21
129.135106
  0
LINE
  5
71
100
AcDbEntity
  8
M0
  6
CONTINUOUS
370
25
100
AcDbLine
 10
257.307963
 20
128.935106
 11
257.307963
 21
130.485106
  0
LINE
  5
72
100
AcDbEntity
  8
M0
  6
CONTINUOUS
370
25
100
AcDbLine
 10
257.307963
 20
128.935106
 11
257.307963
 21
130.485106
  0
LINE
  5
73
100
AcDbEntity
  8
M0
  6
CONTINUOUS
370
25
100
AcDbLine
 10
251.207963
 20
130.985106
 11
256.807963
 21
130.985106
  0
LINE
  5
74
100
AcDbEntity
  8
M0
  6
CONTINUOUS
370
25
100
AcDbLine
 10
251.207963
 20
130.985106
 11
256.807963
 21
130.985106
  0
LINE
  5
75
100
AcDbEntity
  8
M0
  6
CONTINUOUS
370
25
100
AcDbLine
 10
251.207963
 20
130.985106
 11
256.807963
 21
130.985106
  0
LINE
  5
76
100
AcDbEntity
  8
M0
  6
CONTINUOUS
370
25
100
AcDbLine
 10
250.707963
 20
130.485106
 11
251.207963
 21
130.985106
  0
LINE
  5
77
100
AcDbEntity
  8
M0
  6
CONTINUOUS
370
25
100
AcDbLine
 10
256.807963
 20
130.985106
 11
257.307963
 21
130.485106
  0
LINE
  5
78
100
AcDbEntity
  8
M0
  6
CONTINUOUS
370
25
100
AcDbLine
 10
259.307963
 20
133.385106
 11
259.807963
 21
133.385106
  0
LINE
  5
79
100
AcDbEntity
  8
M0
  6
CONTINUOUS
370
25
100
AcDbLine
 10
268.507963
 20
128.635106
 11
268.507963
 21
124.685106
  0
LINE
  5
7A
100
AcDbEntity
  8
M0
  6
CONTINUOUS
370
25
100
AcDbLine
 10
259.307963
 20
219.815106
 11
267.557963
 21
219.815106
  0
LINE
  5
7B
100
AcDbEntity
  8
M0
  6
DASHDOT
370
25
100
AcDbLine
 10
258.807963
 20
139.955106
 11
269.807963
 21
139.955106
  0
LINE
  5
7C
100
AcDbEntity
  8
M0
  6
CONTINUOUS
370
25
100
AcDbLine
 10
259.807963
 20
233.815106
 11
267.057963
 21
233.815106
  0
LINE
  5
7D
100
AcDbEntity
  8
M0
  6
CONTINUOUS
370
25
100
AcDbLine
 10
259.308963
 20
219.185106
 11
259.308963
 21
236.976106
  0
LINE
  5
7E
100
AcDbEntity
  8
M0
  6
CONTINUOUS
370
25
100
AcDbLine
 10
240.307963
 20
234.085106
 11
240.307963
 21
182.472106
  0
LINE
  5
7F
100
AcDbEntity
  8
M0
  6
CONTINUOUS
370
25
100
AcDbLine
 10
241.107963
 20
234.885106
 11
253.508963
 21
234.885106
  0
LINE
  5
80
100
AcDbEntity
  8
M0
  6
CONTINUOUS
370
25
100
AcDbLine
 10
253.508963
 20
235.485106
 11
259.308963
 21
235.485106
  0
LINE
  5
81
100
AcDbEntity
  8
M0
  6
CONTINUOUS
370
25
100
AcDbLine
 10
253.508963
 20
235.785106
 11
253.508963
 21
234.885106
  0
LINE
  5
82
100
AcDbEntity
  8
M0
  6
CONTINUOUS
370
25
100
AcDbLine
 10
241.107963
 20
218.385106
 11
258.508963
 21
218.385106
  0
ARC
  5
83
100
AcDbEntity
  8
M0
  6
CONTINUOUS
370
25
100
AcDbCircle
 10
256.307963
 20
224.635106
 40
12.700641
100
AcDbArc
 50
76.332484
 51
85.479502
  0
LINE
  5
84
100
AcDbEntity
  8
M0
  6
CONTINUOUS
370
25
100
AcDbLine
 10
236.366963
 20
226.815106
 11
269.459963
 21
226.815106
  0
LINE
  5
85
100
AcDbEntity
  8
M0
  6
CONTINUOUS
370
25
100
AcDbLine
 10
249.308963
 20
233.815106
 11
249.308963
 21
219.815106
  0
LINE
  5
86
100
AcDbEntity
  8
M0
  6
CONTINUOUS
370
25
100
AcDbLine
 10
249.308963
 20
233.815106
 11
259.308963
 21
233.815106
  0
LINE
  5
87
100
AcDbEntity
  8
M0
  6
CONTINUOUS
370
25
100
AcDbLine
 10
240.308963
 20
231.215106
 11
249.308963
 21
231.215106
  0
LINE
  5
88
100
AcDbEntity
  8
M0
  6
CONTINUOUS
370
25
100
AcDbLine
 10
240.307963
 20
222.415106
 11
249.307963
 21
222.415106
  0
LINE
  5
89
100
AcDbEntity
  8
M0
  6
CONTINUOUS
370
25
100
AcDbLine
 10
249.307963
 20
219.815106
 11
259.307963
 21
219.815106
  0
LINE
  5
8A
100
AcDbEntity
  8
M0
  6
CONTINUOUS
370
25
100
AcDbLine
 10
241.107963
 20
234.885106
 11
240.307963
 21
234.085106
  0
LINE
  5
8B
100
AcDbEntity
  8
M0
  6
CONTINUOUS
370
25
100
AcDbLine
 10
240.307963
 20
219.185106
 11
241.107963
 21
218.385106
  0
LINE
  5
8C
100
AcDbEntity
  8
M0
  6
CONTINUOUS
370
25
100
AcDbLine
 10
258.508963
 20
218.385106
 11
259.308963
 21
219.185106
  0
LINE
  5
8D
100
AcDbEntity
  8
M0
  6
CONTINUOUS
370
25
100
AcDbLine
 10
240.307963
 20
132.685106
 11
240.307963
 21
183.385106
  0
LINE
  5
8E
100
AcDbEntity
  8
M0
  6
CONTINUOUS
370
25
100
AcDbLine
 10
241.107963
 20
131.885106
 11
240.307963
 21
132.685106
  0
LINE
  5
8F
100
AcDbEntity
  8
M0
  6
CONTINUOUS
370
25
100
AcDbLine
 10
241.107963
 20
131.885106
 11
253.507963
 21
131.885106
  0
ARC
  5
90
100
AcDbEntity
  8
M0
  6
CONTINUOUS
370
25
100
AcDbCircle
 10
256.307963
 20
142.135106
 40
12.699433
100
AcDbArc
 50
274.516356
 51
283.664198
  0
LINE
  5
91
100
AcDbEntity
  8
M0
  6
CONTINUOUS
370
25
100
AcDbLine
 10
253.507963
 20
130.985106
 11
253.507963
 21
131.885106
  0
LINE
  5
92
100
AcDbEntity
  8
M0
  6
CONTINUOUS
370
25
100
AcDbLine
 10
253.507963
 20
131.285106
 11
259.307963
 21
131.285106
  0
LINE
  5
93
100
AcDbEntity
  8
M0
  6
CONTINUOUS
370
25
100
AcDbLine
 10
259.307963
 20
183.385106
 11
259.307963
 21
129.795106
  0
LINE
  5
94
100
AcDbEntity
  8
M0
  6
CONTINUOUS
370
25
100
AcDbLine
 10
236.366963
 20
139.955106
 11
269.459963
 21
139.955106
  0
LINE
  5
95
100
AcDbEntity
  8
M0
  6
CONTINUOUS
370
25
100
AcDbLine
 10
232.307963
 20
183.385106
 11
243.307963
 21
183.385106
  0
LINE
  5
96
100
AcDbEntity
  8
M0
  6
CONTINUOUS
370
25
100
AcDbLine
 10
329.408963
 20
182.857106
 11
329.407963
 21
210.385106
  0
LINE
  5
97
100
AcDbEntity
  8
M0
  6
CONTINUOUS
370
25
100
AcDbLine
 10
297.957963
 20
242.085106
 11
268.907865
 21
242.085106
  0
LINE
  5
98
100
AcDbEntity
  8
M0
  6
CONTINUOUS
370
25
100
AcDbLine
 10
275.307963
 20
238.885106
 11
297.957963
 21
238.885106
  0
LINE
  5
99
100
AcDbEntity
  8
M0
  6
CONTINUOUS
370
25
100
AcDbLine
 10
275.307963
 20
215.385106
 11
305.457963
 21
215.385106
  0
LINE
  5
9A
100
AcDbEntity
  8
M0
  6
CONTINUOUS
370
25
100
AcDbLine
 10
306.457963
 20
210.885106
 11
323.207963
 21
210.885106
  0
LINE
  5
9B
100
AcDbEntity
  8
M0
  6
CONTINUOUS
370
25
100
AcDbLine
 10
323.207963
 20
209.385106
 11
325.407963
 21
209.385106
  0
LINE
  5
9C
100
AcDbEntity
  8
M0
  6
CONTINUOUS
370
25
100
AcDbLine
 10
274.807963
 20
238.385106
 11
274.807963
 21
215.885106
  0
LINE
  5
9D
100
AcDbEntity
  8
M0
  6
CONTINUOUS
370
25
100
AcDbLine
 10
298.457963
 20
241.585106
 11
298.457963
 21
239.385106
  0
LINE
  5
9E
100
AcDbEntity
  8
M0
  6
CONTINUOUS
370
25
100
AcDbLine
 10
305.457963
 20
216.385106
 11
305.457963
 21
211.885106
  0
LINE
  5
9F
100
AcDbEntity
  8
M0
  6
CONTINUOUS
370
25
100
AcDbLine
 10
325.407963
 20
210.885106
 11
325.407963
 21
209.385106
  0
LINE
  5
A0
100
AcDbEntity
  8
M0
  6
CONTINUOUS
370
25
100
AcDbLine
 10
323.207963
 20
210.885106
 11
323.207963
 21
209.385106
  0
ARC
  5
A1
100
AcDbEntity
  8
M0
  6
CONTINUOUS
370
25
100
AcDbCircle
 10
275.307963
 20
238.385106
 40
0.5
100
AcDbArc
 50
90.0
 51
180.0
  0
ARC
  5
A2
100
AcDbEntity
  8
M0
  6
CONTINUOUS
370
25
100
AcDbCircle
 10
275.307963
 20
215.885106
 40
0.5
100
AcDbArc
 50
180.0
 51
270.0
  0
LINE
  5
A3
100
AcDbEntity
  8
M0
  6
CONTINUOUS
370
25
100
AcDbLine
 10
269.707963
 20
238.135106
 11
269.707963
 21
183.385106
  0
ARC
  5
A4
100
AcDbEntity
  8
M0
  6
CONTINUOUS
370
25
100
AcDbCircle
 10
226.157963
 20
242.085106
 40
44.450112
100
AcDbArc
 50
348.449915
 51
360.0
  0
LINE
  5
A5
100
AcDbEntity
  8
M0
  6
CONTINUOUS
370
25
100
AcDbLine
 10
297.957963
 20
238.885106
 11
298.457963
 21
239.385106
  0
LINE
  5
A6
100
AcDbEntity
  8
M0
  6
CONTINUOUS
370
25
100
AcDbLine
 10
298.457963
 20
241.585106
 11
297.957963
 21
242.085106
  0
LINE
  5
A7
100
AcDbEntity
  8
M0
  6
CONTINUOUS
370
25
100
AcDbLine
 10
329.407963
 20
210.385106
 11
328.907963
 21
210.885106
  0
ARC
  5
A8
100
AcDbEntity
  8
M0
  6
CONTINUOUS
370
25
100
AcDbCircle
 10
306.457963
 20
211.885106
 40
1.0
100
AcDbArc
 50
180.0
 51
270.0
  0
LINE
  5
A9
100
AcDbEntity
  8
M0
  6
CONTINUOUS
370
25
100
AcDbLine
 10
325.407963
 20
210.885106
 11
328.907963
 21
210.885106
  0
LINE
  5
AA
100
AcDbEntity
  8
M0
  6
CONTINUOUS
370
25
100
AcDbLine
 10
297.957963
 20
124.685106
 11
268.907865
 21
124.685106
  0
LINE
  5
AB
100
AcDbEntity
  8
M0
  6
CONTINUOUS
370
25
100
AcDbLine
 10
298.456963
 20
125.185106
 11
297.957963
 21
124.685106
  0
LINE
  5
AC
100
AcDbEntity
  8
M0
  6
CONTINUOUS
370
25
100
AcDbLine
 10
298.456963
 20
125.185106
 11
298.456963
 21
183.385106
  0
LINE
  5
AD
100
AcDbEntity
  8
M0
  6
CONTINUOUS
370
25
100
AcDbLine
 10
327.511356
 20
155.885106
 11
328.907963
 21
155.885106
  0
LINE
  5
AE
100
AcDbEntity
  8
M0
  6
CONTINUOUS
370
25
100
AcDbLine
 10
329.407963
 20
156.385106
 11
328.907963
 21
155.885106
  0
LINE
  5
AF
100
AcDbEntity
  8
M0
  6
CONTINUOUS
370
25
100
AcDbLine
 10
329.408963
 20
183.385106
 11
329.407963
 21
156.385106
  0
LINE
  5
B0
100
AcDbEntity
  8
M0
  6
CONTINUOUS
370
25
100
AcDbLine
 10
307.457963
 20
210.885106
 11
321.457963
 21
210.885106
  0
LINE
  5
B1
100
AcDbEntity
  8
M0
  6
CONTINUOUS
370
25
100
AcDbLine
 10
323.457963
 20
209.385106
 11
323.457963
 21
226.385106
  0
LINE
  5
B2
100
AcDbEntity
  8
M0
  6
CONTINUOUS
370
25
100
AcDbLine
 10
321.457963
 20
228.385106
 11
307.457963
 21
228.385106
  0
LINE
  5
B3
100
AcDbEntity
  8
M0
  6
CONTINUOUS
370
25
100
AcDbLine
 10
305.457963
 20
226.385106
 11
305.457963
 21
212.885106
  0
CIRCLE
  5
B4
100
AcDbEntity
  8
M0
  6
CONTINUOUS
370
25
100
AcDbCircle
 10
314.457963
 20
219.635106
 40
5.833
  0
LINE
  5
B5
100
AcDbEntity
  8
M0
  6
CONTINUOUS
370
25
100
AcDbLine
 10
305.457963
 20
216.718106
 11
309.405963
 21
216.718106
  0
LINE
  5
B6
100
AcDbEntity
  8
M0
  6
CONTINUOUS
370
25
100
AcDbLine
 10
323.457963
 20
222.552106
 11
319.508963
 21
222.552106
  0
LINE
  5
B7
100
AcDbEntity
  8
M0
  6
CONTINUOUS
370
25
100
AcDbLine
 10
321.873963
 20
213.802106
 11
321.873963
 21
225.468106
  0
LINE
  5
B8
100
AcDbEntity
  8
M0
  6
CONTINUOUS
370
25
100
AcDbLine
 10
307.040963
 20
225.468106
 11
307.040963
 21
213.802106
  0
LINE
  5
B9
100
AcDbEntity
  8
M0
  6
CONTINUOUS
370
25
100
AcDbLine
 10
309.405963
 20
222.552106
 11
305.457963
 21
222.552106
  0
LINE
  5
BA
100
AcDbEntity
  8
M0
  6
CONTINUOUS
370
25
100
AcDbLine
 10
319.508963
 20
216.718106
 11
323.457963
 21
216.718106
  0
ARC
  5
BB
100
AcDbEntity
  8
M0
  6
CONTINUOUS
370
25
100
AcDbCircle
 10
321.457963
 20
226.385106
 40
2.0
100
AcDbArc
 50
0.0
 51
90.0
  0
ARC
  5
BC
100
AcDbEntity
  8
M0
  6
CONTINUOUS
370
25
100
AcDbCircle
 10
307.457963
 20
226.385106
 40
2.0
100
AcDbArc
 50
90.0
 51
180.0
  0
ARC
  5
BD
100
AcDbEntity
  8
M0
  6
CONTINUOUS
370
25
100
AcDbCircle
 10
307.457963
 20
212.885106
 40
2.0
100
AcDbArc
 50
180.0
 51
270.0
  0
ARC
  5
BE
100
AcDbEntity
  8
M0
  6
CONTINUOUS
370
25
100
AcDbCircle
 10
321.457963
 20
212.885106
 40
2.0
100
AcDbArc
 50
270.0
 51
360.0
  0
LINE
  5
BF
100
AcDbEntity
  8
M0
  6
CONTINUOUS
370
25
100
AcDbLine
 10
323.457963
 20
228.885106
 11
323.457963
 21
238.385106
  0
LINE
  5
C0
100
AcDbEntity
  8
M0
  6
CONTINUOUS
370
25
100
AcDbLine
 10
323.457963
 20
238.385106
 11
308.457963
 21
238.385106
  0
LINE
  5
C1
100
AcDbEntity
  8
M0
  6
CONTINUOUS
370
25
100
AcDbLine
 10
276.457963
 20
236.185106
 11
276.457963
 21
235.385106
  0
LINE
  5
C2
100
AcDbEntity
  8
M0
  6
CONTINUOUS
370
25
100
AcDbLine
 10
277.807963
 20
237.535106
 11
308.457963
 21
237.535106
  0
LINE
  5
C3
100
AcDbEntity
  8
M0
  6
CONTINUOUS
370
25
100
AcDbLine
 10
306.457963
 20
228.385106
 11
322.957963
 21
228.385106
  0
LINE
  5
C4
100
AcDbEntity
  8
M0
  6
CONTINUOUS
370
25
100
AcDbLine
 10
304.457963
 20
223.385106
 11
305.457963
 21
223.385106
  0
LINE
  5
C5
100
AcDbEntity
  8
M0
  6
CONTINUOUS
370
25
100
AcDbLine
 10
277.807963
 20
216.735106
 11
304.457963
 21
216.735106
  0
LINE
  5
C6
100
AcDbEntity
  8
M0
  6
CONTINUOUS
370
25
100
AcDbLine
 10
305.457963
 20
227.385106
 11
305.457963
 21
223.385106
  0
LINE
  5
C7
100
AcDbEntity
  8
M0
  6
CONTINUOUS
370
25
100
AcDbLine
 10
304.457963
 20
223.385106
 11
304.457963
 21
216.735106
  0
LINE
  5
C8
100
AcDbEntity
  8
M0
  6
CONTINUOUS
370
25
100
AcDbLine
 10
308.457963
 20
238.385106
 11
308.457963
 21
237.535106
  0
ARC
  5
C9
100
AcDbEntity
  8
M0
  6
CONTINUOUS
370
25
100
AcDbCircle
 10
306.457963
 20
227.385106
 40
1.0
100
AcDbArc
 50
90.0
 51
180.0
  0
LINE
  5
CA
100
AcDbEntity
  8
M0
  6
CONTINUOUS
370
25
100
AcDbLine
 10
277.807963
 20
237.535106
 11
276.457963
 21
236.185106
  0
LINE
  5
CB
100
AcDbEntity
  8
M0
  6
CONTINUOUS
370
25
100
AcDbLine
 10
276.457963
 20
218.085106
 11
277.807963
 21
216.735106
  0
LINE
  5
CC
100
AcDbEntity
  8
M0
  6
CONTINUOUS
370
25
100
AcDbLine
 10
322.957963
 20
228.385106
 11
323.457963
 21
228.885106
  0
LINE
  5
CD
100
AcDbEntity
  8
M0
  6
CONTINUOUS
370
25
100
AcDbLine
 10
298.456963
 20
129.235106
 11
308.457963
 21
129.235106
  0
LINE
  5
CE
100
AcDbEntity
  8
M0
  6
CONTINUOUS
370
25
100
AcDbLine
 10
308.457963
 20
128.385106
 11
308.457963
 21
183.385106
  0
LINE
  5
CF
100
AcDbEntity
  8
M0
  6
CONTINUOUS
370
25
100
AcDbLine
 10
323.457963
 20
128.385106
 11
308.457963
 21
128.385106
  0
LINE
  5
D0
100
AcDbEntity
  8
M0
  6
CONTINUOUS
370
25
100
AcDbLine
 10
276.451963
 20
235.390106
 11
276.457963
 21
218.085106
  0
LINE
  5
D1
100
AcDbEntity
  8
M0
  6
CONTINUOUS
370
25
100
AcDbLine
 10
325.257963
 20
223.385106
 11
325.257963
 21
257.385106
  0
LINE
  5
D2
100
AcDbEntity
  8
M0
  6
CONTINUOUS
370
25
100
AcDbLine
 10
325.257963
 20
257.385106
 11
323.457963
 21
257.385106
  0
LINE
  5
D3
100
AcDbEntity
  8
M0
  6
CONTINUOUS
370
25
100
AcDbLine
 10
323.457963
 20
257.385106
 11
323.457963
 21
223.385106
  0
LINE
  5
D4
100
AcDbEntity
  8
M0
  6
CONTINUOUS
370
25
100
AcDbLine
 10
323.457963
 20
223.385106
 11
325.257963
 21
223.385106
  0
LINE
  5
D5
100
AcDbEntity
  8
M0
  6
CONTINUOUS
370
25
100
AcDbLine
 10
318.457963
 20
251.385106
 11
330.257963
 21
251.385106
  0
LINE
  5
D6
100
AcDbEntity
  8
M0
  6
CONTINUOUS
370
25
100
AcDbLine
 10
325.257963
 20
183.385106
 11
325.257963
 21
128.385106
  0
LINE
  5
D7
100
AcDbEntity
  8
M0
  6
CONTINUOUS
370
25
100
AcDbLine
 10
323.457963
 20
128.385106
 11
323.457963
 21
183.385106
  0
LINE
  5
D8
100
AcDbEntity
  8
M0
  6
CONTINUOUS
370
25
100
AcDbLine
 10
323.457963
 20
254.135106
 11
325.257963
 21
254.135106
  0
LINE
  5
D9
100
AcDbEntity
  8
M0
  6
CONTINUOUS
370
25
100
AcDbLine
 10
323.457963
 20
248.635106
 11
325.257963
 21
248.635106
  0
LINE
  5
DA
100
AcDbEntity
  8
M0
  6
CONTINUOUS
370
25
100
AcDbLine
 10
323.457963
 20
128.385106
 11
325.257963
 21
128.385106
  0
LINE
  5
DB
100
AcDbEntity
  8
M0
  6
CONTINUOUS
370
25
100
AcDbLine
 10
323.457963
 20
215.901106
 11
325.407963
 21
215.901106
  0
LINE
  5
DC
100
AcDbEntity
  8
M0
  6
CONTINUOUS
370
25
100
AcDbLine
 10
325.407963
 20
215.901106
 11
325.407963
 21
210.885106
  0
LINE
  5
DD
100
AcDbEntity
  8
M0
  6
CONTINUOUS
370
25
100
AcDbLine
 10
325.257963
 20
236.885106
 11
325.257963
 21
229.885106
  0
ARC
  5
DE
100
AcDbEntity
  8
M0
  6
CONTINUOUS
370
25
100
AcDbCircle
 10
318.657963
 20
233.385106
 40
9.199724
100
AcDbArc
 50
344.037494
 51
375.962506
  0
LINE
  5
DF
100
AcDbEntity
  8
M0
  6
CONTINUOUS
370
25
100
AcDbLine
 10
326.453963
 20
229.990106
 11
325.257963
 21
229.885106
  0
LINE
  5
E0
100
AcDbEntity
  8
M0
  6
CONTINUOUS
370
25
100
AcDbLine
 10
326.453963
 20
236.781106
 11
325.257963
 21
236.885106
  0
ARC
  5
E1
100
AcDbEntity
  8
M0
  6
CONTINUOUS
370
25
100
AcDbCircle
 10
326.349963
 20
231.185106
 40
1.199517
100
AcDbArc
 50
274.973879
 51
344.028355
  0
ARC
  5
E2
100
AcDbEntity
  8
M0
  6
CONTINUOUS
370
25
100
AcDbCircle
 10
326.349963
 20
235.585106
 40
1.199295
100
AcDbArc
 50
15.971645
 51
85.030259
  0
LINE
  5
E3
100
AcDbEntity
  8
M0
  6
CONTINUOUS
370
25
100
AcDbLine
 10
308.307963
 20
238.335106
 11
300.606963
 21
238.335106
  0
ARC
  5
E4
100
AcDbEntity
  8
M0
  6
CONTINUOUS
370
25
100
AcDbCircle
 10
300.606963
 20
237.535106
 40
0.8
100
AcDbArc
 50
90.0
 51
180.0
  0
LINE
  5
E5
100
AcDbEntity
  8
M0
  6
CONTINUOUS
370
25
100
AcDbLine
 10
325.906963
 20
150.869106
 11
325.906963
 21
154.94255
  0
LINE
  5
E6
100
AcDbEntity
  8
M0
  6
CONTINUOUS
370
25
100
AcDbLine
 10
325.257963
 20
150.869106
 11
325.906963
 21
150.869106
  0
LINE
  5
E7
100
AcDbEntity
  8
M0
  6
CONTINUOUS
370
25
100
AcDbLine
 10
260.107963
 20
155.885106
 11
266.757963
 21
155.885106
  0
LINE
  5
E8
100
AcDbEntity
  8
M0
  6
CONTINUOUS
370
25
100
AcDbLine
 10
266.757963
 20
155.885106
 11
267.557963
 21
155.085106
  0
LINE
  5
E9
100
AcDbEntity
  8
M0
  6
CONTINUOUS
370
25
100
AcDbLine
 10
259.307963
 20
155.085106
 11
260.107963
 21
155.885106
  0
LINE
  5
EA
100
AcDbEntity
  8
M0
  6
CONTINUOUS
370
25
100
AcDbLine
 10
241.107963
 20
148.385106
 11
258.507963
 21
148.385106
  0
LINE
  5
EB
100
AcDbEntity
  8
M0
  6
CONTINUOUS
370
25
100
AcDbLine
 10
258.507963
 20
148.385106
 11
259.307963
 21
147.585106
  0
LINE
  5
EC
100
AcDbEntity
  8
M0
  6
CONTINUOUS
370
25
100
AcDbLine
 10
240.307963
 20
147.585106
 11
241.107963
 21
148.385106
  0
LINE
  5
ED
100
AcDbEntity
  8
M0
  6
CONTINUOUS
370
25
100
AcDbLine
 10
326.453963
 20
129.990106
 11
325.257963
 21
129.885106
  0
ARC
  5
EE
100
AcDbEntity
  8
M0
  6
CONTINUOUS
370
25
100
AcDbCircle
 10
326.348963
 20
131.185106
 40
1.199604
100
AcDbArc
 50
275.021461
 51
344.04149
  0
ARC
  5
EF
100
AcDbEntity
  8
M0
  6
CONTINUOUS
370
25
100
AcDbCircle
 10
318.656963
 20
133.385106
 40
9.200686
100
AcDbArc
 50
344.039207
 51
375.960793
  0
ARC
  5
F0
100
AcDbEntity
  8
M0
  6
CONTINUOUS
370
25
100
AcDbCircle
 10
326.348963
 20
135.585106
 40
1.200257
100
AcDbArc
 50
15.95851
 51
84.978539
  0
LINE
  5
F1
100
AcDbEntity
  8
M0
  6
CONTINUOUS
370
25
100
AcDbLine
 10
326.453963
 20
136.780106
 11
325.257963
 21
136.885106
  0
LINE
  5
F2
100
AcDbEntity
  8
M0
  6
CONTINUOUS
370
25
100
AcDbLine
 10
326.408963
 20
183.385106
 11
337.408963
 21
183.385106
  0
CIRCLE
  5
F3
100
AcDbEntity
  8
M0
  6
CONTINUOUS
370
25
100
AcDbCircle
 10
77.7
 20
183.385106
 40
58.7
  0
CIRCLE
  5
F4
100
AcDbEntity
  8
M0
  6
CONTINUOUS
370
25
100
AcDbCircle
 10
77.7
 20
183.385106
 40
27.5
  0
CIRCLE
  5
F5
100
AcDbEntity
  8
M0
  6
CONTINUOUS
370
25
100
AcDbCircle
 10
77.7
 20
183.385106
 40
52.4
  0
CIRCLE
  5
F6
100
AcDbEntity
  8
M0
  6
CONTINUOUS
370
25
100
AcDbCircle
 10
77.7
 20
183.385106
 40
51.5
  0
CIRCLE
  5
F7
100
AcDbEntity
  8
M0
  6
CONTINUOUS
370
25
100
AcDbCircle
 10
77.7
 20
183.385106
 40
35.0
  0
LINE
  5
F8
100
AcDbEntity
  8
M0
  6
CONTINUOUS
370
25
100
AcDbLine
 10
95.887
 20
214.880106
 11
102.974
 21
227.153106
  0
ARC
  5
F9
100
AcDbEntity
  8
M0
  6
CONTINUOUS
370
25
100
AcDbCircle
 10
77.7
 20
183.385106
 40
43.430507
100
AcDbArc
 50
49.949336
 51
69.610562
  0
CIRCLE
  5
FA
100
AcDbEntity
  8
M0
  6
CONTINUOUS
370
25
100
AcDbCircle
 10
99.418
 20
220.995106
 40
5.0
  0
LINE
  5
FB
100
AcDbEntity
  8
M0
  6
CONTINUOUS
370
25
100
AcDbLine
 10
106.468
 20
200.000106
 11
123.851
 21
210.039106
  0
ARC
  5
FC
100
AcDbEntity
  8
M0
  6
CONTINUOUS
370
25
100
AcDbCircle
 10
77.7
 20
183.385106
 40
43.429904
100
AcDbArc
 50
16.613191
 51
42.253544
  0
CIRCLE
  5
FD
100
AcDbEntity
  8
M0
  6
CONTINUOUS
370
25
100
AcDbCircle
 10
115.309
 20
205.105106
 40
4.4
  0
CIRCLE
  5
FE
100
AcDbEntity
  8
M0
  6
DASHED
370
25
100
AcDbCircle
 10
115.309
 20
205.105106
 40
7.0
  0
LINE
  5
FF
100
AcDbEntity
  8
M0
  6
CONTINUOUS
370
25
100
AcDbLine
 10
41.332
 20
183.388106
 11
27.159
 21
183.389106
  0
ARC
  5
100
100
AcDbEntity
  8
M0
  6
CONTINUOUS
370
25
100
AcDbCircle
 10
77.7
 20
183.385106
 40
43.42943
100
AcDbArc
 50
169.949681
 51
189.611108
  0
CIRCLE
  5
101
100
AcDbEntity
  8
M0
  6
CONTINUOUS
370
25
100
AcDbCircle
 10
34.27
 20
183.388106
 40
5.0
  0
LINE
  5
102
100
AcDbEntity
  8
M0
  6
CONTINUOUS
370
25
100
AcDbLine
 10
95.882
 20
151.888106
 11
102.968
 21
139.614106
  0
ARC
  5
103
100
AcDbEntity
  8
M0
  6
CONTINUOUS
370
25
100
AcDbCircle
 10
77.7
 20
183.385106
 40
43.430083
100
AcDbArc
 50
289.949518
 51
309.611319
  0
CIRCLE
  5
104
100
AcDbEntity
  8
M0
  6
CONTINUOUS
370
25
100
AcDbCircle
 10
99.413
 20
145.772106
 40
5.0
  0
LINE
  5
105
100
AcDbEntity
  8
M0
  6
CONTINUOUS
370
25
100
AcDbLine
 10
77.696
 20
216.606106
 11
77.693
 21
236.680106
  0
ARC
  5
106
100
AcDbEntity
  8
M0
  6
CONTINUOUS
370
25
100
AcDbCircle
 10
77.7
 20
183.385106
 40
43.430007
100
AcDbArc
 50
76.613308
 51
102.252779
  0
CIRCLE
  5
107
100
AcDbEntity
  8
M0
  6
CONTINUOUS
370
25
100
AcDbCircle
 10
77.694
 20
226.815106
 40
4.4
  0
CIRCLE
  5
108
100
AcDbEntity
  8
M0
  6
DASHED
370
25
100
AcDbCircle
 10
77.694
 20
226.815106
 40
7.0
  0
LINE
  5
109
100
AcDbEntity
  8
M0
  6
CONTINUOUS
370
25
100
AcDbLine
 10
48.928
 20
199.992106
 11
31.542
 21
210.026106
  0
ARC
  5
10A
100
AcDbEntity
  8
M0
  6
CONTINUOUS
370
25
100
AcDbCircle
 10
77.7
 20
183.385106
 40
43.430033
100
AcDbArc
 50
136.613132
 51
162.253016
  0
CIRCLE
  5
10B
100
AcDbEntity
  8
M0
  6
CONTINUOUS
370
25
100
AcDbCircle
 10
40.086
 20
205.095106
 40
4.4
  0
CIRCLE
  5
10C
100
AcDbEntity
  8
M0
  6
DASHED
370
25
100
AcDbCircle
 10
40.086
 20
205.095106
 40
7.0
  0
LINE
  5
10D
100
AcDbEntity
  8
M0
  6
CONTINUOUS
370
25
100
AcDbLine
 10
48.932
 20
166.771106
 11
31.549
 21
156.732106
  0
ARC
  5
10E
100
AcDbEntity
  8
M0
  6
CONTINUOUS
370
25
100
AcDbCircle
 10
77.7
 20
183.385106
 40
43.429904
100
AcDbArc
 50
196.613191
 51
222.253544
  0
CIRCLE
  5
10F
100
AcDbEntity
  8
M0
  6
CONTINUOUS
370
25
100
AcDbCircle
 10
40.092
 20
161.665106
 40
4.4
  0
CIRCLE
  5
110
100
AcDbEntity
  8
M0
  6
DASHED
370
25
100
AcDbCircle
 10
40.092
 20
161.665106
 40
7.0
  0
LINE
  5
111
100
AcDbEntity
  8
M0
  6
CONTINUOUS
370
25
100
AcDbLine
 10
77.705
 20
150.164106
 11
77.707
 21
130.090106
  0
ARC
  5
112
100
AcDbEntity
  8
M0
  6
CONTINUOUS
370
25
100
AcDbCircle
 10
77.7
 20
183.385106
 40
43.430007
100
AcDbArc
 50
256.613308
 51
282.254348
  0
CIRCLE
  5
113
100
AcDbEntity
  8
M0
  6
CONTINUOUS
370
25
100
AcDbCircle
 10
77.706
 20
139.955106
 40
4.4
  0
CIRCLE
  5
114
100
AcDbEntity
  8
M0
  6
DASHED
370
25
100
AcDbCircle
 10
77.706
 20
139.955106
 40
7.0
  0
LINE
  5
115
100
AcDbEntity
  8
M0
  6
CONTINUOUS
370
25
100
AcDbLine
 10
106.473
 20
166.778106
 11
123.858
 21
156.744106
  0
ARC
  5
116
100
AcDbEntity
  8
M0
  6
CONTINUOUS
370
25
100
AcDbCircle
 10
77.7
 20
183.385106
 40
43.430033
100
AcDbArc
 50
316.613132
 51
342.253419
  0
CIRCLE
  5
117
100
AcDbEntity
  8
M0
  6
CONTINUOUS
370
25
100
AcDbCircle
 10
115.315
 20
161.675106
 40
4.4
  0
CIRCLE
  5
118
100
AcDbEntity
  8
M0
  6
DASHED
370
25
100
AcDbCircle
 10
115.315
 20
161.675106
 40
7.0
  0
LINE
  5
119
100
AcDbEntity
  8
M0
  6
CONTINUOUS
370
25
100
AcDbLine
 10
482.172874
 20
183.385106
 11
492.172874
 21
183.385106
  0
LINE
  5
11A
100
AcDbEntity
  8
M0
  6
CONTINUOUS
370
25
100
AcDbLine
 10
487.172874
 20
178.385106
 11
487.172874
 21
188.385106
  0
CIRCLE
  5
11B
100
AcDbEntity
  8
M0
  6
CONTINUOUS
370
25
100
AcDbCircle
 10
487.172874
 20
183.385106
 40
27.5
  0
LINE
  5
11C
100
AcDbEntity
  8
M0
  6
CONTINUOUS
370
25
100
AcDbLine
 10
493.172874
 20
202.464106
 11
493.172874
 21
206.884106
  0
LINE
  5
11D
100
AcDbEntity
  8
M0
  6
CONTINUOUS
370
25
100
AcDbLine
 10
493.172874
 20
206.884106
 11
481.172874
 21
206.884106
  0
LINE
  5
11E
100
AcDbEntity
  8
M0
  6
CONTINUOUS
370
25
100
AcDbLine
 10
481.172874
 20
206.884106
 11
481.172874
 21
202.464106
  0
ARC
  5
11F
100
AcDbEntity
  8
M0
  6
CONTINUOUS
370
25
100
AcDbCircle
 10
487.172874
 20
183.385106
 40
20.000206
100
AcDbArc
 50
107.457418
 51
432.542582
  0
CIRCLE
  5
120
100
AcDbEntity
  8
M0
  6
CONTINUOUS
370
25
100
AcDbCircle
 10
487.172874
 20
183.385106
 40
40.0
  0
ARC
  5
121
100
AcDbEntity
  8
M0
  6
CONTINUOUS
370
25
100
AcDbCircle
 10
487.172874
 20
183.385106
 40
58.699703
100
AcDbArc
 50
97.833041
 51
442.166959
  0
ARC
  5
122
100
AcDbEntity
  8
M0
  6
CONTINUOUS
370
25
100
AcDbCircle
 10
487.172874
 20
183.385106
 40
55.00055
100
AcDbArc
 50
102.513554
 51
437.486446
  0
ARC
  5
123
100
AcDbEntity
  8
M0
  6
CONTINUOUS
370
25
100
AcDbCircle
 10
474.172874
 20
241.960106
 40
4.999705
100
AcDbArc
 50
282.510163
 51
360.0
  0
ARC
  5
124
100
AcDbEntity
  8
M0
  6
CONTINUOUS
370
25
100
AcDbCircle
 10
500.172874
 20
241.960106
 40
5.0
100
AcDbArc
 50
180.0
 51
257.489837
  0
CIRCLE
  5
125
100
AcDbEntity
  8
M0
  6
CONTINUOUS
370
25
100
AcDbCircle
 10
487.172874
 20
233.385106
 40
3.5
  0
LINE
  5
126
100
AcDbEntity
  8
M0
  6
CONTINUOUS
370
25
100
AcDbLine
 10
485.758874
 20
231.971106
 11
488.586874
 21
234.799106
  0
LINE
  5
127
100
AcDbEntity
  8
M0
  6
CONTINUOUS
370
25
100
AcDbLine
 10
485.758874
 20
234.799106
 11
488.586874
 21
231.971106
  0
CIRCLE
  5
128
100
AcDbEntity
  8
M0
  6
CONTINUOUS
370
25
100
AcDbCircle
 10
443.871874
 20
208.385106
 40
3.5
  0
LINE
  5
129
100
AcDbEntity
  8
M0
  6
CONTINUOUS
370
25
100
AcDbLine
 10
444.388874
 20
206.453106
 11
443.353874
 21
210.317106
  0
LINE
  5
12A
100
AcDbEntity
  8
M0
  6
CONTINUOUS
370
25
100
AcDbLine
 10
441.939874
 20
207.868106
 11
445.802874
 21
208.903106
  0
CIRCLE
  5
12B
100
AcDbEntity
  8
M0
  6
CONTINUOUS
370
25
100
AcDbCircle
 10
443.871874
 20
158.385106
 40
3.5
  0
LINE
  5
12C
100
AcDbEntity
  8
M0
  6
CONTINUOUS
370
25
100
AcDbLine
 10
445.802874
 20
157.868106
 11
441.939874
 21
158.903106
  0
LINE
  5
12D
100
AcDbEntity
  8
M0
  6
CONTINUOUS
370
25
100
AcDbLine
 10
443.353874
 20
156.453106
 11
444.388874
 21
160.317106
  0
CIRCLE
  5
12E
100
AcDbEntity
  8
M0
  6
CONTINUOUS
370
25
100
AcDbCircle
 10
487.172874
 20
133.385106
 40
3.5
  0
LINE
  5
12F
100
AcDbEntity
  8
M0
  6
CONTINUOUS
370
25
100
AcDbLine
 10
488.586874
 20
134.799106
 11
485.758874
 21
131.971106
  0
LINE
  5
130
100
AcDbEntity
  8
M0
  6
CONTINUOUS
370
25
100
AcDbLine
 10
488.586874
 20
131.971106
 11
485.758874
 21
134.799106
  0
CIRCLE
  5
131
100
AcDbEntity
  8
M0
  6
CONTINUOUS
370
25
100
AcDbCircle
 10
530.473874
 20
158.385106
 40
3.5
  0
LINE
  5
132
100
AcDbEntity
  8
M0
  6
CONTINUOUS
370
25
100
AcDbLine
 10
529.956874
 20
160.317106
 11
530.991874
 21
156.453106
  0
LINE
  5
133
100
AcDbEntity
  8
M0
  6
CONTINUOUS
370
25
100
AcDbLine
 10
532.405874
 20
158.903106
 11
528.541874
 21
157.868106
  0
CIRCLE
  5
134
100
AcDbEntity
  8
M0
  6
CONTINUOUS
370
25
100
AcDbCircle
 10
530.473874
 20
208.385106
 40
3.5
  0
LINE
  5
135
100
AcDbEntity
  8
M0
  6
CONTINUOUS
370
25
100
AcDbLine
 10
528.541874
 20
208.903106
 11
532.405874
 21
207.868106
  0
LINE
  5
136
100
AcDbEntity
  8
M0
  6
CONTINUOUS
370
25
100
AcDbLine
 10
530.991874
 20
210.317106
 11
529.956874
 21
206.453106
  0
LINE
  5
137
100
AcDbEntity
  8
M0
  6
CONTINUOUS
370
25
100
AcDbLine
 10
303.456963
 20
238.335106
 11
303.456963
 21
257.230638
  0
ARC
  5
138
100
AcDbEntity
  8
M0
  6
CONTINUOUS
370
25
100
AcDbCircle
 10
313.456963
 20
267.328638
 40
10.000646
100
AcDbArc
 50
119.997863
 51
180.0
  0
ARC
  5
139
100
AcDbEntity
  8
M0
  6
CONTINUOUS
370
25
100
AcDbCircle
 10
295.456963
 20
267.328638
 40
10.000044
100
AcDbArc
 50
25.842454
 51
60.002137
  0
ARC
  5
13A
100
AcDbEntity
  8
M0
  6
CONTINUOUS
370
25
100
AcDbCircle
 10
313.456963
 20
267.328638
 40
7.999824
100
AcDbArc
 50
120.000728
 51
180.0
  0
ARC
  5
13B
100
AcDbEntity
  8
M0
  6
CONTINUOUS
370
25
100
AcDbCircle
 10
295.456963
 20
267.328638
 40
8.0
100
AcDbArc
 50
0.0
 51
59.999272
  0
LINE
  5
13C
100
AcDbEntity
  8
M0
  6
CONTINUOUS
370
25
100
AcDbLine
 10
300.456963
 20
275.989638
 11
299.456963
 21
274.256638
  0
LINE
  5
13D
100
AcDbEntity
  8
M0
  6
CONTINUOUS
370
25
100
AcDbLine
 10
308.456963
 20
275.989638
 11
309.456963
 21
274.256638
  0
LINE
  5
13E
100
AcDbEntity
  8
M0
  6
CONTINUOUS
370
25
100
AcDbLine
 10
299.956963
 20
275.122638
 11
295.626963
 21
277.622638
  0
LINE
  5
13F
100
AcDbEntity
  8
M0
  6
CONTINUOUS
370
25
100
AcDbLine
 10
308.956963
 20
275.123638
 11
313.286963
 21
277.622638
  0
LINE
  5
140
100
AcDbEntity
  8
M0
  6
CONTINUOUS
370
25
100
AcDbLine
 10
305.456963
 20
238.335106
 11
305.456963
 21
255.894638
  0
LINE
  5
141
100
AcDbEntity
  8
M0
  6
CONTINUOUS
370
25
100
AcDbLine
 10
303.456963
 20
259.854638
 11
303.456963
 21
267.328638
  0
LINE
  5
142
100
AcDbEntity
  8
M0
  6
CONTINUOUS
370
25
100
AcDbLine
 10
305.456963
 20
258.395638
 11
305.456963
 21
267.328638
  0
LINE
  5
143
100
AcDbEntity
  8
M0
  6
CONTINUOUS
370
25
100
AcDbLine
 10
303.456963
 20
259.854638
 11
305.456963
 21
258.395638
  0
LINE
  5
144
100
AcDbEntity
  8
M0
  6
CONTINUOUS
370
25
100
AcDbLine
 10
303.456963
 20
257.230638
 11
305.456963
 21
255.894638
  0
LINE
  5
145
100
AcDbEntity
  8
M0
  6
CONTINUOUS
370
25
100
AcDbLine
 10
75.7
 20
242.051106
 11
75.7
 21
247.074106
  0
LINE
  5
146
100
AcDbEntity
  8
M0
  6
CONTINUOUS
370
25
100
AcDbLine
 10
75.7
 20
261.078656
 11
75.7
 21
267.093656
  0
LINE
  5
147
100
AcDbEntity
  8
M0
  6
CONTINUOUS
370
25
100
AcDbLine
 10
77.7
 20
242.085106
 11
77.7
 21
245.737106
  0
ARC
  5
148
100
AcDbEntity
  8
M0
  6
CONTINUOUS
370
25
100
AcDbCircle
 10
87.7
 20
267.093656
 40
10.000646
100
AcDbArc
 50
119.997863
 51
180.0
  0
ARC
  5
149
100
AcDbEntity
  8
M0
  6
CONTINUOUS
370
25
100
AcDbCircle
 10
87.7
 20
267.093656
 40
7.999824
100
AcDbArc
 50
120.000728
 51
180.0
  0
LINE
  5
14A
100
AcDbEntity
  8
M0
  6
CONTINUOUS
370
25
100
AcDbLine
 10
82.7
 20
275.754656
 11
83.7
 21
274.021656
  0
LINE
  5
14B
100
AcDbEntity
  8
M0
  6
CONTINUOUS
370
25
100
AcDbLine
 10
83.2
 20
274.888656
 11
87.53
 21
277.387656
  0
LINE
  5
14C
100
AcDbEntity
  8
M0
  6
CONTINUOUS
370
25
100
AcDbLine
 10
79.7
 20
242.051106
 11
79.7
 21
244.401106
  0
LINE
  5
14D
100
AcDbEntity
  8
M0
  6
CONTINUOUS
370
25
100
AcDbLine
 10
77.7
 20
259.619656
 11
77.7
 21
267.093656
  0
LINE
  5
14E
100
AcDbEntity
  8
M0
  6
CONTINUOUS
370
25
100
AcDbLine
 10
79.7
 20
258.160656
 11
79.7
 21
267.093656
  0
LINE
  5
14F
100
AcDbEntity
  8
M0
  6
CONTINUOUS
370
25
100
AcDbLine
 10
72.2
 20
274.887656
 11
67.87
 21
277.387656
  0
LINE
  5
150
100
AcDbEntity
  8
M0
  6
CONTINUOUS
370
25
100
AcDbLine
 10
72.7
 20
275.754656
 11
71.7
 21
274.021656
  0
ARC
  5
151
100
AcDbEntity
  8
M0
  6
CONTINUOUS
370
25
100
AcDbCircle
 10
67.7
 20
267.093656
 40
8.0
100
AcDbArc
 50
0.0
 51
59.999272
  0
ARC
  5
152
100
AcDbEntity
  8
M0
  6
CONTINUOUS
370
25
100
AcDbCircle
 10
67.7
 20
267.093656
 40
10.0
100
AcDbArc
 50
0.0
 51
60.002137
  0
LINE
  5
153
100
AcDbEntity
  8
M0
  6
CONTINUOUS
370
25
100
AcDbLine
 10
75.7
 20
261.078656
 11
79.7
 21
258.160656
  0
LINE
  5
154
100
AcDbEntity
  8
M0
  6
CONTINUOUS
370
25
100
AcDbLine
 10
75.7
 20
247.074106
 11
79.7
 21
244.401106
  0
LINE
  5
155
100
AcDbEntity
  8
M0
  6
CONTINUOUS
370
25
100
AcDbLine
 10
111.442
 20
124.924106
 11
116.441
 21
116.263106
  0
LINE
  5
156
100
AcDbEntity
  8
M0
  6
CONTINUOUS
370
25
100
AcDbLine
 10
113.942
 20
120.593106
 11
117.942
 21
121.665106
  0
LINE
  5
157
100
AcDbEntity
  8
M0
  6
CONTINUOUS
370
25
100
AcDbLine
 10
113.942
 20
120.593106
 11
116.87
 21
123.522106
  0
LINE
  5
158
100
AcDbEntity
  8
M0
  6
CONTINUOUS
370
25
100
AcDbLine
 10
113.942
 20
120.593106
 11
122.602
 21
125.594106
  0
LINE
  5
159
100
AcDbEntity
  8
M0
  6
CONTINUOUS
370
25
100
AcDbLine
 10
77.7
 20
277.143656
 11
77.7
 21
287.143656
  0
LINE
  5
15A
100
AcDbEntity
  8
M0
  6
CONTINUOUS
370
25
100
AcDbLine
 10
77.7
 20
282.143656
 11
81.7
 21
283.215656
  0
LINE
  5
15B
100
AcDbEntity
  8
M0
  6
CONTINUOUS
370
25
100
AcDbLine
 10
77.7
 20
282.143656
 11
81.7
 21
281.071656
  0
LINE
  5
15C
100
AcDbEntity
  8
M0
  6
CONTINUOUS
370
25
100
AcDbLine
 10
77.7
 20
282.143656
 11
87.7
 21
282.143656
  0
LINE
  5
15D
100
AcDbEntity
  8
M0
  6
CONTINUOUS
370
25
100
AcDbLine
 10
479.172874
 20
255.385106
 11
479.172874
 21
241.960106
  0
LINE
  5
15E
100
AcDbEntity
  8
M0
  6
CONTINUOUS
370
25
100
AcDbLine
 10
481.172874
 20
257.385106
 11
479.172874
 21
255.385106
  0
LINE
  5
15F
100
AcDbEntity
  8
M0
  6
CONTINUOUS
370
25
100
AcDbLine
 10
493.172874
 20
257.385106
 11
481.172874
 21
257.385106
  0
LINE
  5
160
100
AcDbEntity
  8
M0
  6
CONTINUOUS
370
25
100
AcDbLine
 10
495.172874
 20
255.385106
 11
495.172874
 21
241.960106
  0
LINE
  5
161
100
AcDbEntity
  8
M0
  6
CONTINUOUS
370
25
100
AcDbLine
 10
495.172874
 20
255.385106
 11
493.172874
 21
257.385106
  0
LINE
  5
162
100
AcDbEntity
  8
M0
  6
CONTINUOUS
370
25
100
AcDbLine
 10
487.172874
 20
247.394106
 11
487.172874
 21
255.028106
  0
LINE
  5
163
100
AcDbEntity
  8
M0
  6
CONTINUOUS
370
25
100
AcDbLine
 10
491.461874
 20
251.385106
 11
482.621874
 21
251.385106
  0
CIRCLE
  5
164
100
AcDbEntity
  8
M0
  6
CONTINUOUS
370
25
100
AcDbCircle
 10
487.172874
 20
251.385106
 40
2.75
  0
LINE
  5
165
100
AcDbEntity
  8
M0
  6
CONTINUOUS
370
25
100
AcDbLine
 10
69.7
 20
255.385106
 11
69.7
 21
241.960106
  0
LINE
  5
166
100
AcDbEntity
  8
M0
  6
CONTINUOUS
370
25
100
AcDbLine
 10
71.7
 20
257.385106
 11
69.7
 21
255.385106
  0
LINE
  5
167
100
AcDbEntity
  8
M0
  6
CONTINUOUS
370
25
100
AcDbLine
 10
83.7
 20
257.385106
 11
71.7
 21
257.385106
  0
LINE
  5
168
100
AcDbEntity
  8
M0
  6
CONTINUOUS
370
25
100
AcDbLine
 10
85.7
 20
255.385106
 11
85.7
 21
241.960106
  0
LINE
  5
169
100
AcDbEntity
  8
M0
  6
CONTINUOUS
370
25
100
AcDbLine
 10
85.7
 20
255.385106
 11
83.7
 21
257.385106
  0
LINE
  5
16A
100
AcDbEntity
  8
M0
  6
CONTINUOUS
370
25
100
AcDbLine
 10
77.7
 20
178.385106
 11
77.7
 21
188.385106
  0
LINE
  5
16B
100
AcDbEntity
  8
M0
  6
CONTINUOUS
370
25
100
AcDbLine
 10
72.7
 20
183.385106
 11
82.7
 21
183.385106
  0
ARC
  5
16C
100
AcDbEntity
  8
M0
  6
CONTINUOUS
370
25
100
AcDbCircle
 10
487.172874
 20
182.135106
 40
29.15
100
AcDbArc
 50
104.089756
 51
435.910244
  0
ARC
  5
16D
100
AcDbEntity
  8
M0
  6
CONTINUOUS
370
25
100
AcDbCircle
 10
487.172874
 20
183.385106
 40
32.4
100
AcDbArc
 50
82.758565
 51
88.231331
  0
LINE
  5
16E
100
AcDbEntity
  8
M0
  6
CONTINUOUS
370
25
100
AcDbLine
 10
488.172874
 20
215.76967
 11
488.172874
 21
210.866918
  0
CIRCLE
  5
16F
100
AcDbEntity
  8
M0
  6
CONTINUOUS
370
25
100
AcDbCircle
 10
490.685358
 20
211.859435
 40
1.25
  0
LINE
  5
170
100
AcDbEntity
  8
M0
  6
CONTINUOUS
370
25
100
AcDbLine
 10
492.062196
 20
214.898827
 11
493.581307
 21
211.013886
  0
ARC
  5
171
100
AcDbEntity
  8
M0
  6
CONTINUOUS
370
25
100
AcDbCircle
 10
494.512638
 20
211.37806
 40
1.0
100
AcDbArc
 50
201.356764
 51
255.910244
  0
ARC
  5
172
100
AcDbEntity
  8
M0
  6
CONTINUOUS
370
25
100
AcDbCircle
 10
491.130866
 20
214.534653
 40
1.0
100
AcDbArc
 50
21.356764
 51
82.758565
  0
ARC
  5
173
100
AcDbEntity
  8
M0
  6
CONTINUOUS
370
25
100
AcDbCircle
 10
483.214883
 20
214.534653
 40
1.0
100
AcDbArc
 50
97.241435
 51
158.643236
  0
ARC
  5
174
100
AcDbEntity
  8
M0
  6
CONTINUOUS
370
25
100
AcDbCircle
 10
479.83311
 20
211.37806
 40
1.0
100
AcDbArc
 50
284.089756
 51
338.643236
  0
LINE
  5
175
100
AcDbEntity
  8
M0
  6
CONTINUOUS
370
25
100
AcDbLine
 10
482.283552
 20
214.898827
 11
480.764441
 21
211.013886
  0
CIRCLE
  5
176
100
AcDbEntity
  8
M0
  6
CONTINUOUS
370
25
100
AcDbCircle
 10
483.66039
 20
211.859435
 40
1.25
  0
LINE
  5
177
100
AcDbEntity
  8
M0
  6
CONTINUOUS
370
25
100
AcDbLine
 10
486.172874
 20
215.76967
 11
486.172874
 21
210.866918
  0
ARC
  5
178
100
AcDbEntity
  8
M0
  6
CONTINUOUS
370
25
100
AcDbCircle
 10
487.172874
 20
183.385106
 40
32.4
100
AcDbArc
 50
91.768669
 51
97.241435
  0
LINE
  5
179
100
AcDbEntity
  8
M0
  6
CONTINUOUS
370
25
100
AcDbLine
 10
326.453963
 20
161.780572
 11
325.257963
 21
161.885572
  0
ARC
  5
17A
100
AcDbEntity
  8
M0
  6
CONTINUOUS
370
25
100
AcDbCircle
 10
326.348963
 20
160.585572
 40
1.200257
100
AcDbArc
 50
15.95851
 51
84.978539
  0
ARC
  5
17B
100
AcDbEntity
  8
M0
  6
CONTINUOUS
370
25
100
AcDbCircle
 10
318.656963
 20
158.385572
 40
9.200686
100
AcDbArc
 50
344.039207
 51
375.960793
  0
ARC
  5
17C
100
AcDbEntity
  8
M0
  6
CONTINUOUS
370
25
100
AcDbCircle
 10
326.348963
 20
156.185572
 40
1.199604
100
AcDbArc
 50
275.021461
 51
344.04149
  0
LINE
  5
17D
100
AcDbEntity
  8
M0
  6
CONTINUOUS
370
25
100
AcDbLine
 10
326.453963
 20
154.990572
 11
325.257963
 21
154.885572
  0
LINE
  5
17E
100
AcDbEntity
  8
M0
  6
CONTINUOUS
370
25
100
AcDbLine
 10
325.906963
 20
161.828595
 11
325.906963
 21
183.385106
  0
CIRCLE
  5
17F
100
AcDbEntity
  8
M0
  6
CONTINUOUS
370
25
100
AcDbCircle
 10
77.7
 20
251.385106
 40
2.75
  0
LINE
  5
180
100
AcDbEntity
  8
M0
  6
CONTINUOUS
370
25
100
AcDbLine
 10
81.989
 20
251.385106
 11
73.149
 21
251.385106
  0
LINE
  5
181
100
AcDbEntity
  8
M0
  6
CONTINUOUS
370
25
100
AcDbLine
 10
77.7
 20
247.568106
 11
77.7
 21
255.202106
  0
ARC
  5
182
100
AcDbEntity
  8
M0
  6
CONTINUOUS
370
25
100
AcDbCircle
 10
477.172874
 20
267.093656
 40
10.0
100
AcDbArc
 50
0.0
 51
60.002137
  0
ARC
  5
183
100
AcDbEntity
  8
M0
  6
CONTINUOUS
370
25
100
AcDbCircle
 10
477.172874
 20
267.093656
 40
8.0
100
AcDbArc
 50
0.0
 51
59.999272
  0
LINE
  5
184
100
AcDbEntity
  8
M0
  6
CONTINUOUS
370
25
100
AcDbLine
 10
482.172874
 20
275.754656
 11
481.172874
 21
274.021656
  0
LINE
  5
185
100
AcDbEntity
  8
M0
  6
CONTINUOUS
370
25
100
AcDbLine
 10
481.672874
 20
274.887656
 11
477.342874
 21
277.387656
  0
LINE
  5
186
100
AcDbEntity
  8
M0
  6
CONTINUOUS
370
25
100
AcDbLine
 10
489.172874
 20
257.385106
 11
489.172874
 21
267.093656
  0
LINE
  5
187
100
AcDbEntity
  8
M0
  6
CONTINUOUS
370
25
100
AcDbLine
 10
487.172874
 20
257.385106
 11
487.172874
 21
267.093656
  0
LINE
  5
188
100
AcDbEntity
  8
M0
  6
CONTINUOUS
370
25
100
AcDbLine
 10
492.672874
 20
274.888656
 11
497.002874
 21
277.387656
  0
LINE
  5
189
100
AcDbEntity
  8
M0
  6
CONTINUOUS
370
25
100
AcDbLine
 10
492.172874
 20
275.754656
 11
493.172874
 21
274.021656
  0
ARC
  5
18A
100
AcDbEntity
  8
M0
  6
CONTINUOUS
370
25
100
AcDbCircle
 10
497.172874
 20
267.093656
 40
7.999824
100
AcDbArc
 50
120.000728
 51
180.0
  0
ARC
  5
18B
100
AcDbEntity
  8
M0
  6
CONTINUOUS
370
25
100
AcDbCircle
 10
497.172874
 20
267.093656
 40
10.000646
100
AcDbArc
 50
119.997863
 51
180.0
  0
LINE
  5
18C
100
AcDbEntity
  8
M0
  6
CONTINUOUS
370
25
100
AcDbLine
 10
485.172874
 20
257.385106
 11
485.172874
 21
267.093656
  0
LINE
  5
18D
100
AcDbEntity
  8
M0
  6
CONTINUOUS
370
25
100
AcDbLine
 10
269.708298
 20
206.885106
 11
329.408005
 21
206.885106
  0
LINE
  5
18E
100
AcDbEntity
  8
M0
  6
CONTINUOUS
370
25
100
AcDbLine
 10
269.708298
 20
203.385106
 11
329.408982
 21
203.385106
  0
LINE
  5
18F
100
AcDbEntity
  8
M0
  6
CONTINUOUS
370
25
100
AcDbLine
 10
268.507865
 20
238.135106
 11
268.507865
 21
242.085301
  0
LINE
  5
190
100
AcDbEntity
  8
M0
  6
CONTINUOUS
370
25
100
AcDbLine
 10
268.907865
 20
242.085301
 11
268.907865
 21
238.135106
  0
LINE
  5
191
100
AcDbEntity
  8
M0
  6
CONTINUOUS
370
25
100
AcDbLine
 10
267.557963
 20
238.135106
 11
268.507865
 21
238.135106
  0
LINE
  5
192
100
AcDbEntity
  8
M0
  6
CONTINUOUS
370
25
100
AcDbLine
 10
268.907865
 20
238.135106
 11
269.707865
 21
238.135106
  0
LINE
  5
193
100
AcDbEntity
  8
M0
  6
CONTINUOUS
370
25
100
AcDbLine
 10
268.907865
 20
124.684911
 11
268.907865
 21
183.385106
  0
TEXT
  5
194
100
AcDbEntity
  8
M0
100
AcDbText
 10
478.173077
 20
52.553824
 40
10.0
  1
ＴＺ－２５
  7
STANDARD
100
AcDbText
  0
TEXT
  5
195
100
AcDbEntity
  8
M0
100
AcDbText
 10
459.662355
 20
37.641974
 40
9.0
  1
（ＳＤＫ３０１６）
 41
0.925926
  7
STANDARD
100
AcDbText
  0
ENDSEC
  0
SECTION
  2
OBJECTS
  0
DICTIONARY
  5
C
100
AcDbDictionary
  3
ACAD_GROUP
350
D
  3
ACAD_MLINESTYLE
350
E
  0
DICTIONARY
  5
D
102
{ACAD_REACTORS
330
C
102
}
100
AcDbDictionary
  0
DICTIONARY
  5
E
102
{ACAD_REACTORS
330
C
102
}
100
AcDbDictionary
  3
STANDARD
350
13
  0
MLINESTYLE
  5
13
102
{ACAD_REACTORS
330
E
102
}
100
AcDbMlineStyle
  2
STANDARD
 70
     0
  3

 62
     0
 51
90.0
 52
90.0
 71
     2
 49
0.5
 62
   256
  6
BYLAYER
 49
-0.5
 62
   256
  6
BYLAYER
  0
ENDSEC
  0
EOF
