  0
SECTION
  2
HEADER
  9
$ACADVER
  1
AC1015
  9
$INSBASE
 10
0.0
 20
0.0
  9
$VIEWCTR
 10
7.531722
 20
4.5
  9
$VIEWSIZE
 40
9.0
  9
$SNAPMODE
 70
     0
  9
$SNAPUNIT
 10
1.0
 20
1.0
  9
$SNAPBASE
 10
0.0
 20
0.0
  9
$SNAPANG
 50
0.0
  9
$SNAPSTYLE
 70
     0
  9
$SNAPISOPAIR
 70
     0
  9
$GRIDMODE
 70
     0
  9
$GRIDUNIT
 10
0.0
 20
0.0
  9
$ORTHOMODE
 70
     0
  9
$REGENMODE
 70
     1
  9
$FILLMODE
 70
     1
  9
$QTEXTMODE
 70
     0
  9
$DRAGMODE
 70
     2
  9
$LTSCALE
 40
1.0
  9
$OSMODE
 70
     0
  9
$ATTMODE
 70
     1
  9
$TEXTSIZE
 40
0.2
  9
$TRACEWID
 40
0.05
  9
$TEXTSTYLE
  7
STANDARD
  9
$CELTYPE
  6
BYLAYER
  9
$CECOLOR
 62
   256
  9
$DIMSCALE
 40
1.0
  9
$DIMASZ
 40
0.18
  9
$DIMEXO
 40
0.0625
  9
$DIMDLI
 40
0.38
  9
$DIMRND
 40
0.0
  9
$DIMDLE
 40
0.0
  9
$DIMEXE
 40
0.18
  9
$DIMTP
 40
0.0
  9
$DIMTM
 40
0.0
  9
$DIMTXT
 40
0.18
  9
$DIMCEN
 40
0.09
  9
$DIMTSZ
 40
0.0
  9
$DIMADEC
 70
     0
  9
$DIMALTRND
 40
0.000000
  9
$DIMAZIN
 70
     0
  9
$DIMDSEP
 70
    46
  9
$DIMATFIT
 70
     3
  9
$DIMFRAC
 70
     0
  9
$DIMLDRBLK
  1

  9
$DIMLUNIT
 70
     2
  9
$DIMLWD
 70
   13
  9
$DIMLWE
 70
   13
  9
$DIMTMOVE
 70
     0
  9
$CELWEIGHT
370
    25
  9
$LWDISPLAY
290
    1
  9
$EXTNAMES
290
    1
  9
$DIMTOL
 70
     0
  9
$DIMLIM
 70
     0
  9
$DIMTIH
 70
     1
  9
$DIMTOH
 70
     1
  9
$DIMSE1
 70
     0
  9
$DIMSE2
 70
     0
  9
$DIMTAD
 70
     0
  9
$DIMZIN
 70
     0
  9
$DIMBLK
  1

  9
$LUNITS
 70
     2
  9
$LUPREC
 70
     4
  9
$AXISMODE
 70
     0
  9
$AXISUNIT
 10
0.0
 20
0.0
  9
$SKETCHINC
 40
0.1
  9
$FILLETRAD
 40
0.0
  9
$AUNITS
 70
     0
  9
$AUPREC
 70
     0
  9
$MENU
  1
ACAD
  9
$ELEVATION
 40
0.0
  9
$THICKNESS
 40
0.0
  9
$VIEWDIR
 10
0.0
 20
0.0
 30
1.0
  9
$LIMCHECK
 70
     0
  9
$BLIPMODE
 70
     1
  9
$CHAMFERA
 40
0.0
  9
$CHAMFERB
 40
0.0
  9
$FASTZOOM
 70
     1
  9
$SKPOLY
 70
     0
  9
$TDCREATE
 40
0000000.0000000000
  9
$TDUPDATE
 40
0000000.0000000000
  9
$TDINDWG
 40
0.0000000000
  9
$TDUSRTIMER
 40
0.0000000000
  9
$USRTIMER
 70
     1
  9
$ANGBASE
 50
0.0
  9
$ANGDIR
 70
     0
  9
$PDMODE
 70
     0
  9
$PDSIZE
 40
0.0
  9
$PLINEWID
 40
0.0
  9
$COORDS
 70
     0
  9
$USERI1
 70
     0
  9
$USERI2
 70
     0
  9
$USERI3
 70
     0
  9
$USERI4
 70
     0
  9
$USERI5
 70
     0
  9
$USERR1
 40
0.0
  9
$USERR2
 40
0.0
  9
$USERR3
 40
0.0
  9
$USERR4
 40
0.0
  9
$USERR5
 40
0.0
  9
$CLAYER
  8
M1
  9
$EXTMIN
 10
0.0
 20
0.0
  9
$EXTMAX
 10
841.0
 20
594.0
  9
$LIMMIN
 10
0.0
 20
0.0
  9
$LIMMAX
 10
841.0
 20
594.0
  9
$HANDSEED
  5
F8
  0
ENDSEC
  0
SECTION
  2
CLASSES
  0
ENDSEC
  0
SECTION
  2
TABLES
  0
TABLE
  2
VPORT
  5
8
100
AcDbSymbolTable
 70
     2
  0
VPORT
  5
14
100
AcDbSymbolTableRecord
100
AcDbViewportTableRecord
  2
*ACTIVE
 70
     0
 10
0.0
 20
0.0
 11
1.0
 21
1.0
 12
484.0
 22
297.0
 13
0.0
 23
0.0
 14
1.0
 24
1.0
 15
0.0
 25
0.0
 16
0.0
 26
0.0
 36
1.0
 17
0.0
 27
0.0
 37
0.0
 40
594.0
 41
2.0
 42
50.0
 43
0.0
 44
0.0
 50
0.0
 51
0.0
 71
     0
 72
   100
 73
     1
 74
     1
 75
     0
 76
     0
 77
     0
 78
     0
  0
ENDTAB
  0
TABLE
  2
LTYPE
  5
5
100
AcDbSymbolTable
 70
     5
  0
LTYPE
  5
15
100
AcDbSymbolTableRecord
100
AcDbLinetypeTableRecord
  2
BYBLOCK
 70
     0
  3

 72
    65
 73
     0
 40
0.0
  0
LTYPE
  5
16
100
AcDbSymbolTableRecord
100
AcDbLinetypeTableRecord
  2
BYLAYER
 70
     0
  3

 72
    65
 73
     0
 40
0.0
  0
LTYPE
  5
17
100
AcDbSymbolTableRecord
100
AcDbLinetypeTableRecord
  2
CONTINUOUS
 70
    64
  3
Solid line
 72
    65
 73
     0
 40
0.0
  0
LTYPE
  5
18
100
AcDbSymbolTableRecord
100
AcDbLinetypeTableRecord
  2
DASHED
 70
    64
  3
__ __ __ __ __ __ __ __ __ __ __ __ __ __ __ __
 72
    65
 73
     2
 40
0.75
 49
0.5
 74
     0
 49
-0.25
 74
     0
  0
LTYPE
  5
19
100
AcDbSymbolTableRecord
100
AcDbLinetypeTableRecord
  2
DASHDOT
 70
    64
  3
__ . __ . __ . __ . __ . __ . __ . __ . __ . __
 72
    65
 73
     4
 40
1.0
 49
0.5
 74
     0
 49
-0.25
 74
     0
 49
0.0
 74
     0
 49
-0.25
 74
     0
  0
LTYPE
  5
1A
100
AcDbSymbolTableRecord
100
AcDbLinetypeTableRecord
  2
DIVIDE
 70
    64
  3
____ . . ____ . . ____ . . ____ . . ____ . . __
 72
    65
 73
     6
 40
1.25
 49
0.5
 74
     0
 49
-0.25
 74
     0
 49
0.0
 74
     0
 49
-0.25
 74
     0
 49
0.0
 74
     0
 49
-0.25
 74
     0
  0
LTYPE
  5
1B
100
AcDbSymbolTableRecord
100
AcDbLinetypeTableRecord
  2
DOT
 70
    64
  3
. . . . . . . . . . . . . . . . . . . . . . . .
 72
    65
 73
     2
 40
0.25
 49
0.0
 74
     0
 49
-0.25
 74
     0
  0
ENDTAB
  0
TABLE
  2
LAYER
  5
2
100
AcDbSymbolTable
 70
   102
  0
LAYER
  5
F
100
AcDbSymbolTableRecord
100
AcDbLayerTableRecord
  2
0
 70
     0
 62
     7
  6
CONTINUOUS
370
     -3
390
F
  0
LAYER
  5
1C
100
AcDbSymbolTableRecord
100
AcDbLayerTableRecord
  2
M1
 70
     0
 62
     7
  6
CONTINUOUS
370
     -3
390
F
  0
ENDTAB
  0
TABLE
  2
STYLE
  5
3
100
AcDbSymbolTable
 70
     2
  0
STYLE
  5
10
100
AcDbSymbolTableRecord
100
AcDbTextStyleTableRecord
  2
STANDARD
 70
     0
 40
0.0
 41
1.0
 50
0.0
 71
     0
 42
0.2
  3
txt
  4
BIGFONT
  0
ENDTAB
  0
TABLE
  2
VIEW
  5
6
100
AcDbSymbolTable
 70
     0
  0
ENDTAB
  0
TABLE
  2
UCS
  5
7
100
AcDbSymbolTable
 70
     0
  0
ENDTAB
  0
TABLE
  2
APPID
  5
9
100
AcDbSymbolTable
 70
     1
  0
APPID
  5
11
100
AcDbSymbolTableRecord
100
AcDbRegAppTableRecord
  2
ACAD
 70
     0
  0
ENDTAB
  0
TABLE
  2
DIMSTYLE
  5
A
100
AcDbSymbolTable
 70
     2
100
AcDbDimStyleTable
 71
     1
  0
DIMSTYLE
105
23
100
AcDbSymbolTableRecord
100
AcDbDimStyleTableRecord
  2
STANDARD
 70
     0
  3

  4

  5

  6
_OPEN
  7
_OPEN
 40
1.0
 41
3.0
 42
0.5
 43
8.0
 44
1.5
 45
0.0
 46
0.0
 47
0.0
 48
0.0
140
3.15
141
0.09
142
0.0
143
0.03937
144
1.0
145
0.0
146
1.0
147
1.0
148
0.000000
 71
     0
 72
     0
 73
     0
 74
     0
 75
     0
 76
     0
 77
     3
 78
     8
170
     0
171
     2
172
     0
173
     1
174
     0
175
     0
176
     0
177
     0
178
     0
270
     2
271
     2
272
     4
273
     2
274
     2
340
10
275
     0
278
    46
280
     0
281
     0
282
     0
283
     1
284
     0
285
     0
286
     0
287
     3
288
     0
371
   13
372
   13
  0
DIMSTYLE
105
24
100
AcDbSymbolTableRecord
100
AcDbDimStyleTableRecord
  2
LEADSTYL
 70
     0
  3

  4

  5

  6
_OPEN
  7
_OPEN
 40
1.0
 41
3.0
 42
0.0625
 43
0.38
 44
0.18
 45
0.0
 46
0.0
 47
0.0
 48
0.0
140
3.15
141
0.09
142
0.0
143
25.4
144
1.0
145
0.0
146
1.0
147
1.0
 71
     0
 72
     0
 73
     1
 74
     1
 75
     0
 76
     0
 77
     0
 78
     0
170
     0
171
     2
172
     0
173
     1
174
     0
175
     0
176
     0
177
     0
178
     0
270
     2
271
     4
272
     4
273
     2
274
     2
340
10
275
     0
280
     0
281
     0
282
     0
283
     1
284
     0
285
     0
286
     0
287
     3
288
     0
  0
ENDTAB
  0
TABLE
  2
BLOCK_RECORD
  5
1
100
AcDbSymbolTable
 70
     6
  0
BLOCK_RECORD
  5
1D
100
AcDbSymbolTableRecord
100
AcDbBlockTableRecord
  2
*MODEL_SPACE
  0
BLOCK_RECORD
  5
20
100
AcDbSymbolTableRecord
100
AcDbBlockTableRecord
  2
*PAPER_SPACE
  0
BLOCK_RECORD
  5
25
100
AcDbSymbolTableRecord
100
AcDbBlockTableRecord
  2
_NONE
  0
BLOCK_RECORD
  5
29
100
AcDbSymbolTableRecord
100
AcDbBlockTableRecord
  2
_OPEN
  0
BLOCK_RECORD
  5
2F
100
AcDbSymbolTableRecord
100
AcDbBlockTableRecord
  2
_CLOSED
  0
BLOCK_RECORD
  5
36
100
AcDbSymbolTableRecord
100
AcDbBlockTableRecord
  2
_ORIGIN
  0
BLOCK_RECORD
  5
3B
100
AcDbSymbolTableRecord
100
AcDbBlockTableRecord
  2
_DOT
  0
BLOCK_RECORD
  5
43
100
AcDbSymbolTableRecord
100
AcDbBlockTableRecord
  2
_OBLIQUE
  0
ENDTAB
  0
ENDSEC
  0
SECTION
  2
BLOCKS
  0
BLOCK
  5
1E
100
AcDbEntity
  8
0
100
AcDbBlockBegin
  2
*MODEL_SPACE
 70
     0
 10
0.0
 20
0.0
 30
0.0
  3
*MODEL_SPACE
  1

  0
ENDBLK
  5
1F
100
AcDbEntity
  8
0
100
AcDbBlockEnd
  0
BLOCK
  5
21
100
AcDbEntity
 67
     1
  8
0
100
AcDbBlockBegin
  2
*PAPER_SPACE
 70
     0
 10
0.0
 20
0.0
 30
0.0
  3
*PAPER_SPACE
  1

  0
ENDBLK
  5
22
100
AcDbEntity
 67
     1
  8
0
100
AcDbBlockEnd
  0
BLOCK
  5
26
100
AcDbEntity
  8
0
100
AcDbBlockBegin
  2
_NONE
 70
     0
 10
0.0
 20
0.0
  0
CIRCLE
  5
27
100
AcDbEntity
  8
0
 62
     0
370
13
100
AcDbCircle
 10
0.0
 20
0.0
 40
0.25
  0
ENDBLK
  5
28
100
AcDbEntity
  8
0
100
AcDbBlockEnd
  0
BLOCK
  5
2A
100
AcDbEntity
  8
0
100
AcDbBlockBegin
  2
_OPEN
 70
     0
 10
0.0
 20
0.0
  0
LINE
  5
2B
100
AcDbEntity
  8
0
 62
     0
370
13
100
AcDbLine
 10
-0.965926
 20
0.258819
 11
0.0
 21
0.0
  0
LINE
  5
2C
100
AcDbEntity
  8
0
 62
     0
370
13
100
AcDbLine
 10
0.0
 20
0.0
 11
-0.965926
 21
-0.258819
  0
LINE
  5
2D
100
AcDbEntity
  8
0
 62
     0
370
13
100
AcDbLine
 10
0.0
 20
0.0
 11
-1.0
 21
0.0
  0
ENDBLK
  5
2E
100
AcDbEntity
  8
0
100
AcDbBlockEnd
  0
BLOCK
  5
30
100
AcDbEntity
  8
0
100
AcDbBlockBegin
  2
_CLOSED
 70
     0
 10
0.0
 20
0.0
  0
LINE
  5
31
100
AcDbEntity
  8
0
 62
     0
370
13
100
AcDbLine
 10
-0.965926
 20
0.258819
 11
0.0
 21
0.0
  0
LINE
  5
32
100
AcDbEntity
  8
0
 62
     0
370
13
100
AcDbLine
 10
0.0
 20
0.0
 11
-0.965926
 21
-0.258819
  0
LINE
  5
33
100
AcDbEntity
  8
0
 62
     0
370
13
100
AcDbLine
 10
-0.965926
 20
0.258819
 11
-0.965926
 21
-0.258819
  0
LINE
  5
34
100
AcDbEntity
  8
0
 62
     0
370
13
100
AcDbLine
 10
0.0
 20
0.0
 11
-1.0
 21
0.0
  0
ENDBLK
  5
35
100
AcDbEntity
  8
0
100
AcDbBlockEnd
  0
BLOCK
  5
37
100
AcDbEntity
  8
0
100
AcDbBlockBegin
  2
_ORIGIN
 70
     0
 10
0.0
 20
0.0
  0
CIRCLE
  5
38
100
AcDbEntity
  8
0
 62
     0
370
13
100
AcDbCircle
 10
0.0
 20
0.0
 40
0.5
  0
LINE
  5
39
100
AcDbEntity
  8
0
 62
     0
370
13
100
AcDbLine
 10
0.0
 20
0.0
 11
-1.0
 21
0.0
  0
ENDBLK
  5
3A
100
AcDbEntity
  8
0
100
AcDbBlockEnd
  0
BLOCK
  5
3C
100
AcDbEntity
  8
0
100
AcDbBlockBegin
  2
_DOT
 70
     0
 10
0.0
 20
0.0
  0
POLYLINE
  5
3D
100
AcDbEntity
  8
0
 62
     0
100
AcDb2dPolyline
 66
     1
 70
     1
 40
0.5
 41
0.5
  0
VERTEX
  5
3E
100
AcDbEntity
  8
0
 62
     0
100
AcDbVertex
100
AcDb2dVertex
 10
-0.25
 20
0.0
 42
1.0
  0
VERTEX
  5
3F
100
AcDbEntity
  8
0
 62
     0
100
AcDbVertex
100
AcDb2dVertex
 10
0.25
 20
0.0
 42
1.0
  0
SEQEND
  5
40
100
AcDbEntity
  8
0
 62
     0
  0
LINE
  5
41
100
AcDbEntity
  8
0
 62
     0
370
13
100
AcDbLine
 10
-0.5
 20
0.0
 11
-1.0
 21
0.0
  0
ENDBLK
  5
42
100
AcDbEntity
  8
0
100
AcDbBlockEnd
  0
BLOCK
  5
44
100
AcDbEntity
  8
0
100
AcDbBlockBegin
  2
_OBLIQUE
 70
     0
 10
0.0
 20
0.0
  0
LINE
  5
45
100
AcDbEntity
  8
0
 62
     0
370
13
100
AcDbLine
 10
-0.353553
 20
-0.353553
 11
0.353553
 21
0.353553
  0
ENDBLK
  5
46
100
AcDbEntity
  8
0
100
AcDbBlockEnd
  0
ENDSEC
  0
SECTION
  2
ENTITIES
  0
LINE
  5
47
100
AcDbEntity
  8
M1
  6
CONTINUOUS
370
25
100
AcDbLine
 10
185.59177
 20
136.381168
 11
197.59177
 21
136.381168
  0
LINE
  5
48
100
AcDbEntity
  8
M1
  6
CONTINUOUS
370
25
100
AcDbLine
 10
193.59177
 20
136.381168
 11
193.59177
 21
178.581168
  0
LINE
  5
49
100
AcDbEntity
  8
M1
  6
CONTINUOUS
370
25
100
AcDbLine
 10
209.29177
 20
136.381168
 11
209.29177
 21
180.731168
  0
LINE
  5
4A
100
AcDbEntity
  8
M1
  6
CONTINUOUS
370
25
100
AcDbLine
 10
194.39177
 20
165.381168
 11
208.49177
 21
165.381168
  0
LINE
  5
4B
100
AcDbEntity
  8
M1
  6
CONTINUOUS
370
25
100
AcDbLine
 10
194.39177
 20
179.381168
 11
202.29177
 21
179.381168
  0
LINE
  5
4C
100
AcDbEntity
  8
M1
  6
CONTINUOUS
370
25
100
AcDbLine
 10
192.140491
 20
172.831168
 11
217.45106
 21
172.831168
  0
LINE
  5
4D
100
AcDbEntity
  8
M1
  6
CONTINUOUS
370
25
100
AcDbLine
 10
202.29177
 20
179.981168
 11
208.79177
 21
179.981168
  0
LINE
  5
4E
100
AcDbEntity
  8
M1
  6
CONTINUOUS
370
25
100
AcDbLine
 10
202.29177
 20
180.389339
 11
202.29177
 21
179.381168
  0
LINE
  5
4F
100
AcDbEntity
  8
M1
  6
CONTINUOUS
370
25
100
AcDbLine
 10
208.79177
 20
180.231168
 11
208.79177
 21
179.381168
  0
LINE
  5
50
100
AcDbEntity
  8
M1
  6
CONTINUOUS
370
25
100
AcDbLine
 10
201.79177
 20
178.331168
 11
201.79177
 21
167.331168
  0
LINE
  5
51
100
AcDbEntity
  8
M1
  6
CONTINUOUS
370
25
100
AcDbLine
 10
208.79177
 20
179.381168
 11
209.29177
 21
179.381168
  0
LINE
  5
52
100
AcDbEntity
  8
M1
  6
CONTINUOUS
370
25
100
AcDbLine
 10
193.59177
 20
178.581168
 11
194.39177
 21
179.381168
  0
LINE
  5
53
100
AcDbEntity
  8
M1
  6
CONTINUOUS
370
25
100
AcDbLine
 10
193.59177
 20
166.181168
 11
194.39177
 21
165.381168
  0
LINE
  5
54
100
AcDbEntity
  8
M1
  6
CONTINUOUS
370
25
100
AcDbLine
 10
208.49177
 20
165.381168
 11
209.29177
 21
166.181168
  0
ARC
  5
55
100
AcDbEntity
  8
M1
  6
CONTINUOUS
370
25
100
AcDbCircle
 10
205.79177
 20
175.031168
 40
6.4
100
AcDbArc
 50
116.944358
 51
123.152888
  0
LINE
  5
56
100
AcDbEntity
  8
M1
  6
CONTINUOUS
370
25
100
AcDbLine
 10
193.59177
 20
176.081168
 11
201.79177
 21
176.081168
  0
LINE
  5
57
100
AcDbEntity
  8
M1
  6
CONTINUOUS
370
25
100
AcDbLine
 10
193.59177
 20
169.581168
 11
201.79177
 21
169.581168
  0
LINE
  5
58
100
AcDbEntity
  8
M1
  6
CONTINUOUS
370
25
100
AcDbLine
 10
201.79177
 20
178.331168
 11
209.29177
 21
178.331168
  0
LINE
  5
59
100
AcDbEntity
  8
M1
  6
CONTINUOUS
370
25
100
AcDbLine
 10
201.79177
 20
167.331168
 11
209.29177
 21
167.331168
  0
LINE
  5
5A
100
AcDbEntity
  8
M1
  6
CONTINUOUS
370
25
100
AcDbLine
 10
203.89177
 20
185.681168
 11
217.29177
 21
185.681168
  0
LINE
  5
5B
100
AcDbEntity
  8
M1
  6
CONTINUOUS
370
25
100
AcDbLine
 10
210.09177
 20
162.531168
 11
215.54177
 21
162.531168
  0
LINE
  5
5C
100
AcDbEntity
  8
M1
  6
CONTINUOUS
370
25
100
AcDbLine
 10
202.89177
 20
180.731168
 11
202.89177
 21
184.681168
  0
LINE
  5
5D
100
AcDbEntity
  8
M1
  6
CONTINUOUS
370
25
100
AcDbLine
 10
217.29177
 20
185.681168
 11
217.29177
 21
182.481168
  0
LINE
  5
5E
100
AcDbEntity
  8
M1
  6
CONTINUOUS
370
25
100
AcDbLine
 10
216.74177
 20
182.481168
 11
217.29177
 21
182.481168
  0
LINE
  5
5F
100
AcDbEntity
  8
M1
  6
CONTINUOUS
370
25
100
AcDbLine
 10
216.19177
 20
179.381168
 11
216.34177
 21
179.381168
  0
LINE
  5
60
100
AcDbEntity
  8
M1
  6
CONTINUOUS
370
25
100
AcDbLine
 10
216.19177
 20
169.381168
 11
216.34177
 21
169.381168
  0
LINE
  5
61
100
AcDbEntity
  8
M1
  6
CONTINUOUS
370
25
100
AcDbLine
 10
216.34177
 20
182.081168
 11
216.34177
 21
179.381168
  0
LINE
  5
62
100
AcDbEntity
  8
M1
  6
CONTINUOUS
370
25
100
AcDbLine
 10
216.19177
 20
179.381168
 11
216.19177
 21
169.381168
  0
LINE
  5
63
100
AcDbEntity
  8
M1
  6
CONTINUOUS
370
25
100
AcDbLine
 10
202.89177
 20
181.731168
 11
208.29177
 21
181.731168
  0
LINE
  5
64
100
AcDbEntity
  8
M1
  6
CONTINUOUS
370
25
100
AcDbLine
 10
203.39177
 20
180.231168
 11
209.29177
 21
180.231168
  0
ARC
  5
65
100
AcDbEntity
  8
M1
  6
CONTINUOUS
370
25
100
AcDbCircle
 10
208.29177
 20
180.731168
 40
1.0
100
AcDbArc
 50
0.0
 51
90.0
  0
LINE
  5
66
100
AcDbEntity
  8
M1
  6
CONTINUOUS
370
25
100
AcDbLine
 10
202.89177
 20
184.681168
 11
203.89177
 21
185.681168
  0
LINE
  5
67
100
AcDbEntity
  8
M1
  6
CONTINUOUS
370
25
100
AcDbLine
 10
202.89177
 20
180.731168
 11
203.39177
 21
180.231168
  0
LINE
  5
68
100
AcDbEntity
  8
M1
  6
CONTINUOUS
370
25
100
AcDbLine
 10
209.29177
 20
163.331168
 11
210.09177
 21
162.531168
  0
LINE
  5
69
100
AcDbEntity
  8
M1
  6
CONTINUOUS
370
25
100
AcDbLine
 10
216.34177
 20
163.331168
 11
215.54177
 21
162.531168
  0
LINE
  5
6A
100
AcDbEntity
  8
M1
  6
CONTINUOUS
370
25
100
AcDbLine
 10
216.34177
 20
169.381168
 11
216.34177
 21
163.331168
  0
LINE
  5
6B
100
AcDbEntity
  8
M1
  6
CONTINUOUS
370
25
100
AcDbLine
 10
209.29177
 20
178.331168
 11
215.633757
 21
178.331168
  0
LINE
  5
6C
100
AcDbEntity
  8
M1
  6
CONTINUOUS
370
25
100
AcDbLine
 10
209.29177
 20
167.331168
 11
216.19177
 21
167.331168
  0
LINE
  5
6D
100
AcDbEntity
  8
M1
  6
CONTINUOUS
370
25
100
AcDbLine
 10
216.34177
 20
103.381168
 11
216.34177
 21
136.381168
  0
LINE
  5
6E
100
AcDbEntity
  8
M1
  6
CONTINUOUS
370
25
100
AcDbLine
 10
216.34177
 20
109.431168
 11
215.54177
 21
110.231168
  0
LINE
  5
6F
100
AcDbEntity
  8
M1
  6
CONTINUOUS
370
25
100
AcDbLine
 10
209.29177
 20
109.431168
 11
210.09177
 21
110.231168
  0
LINE
  5
70
100
AcDbEntity
  8
M1
  6
CONTINUOUS
370
25
100
AcDbLine
 10
202.89177
 20
92.031168
 11
203.39177
 21
92.531168
  0
LINE
  5
71
100
AcDbEntity
  8
M1
  6
CONTINUOUS
370
25
100
AcDbLine
 10
202.89177
 20
88.081168
 11
203.89177
 21
87.081168
  0
ARC
  5
72
100
AcDbEntity
  8
M1
  6
CONTINUOUS
370
25
100
AcDbCircle
 10
208.29177
 20
92.031168
 40
1.0
100
AcDbArc
 50
270.0
 51
360.0
  0
LINE
  5
73
100
AcDbEntity
  8
M1
  6
CONTINUOUS
370
25
100
AcDbLine
 10
203.39177
 20
92.531168
 11
209.29177
 21
92.531168
  0
LINE
  5
74
100
AcDbEntity
  8
M1
  6
CONTINUOUS
370
25
100
AcDbLine
 10
202.89177
 20
91.031168
 11
208.29177
 21
91.031168
  0
LINE
  5
75
100
AcDbEntity
  8
M1
  6
CONTINUOUS
370
25
100
AcDbLine
 10
216.19177
 20
93.381168
 11
216.19177
 21
103.381168
  0
LINE
  5
76
100
AcDbEntity
  8
M1
  6
CONTINUOUS
370
25
100
AcDbLine
 10
216.34177
 20
90.281168
 11
216.34177
 21
93.381168
  0
LINE
  5
77
100
AcDbEntity
  8
M1
  6
CONTINUOUS
370
25
100
AcDbLine
 10
216.19177
 20
103.381168
 11
216.34177
 21
103.381168
  0
LINE
  5
78
100
AcDbEntity
  8
M1
  6
CONTINUOUS
370
25
100
AcDbLine
 10
216.19177
 20
93.381168
 11
216.34177
 21
93.381168
  0
LINE
  5
79
100
AcDbEntity
  8
M1
  6
CONTINUOUS
370
25
100
AcDbLine
 10
216.34177
 20
90.281168
 11
217.29177
 21
90.281168
  0
LINE
  5
7A
100
AcDbEntity
  8
M1
  6
CONTINUOUS
370
25
100
AcDbLine
 10
217.29177
 20
87.081168
 11
217.29177
 21
90.281168
  0
LINE
  5
7B
100
AcDbEntity
  8
M1
  6
CONTINUOUS
370
25
100
AcDbLine
 10
202.89177
 20
92.031168
 11
202.89177
 21
88.081168
  0
LINE
  5
7C
100
AcDbEntity
  8
M1
  6
CONTINUOUS
370
25
100
AcDbLine
 10
210.09177
 20
110.231168
 11
215.54177
 21
110.231168
  0
LINE
  5
7D
100
AcDbEntity
  8
M1
  6
CONTINUOUS
370
25
100
AcDbLine
 10
203.89177
 20
87.081168
 11
217.29177
 21
87.081168
  0
ARC
  5
7E
100
AcDbEntity
  8
M1
  6
CONTINUOUS
370
25
100
AcDbCircle
 10
205.79177
 20
97.731168
 40
6.4
100
AcDbArc
 50
236.847112
 51
243.055642
  0
LINE
  5
7F
100
AcDbEntity
  8
M1
  6
CONTINUOUS
370
25
100
AcDbLine
 10
208.49177
 20
107.381168
 11
209.29177
 21
106.581168
  0
LINE
  5
80
100
AcDbEntity
  8
M1
  6
CONTINUOUS
370
25
100
AcDbLine
 10
193.59177
 20
106.581168
 11
194.39177
 21
107.381168
  0
LINE
  5
81
100
AcDbEntity
  8
M1
  6
CONTINUOUS
370
25
100
AcDbLine
 10
193.59177
 20
94.181168
 11
194.39177
 21
93.381168
  0
LINE
  5
82
100
AcDbEntity
  8
M1
  6
CONTINUOUS
370
25
100
AcDbLine
 10
208.79177
 20
93.381168
 11
209.29177
 21
93.381168
  0
LINE
  5
83
100
AcDbEntity
  8
M1
  6
CONTINUOUS
370
25
100
AcDbLine
 10
208.79177
 20
92.531168
 11
208.79177
 21
93.381168
  0
LINE
  5
84
100
AcDbEntity
  8
M1
  6
CONTINUOUS
370
25
100
AcDbLine
 10
202.29177
 20
92.372996
 11
202.29177
 21
93.381168
  0
LINE
  5
85
100
AcDbEntity
  8
M1
  6
CONTINUOUS
370
25
100
AcDbLine
 10
202.29177
 20
92.781168
 11
208.79177
 21
92.781168
  0
LINE
  5
86
100
AcDbEntity
  8
M1
  6
CONTINUOUS
370
25
100
AcDbLine
 10
194.39177
 20
93.381168
 11
202.29177
 21
93.381168
  0
LINE
  5
87
100
AcDbEntity
  8
M1
  6
CONTINUOUS
370
25
100
AcDbLine
 10
194.39177
 20
107.381168
 11
208.49177
 21
107.381168
  0
LINE
  5
88
100
AcDbEntity
  8
M1
  6
CONTINUOUS
370
25
100
AcDbLine
 10
209.29177
 20
136.381168
 11
209.29177
 21
92.031168
  0
LINE
  5
89
100
AcDbEntity
  8
M1
  6
CONTINUOUS
370
25
100
AcDbLine
 10
193.59177
 20
136.381168
 11
193.59177
 21
94.181168
  0
LINE
  5
8A
100
AcDbEntity
  8
M1
  6
CONTINUOUS
370
25
100
AcDbLine
 10
191.756997
 20
99.931168
 11
217.067566
 21
99.931168
  0
LINE
  5
8B
100
AcDbEntity
  8
M1
  6
CONTINUOUS
370
25
100
AcDbLine
 10
193.59177
 20
103.931168
 11
209.29177
 21
103.931168
  0
LINE
  5
8C
100
AcDbEntity
  8
M1
  6
CONTINUOUS
370
25
100
AcDbLine
 10
193.59177
 20
95.931168
 11
209.29177
 21
95.931168
  0
LINE
  5
8D
100
AcDbEntity
  8
M1
  6
CONTINUOUS
370
25
100
AcDbLine
 10
247.99177
 20
180.331168
 11
247.99177
 21
136.381168
  0
LINE
  5
8E
100
AcDbEntity
  8
M1
  6
CONTINUOUS
370
25
100
AcDbLine
 10
217.69177
 20
185.681168
 11
217.69177
 21
182.381168
  0
LINE
  5
8F
100
AcDbEntity
  8
M1
  6
CONTINUOUS
370
25
100
AcDbLine
 10
218.59177
 20
181.981168
 11
218.59177
 21
136.381168
  0
LINE
  5
90
100
AcDbEntity
  8
M1
  6
CONTINUOUS
370
25
100
AcDbLine
 10
217.69177
 20
185.681168
 11
238.09177
 21
185.681168
  0
LINE
  5
91
100
AcDbEntity
  8
M1
  6
CONTINUOUS
370
25
100
AcDbLine
 10
217.69177
 20
182.381168
 11
218.19177
 21
182.381168
  0
LINE
  5
92
100
AcDbEntity
  8
M1
  6
CONTINUOUS
370
25
100
AcDbLine
 10
238.39177
 20
180.831168
 11
240.59177
 21
180.831168
  0
LINE
  5
93
100
AcDbEntity
  8
M1
  6
CONTINUOUS
370
25
100
AcDbLine
 10
238.09177
 20
186.931168
 11
238.09177
 21
181.131168
  0
LINE
  5
94
100
AcDbEntity
  8
M1
  6
CONTINUOUS
370
25
100
AcDbLine
 10
240.59177
 20
180.831168
 11
240.59177
 21
180.331168
  0
LINE
  5
95
100
AcDbEntity
  8
M1
  6
CONTINUOUS
370
25
100
AcDbLine
 10
243.09177
 20
180.831168
 11
243.09177
 21
180.331168
  0
LINE
  5
96
100
AcDbEntity
  8
M1
  6
CONTINUOUS
370
25
100
AcDbLine
 10
240.59177
 20
180.331168
 11
243.09177
 21
180.331168
  0
LINE
  5
97
100
AcDbEntity
  8
M1
  6
CONTINUOUS
370
25
100
AcDbLine
 10
247.99177
 20
157.381168
 11
218.59177
 21
157.381168
  0
LINE
  5
98
100
AcDbEntity
  8
M1
  6
CONTINUOUS
370
25
100
AcDbLine
 10
243.09177
 20
180.831168
 11
247.49177
 21
180.831168
  0
LINE
  5
99
100
AcDbEntity
  8
M1
  6
CONTINUOUS
370
25
100
AcDbLine
 10
247.99177
 20
160.881168
 11
218.59177
 21
160.881168
  0
LINE
  5
9A
100
AcDbEntity
  8
M1
  6
CONTINUOUS
370
25
100
AcDbLine
 10
238.09177
 20
186.931168
 11
239.59177
 21
186.931168
  0
LINE
  5
9B
100
AcDbEntity
  8
M1
  6
CONTINUOUS
370
25
100
AcDbLine
 10
241.09177
 20
182.631168
 11
241.09177
 21
180.881168
  0
LINE
  5
9C
100
AcDbEntity
  8
M1
  6
CONTINUOUS
370
25
100
AcDbLine
 10
239.59177
 20
188.781168
 11
239.59177
 21
183.131168
  0
LINE
  5
9D
100
AcDbEntity
  8
M1
  6
CONTINUOUS
370
25
100
AcDbLine
 10
240.09177
 20
182.631168
 11
241.99177
 21
182.631168
  0
LINE
  5
9E
100
AcDbEntity
  8
M1
  6
CONTINUOUS
370
25
100
AcDbLine
 10
238.59177
 20
180.881168
 11
241.09177
 21
180.881168
  0
LINE
  5
9F
100
AcDbEntity
  8
M1
  6
CONTINUOUS
370
25
100
AcDbLine
 10
239.59177
 20
188.781168
 11
245.99177
 21
188.781168
  0
LINE
  5
A0
100
AcDbEntity
  8
M1
  6
CONTINUOUS
370
25
100
AcDbLine
 10
245.99177
 20
188.781168
 11
245.99177
 21
180.831168
  0
LINE
  5
A1
100
AcDbEntity
  8
M1
  6
CONTINUOUS
370
25
100
AcDbLine
 10
241.99177
 20
183.131168
 11
241.99177
 21
182.631168
  0
LINE
  5
A2
100
AcDbEntity
  8
M1
  6
CONTINUOUS
370
25
100
AcDbLine
 10
244.39177
 20
188.181168
 11
244.39177
 21
180.831168
  0
LINE
  5
A3
100
AcDbEntity
  8
M1
  6
CONTINUOUS
370
25
100
AcDbLine
 10
241.99177
 20
183.131168
 11
244.39177
 21
183.131168
  0
LINE
  5
A4
100
AcDbEntity
  8
M1
  6
CONTINUOUS
370
25
100
AcDbLine
 10
245.99177
 20
188.181168
 11
244.39177
 21
188.181168
  0
LINE
  5
A5
100
AcDbEntity
  8
M1
  6
CONTINUOUS
370
25
100
AcDbLine
 10
239.59177
 20
183.431168
 11
240.39177
 21
182.631168
  0
ARC
  5
A6
100
AcDbEntity
  8
M1
  6
CONTINUOUS
370
25
100
AcDbCircle
 10
240.09177
 20
183.131168
 40
0.5
100
AcDbArc
 50
180.0
 51
270.0
  0
LINE
  5
A7
100
AcDbEntity
  8
M1
  6
CONTINUOUS
370
25
100
AcDbLine
 10
238.09177
 20
181.381168
 11
238.59177
 21
180.881168
  0
ARC
  5
A8
100
AcDbEntity
  8
M1
  6
CONTINUOUS
370
25
100
AcDbCircle
 10
238.39177
 20
181.131168
 40
0.3
100
AcDbArc
 50
180.0
 51
270.0
  0
LINE
  5
A9
100
AcDbEntity
  8
M1
  6
CONTINUOUS
370
25
100
AcDbLine
 10
247.49177
 20
180.831168
 11
247.99177
 21
180.331168
  0
LINE
  5
AA
100
AcDbEntity
  8
M1
  6
CONTINUOUS
370
25
100
AcDbLine
 10
245.19177
 20
188.181168
 11
245.19177
 21
180.831168
  0
ARC
  5
AB
100
AcDbEntity
  8
M1
  6
CONTINUOUS
370
25
100
AcDbCircle
 10
218.19177
 20
181.981168
 40
0.4
100
AcDbArc
 50
0.0
 51
90.0
  0
ARC
  5
AC
100
AcDbEntity
  8
M1
  6
CONTINUOUS
370
25
100
AcDbCircle
 10
216.74177
 20
182.081168
 40
0.4
100
AcDbArc
 50
90.0
 51
180.0
  0
LINE
  5
AD
100
AcDbEntity
  8
M1
  6
CONTINUOUS
370
25
100
AcDbLine
 10
217.69177
 20
87.081168
 11
217.69177
 21
136.381168
  0
LINE
  5
AE
100
AcDbEntity
  8
M1
  6
CONTINUOUS
370
25
100
AcDbLine
 10
217.69177
 20
87.081168
 11
238.09177
 21
87.081168
  0
LINE
  5
AF
100
AcDbEntity
  8
M1
  6
CONTINUOUS
370
25
100
AcDbLine
 10
238.09177
 20
85.831168
 11
238.09177
 21
136.381168
  0
LINE
  5
B0
100
AcDbEntity
  8
M1
  6
CONTINUOUS
370
25
100
AcDbLine
 10
239.59177
 20
83.981168
 11
239.59177
 21
136.381168
  0
LINE
  5
B1
100
AcDbEntity
  8
M1
  6
CONTINUOUS
370
25
100
AcDbLine
 10
238.09177
 20
85.831168
 11
239.59177
 21
85.831168
  0
LINE
  5
B2
100
AcDbEntity
  8
M1
  6
CONTINUOUS
370
25
100
AcDbLine
 10
239.59177
 20
83.981168
 11
245.99177
 21
83.981168
  0
LINE
  5
B3
100
AcDbEntity
  8
M1
  6
CONTINUOUS
370
25
100
AcDbLine
 10
245.99177
 20
83.981168
 11
245.99177
 21
136.381168
  0
LINE
  5
B4
100
AcDbEntity
  8
M1
  6
CONTINUOUS
370
25
100
AcDbLine
 10
247.99177
 20
92.431168
 11
247.99177
 21
136.381168
  0
LINE
  5
B5
100
AcDbEntity
  8
M1
  6
CONTINUOUS
370
25
100
AcDbLine
 10
247.49177
 20
91.931168
 11
247.99177
 21
92.431168
  0
LINE
  5
B6
100
AcDbEntity
  8
M1
  6
CONTINUOUS
370
25
100
AcDbLine
 10
245.99177
 20
91.931168
 11
247.49177
 21
91.931168
  0
CIRCLE
  5
B7
100
AcDbEntity
  8
M1
  6
CONTINUOUS
370
25
100
AcDbCircle
 10
346.350723
 20
136.381168
 40
52.65
  0
CIRCLE
  5
B8
100
AcDbEntity
  8
M1
  6
CONTINUOUS
370
25
100
AcDbCircle
 10
346.350723
 20
136.381168
 40
44.45
  0
ARC
  5
B9
100
AcDbEntity
  8
M1
  6
CONTINUOUS
370
25
100
AcDbCircle
 10
346.350723
 20
136.381168
 40
21.0
100
AcDbArc
 50
106.60155
 51
433.39845
  0
CIRCLE
  5
BA
100
AcDbEntity
  8
M1
  6
CONTINUOUS
370
25
100
AcDbCircle
 10
97.65
 20
136.381168
 40
52.65
  0
CIRCLE
  5
BB
100
AcDbEntity
  8
M1
  6
CONTINUOUS
370
25
100
AcDbCircle
 10
97.65
 20
136.381168
 40
50.8
  0
CIRCLE
  5
BC
100
AcDbEntity
  8
M1
  6
CONTINUOUS
370
25
100
AcDbCircle
 10
97.65
 20
136.381168
 40
49.3
  0
CIRCLE
  5
BD
100
AcDbEntity
  8
M1
  6
CONTINUOUS
370
25
100
AcDbCircle
 10
97.65
 20
136.381168
 40
43.0
  0
CIRCLE
  5
BE
100
AcDbEntity
  8
M1
  6
CONTINUOUS
370
25
100
AcDbCircle
 10
97.65
 20
136.381168
 40
29.0
  0
CIRCLE
  5
BF
100
AcDbEntity
  8
M1
  6
CONTINUOUS
370
25
100
AcDbCircle
 10
97.65
 20
136.381168
 40
43.85
  0
CIRCLE
  5
C0
100
AcDbEntity
  8
M1
  6
CONTINUOUS
370
25
100
AcDbCircle
 10
97.65
 20
136.381168
 40
26.15
  0
ARC
  5
C1
100
AcDbEntity
  8
M1
  6
CONTINUOUS
370
25
100
AcDbCircle
 10
97.65
 20
136.381168
 40
36.45
100
AcDbArc
 50
35.580107
 51
54.910623
  0
LINE
  5
C2
100
AcDbEntity
  8
M1
  6
CONTINUOUS
370
25
100
AcDbLine
 10
356.350723
 20
136.381168
 11
336.350723
 21
136.381168
  0
LINE
  5
C3
100
AcDbEntity
  8
M1
  6
CONTINUOUS
370
25
100
AcDbLine
 10
346.350723
 20
146.381168
 11
346.350723
 21
126.381168
  0
LINE
  5
C4
100
AcDbEntity
  8
M1
  6
CONTINUOUS
370
25
100
AcDbLine
 10
107.65
 20
136.381168
 11
87.65
 21
136.381168
  0
LINE
  5
C5
100
AcDbEntity
  8
M1
  6
CONTINUOUS
370
25
100
AcDbLine
 10
97.65
 20
146.381168
 11
97.65
 21
126.381168
  0
CIRCLE
  5
C6
100
AcDbEntity
  8
M1
  6
CONTINUOUS
370
25
100
AcDbCircle
 10
97.65
 20
172.831168
 40
3.25
  0
CIRCLE
  5
C7
100
AcDbEntity
  8
M1
  6
DASHED
370
25
100
AcDbCircle
 10
97.65
 20
172.831168
 40
5.5
  0
CIRCLE
  5
C8
100
AcDbEntity
  8
M1
  6
CONTINUOUS
370
25
100
AcDbCircle
 10
123.424042
 20
162.15521
 40
4.0
  0
CIRCLE
  5
C9
100
AcDbEntity
  8
M1
  6
CONTINUOUS
370
25
100
AcDbCircle
 10
71.875958
 20
162.15521
 40
4.0
  0
CIRCLE
  5
CA
100
AcDbEntity
  8
M1
  6
CONTINUOUS
370
25
100
AcDbCircle
 10
71.875958
 20
110.607125
 40
4.0
  0
CIRCLE
  5
CB
100
AcDbEntity
  8
M1
  6
CONTINUOUS
370
25
100
AcDbCircle
 10
123.424042
 20
110.607125
 40
4.0
  0
CIRCLE
  5
CC
100
AcDbEntity
  8
M1
  6
CONTINUOUS
370
25
100
AcDbCircle
 10
134.1
 20
136.381168
 40
3.25
  0
CIRCLE
  5
CD
100
AcDbEntity
  8
M1
  6
DASHED
370
25
100
AcDbCircle
 10
134.1
 20
136.381168
 40
5.5
  0
CIRCLE
  5
CE
100
AcDbEntity
  8
M1
  6
CONTINUOUS
370
25
100
AcDbCircle
 10
61.2
 20
136.381168
 40
3.25
  0
CIRCLE
  5
CF
100
AcDbEntity
  8
M1
  6
DASHED
370
25
100
AcDbCircle
 10
61.2
 20
136.381168
 40
5.5
  0
CIRCLE
  5
D0
100
AcDbEntity
  8
M1
  6
CONTINUOUS
370
25
100
AcDbCircle
 10
97.65
 20
99.931168
 40
3.25
  0
CIRCLE
  5
D1
100
AcDbEntity
  8
M1
  6
DASHED
370
25
100
AcDbCircle
 10
97.65
 20
99.931168
 40
5.5
  0
ARC
  5
D2
100
AcDbEntity
  8
M1
  6
CONTINUOUS
370
25
100
AcDbCircle
 10
97.65
 20
136.381168
 40
36.45
100
AcDbArc
 50
77.961386
 51
103.177139
  0
LINE
  5
D3
100
AcDbEntity
  8
M1
  6
CONTINUOUS
370
25
100
AcDbLine
 10
119.257743
 20
157.98891
 11
127.275172
 21
166.006339
  0
LINE
  5
D4
100
AcDbEntity
  8
M1
  6
CONTINUOUS
370
25
100
AcDbLine
 10
97.65
 20
179.487333
 11
97.65
 21
166.146468
  0
LINE
  5
D5
100
AcDbEntity
  8
M1
  6
CONTINUOUS
370
25
100
AcDbLine
 10
76.042257
 20
157.98891
 11
68.024828
 21
166.006339
  0
ARC
  5
D6
100
AcDbEntity
  8
M1
  6
CONTINUOUS
370
25
100
AcDbCircle
 10
97.65
 20
136.381168
 40
36.45
100
AcDbArc
 50
125.580107
 51
144.910623
  0
LINE
  5
D7
100
AcDbEntity
  8
M1
  6
CONTINUOUS
370
25
100
AcDbLine
 10
54.543834
 20
136.381168
 11
67.8847
 21
136.381168
  0
ARC
  5
D8
100
AcDbEntity
  8
M1
  6
CONTINUOUS
370
25
100
AcDbCircle
 10
97.65
 20
136.381168
 40
36.45
100
AcDbArc
 50
167.961386
 51
193.177139
  0
LINE
  5
D9
100
AcDbEntity
  8
M1
  6
CONTINUOUS
370
25
100
AcDbLine
 10
76.042257
 20
114.773425
 11
68.024828
 21
106.755996
  0
ARC
  5
DA
100
AcDbEntity
  8
M1
  6
CONTINUOUS
370
25
100
AcDbCircle
 10
97.65
 20
136.381168
 40
36.45
100
AcDbArc
 50
215.580107
 51
234.910623
  0
LINE
  5
DB
100
AcDbEntity
  8
M1
  6
CONTINUOUS
370
25
100
AcDbLine
 10
97.65
 20
93.275002
 11
97.65
 21
106.615868
  0
ARC
  5
DC
100
AcDbEntity
  8
M1
  6
CONTINUOUS
370
25
100
AcDbCircle
 10
97.65
 20
136.381168
 40
36.45
100
AcDbArc
 50
257.961386
 51
283.177139
  0
LINE
  5
DD
100
AcDbEntity
  8
M1
  6
CONTINUOUS
370
25
100
AcDbLine
 10
119.257743
 20
114.773425
 11
127.275172
 21
106.755996
  0
ARC
  5
DE
100
AcDbEntity
  8
M1
  6
CONTINUOUS
370
25
100
AcDbCircle
 10
97.65
 20
136.381168
 40
36.45
100
AcDbArc
 50
305.580107
 51
324.910623
  0
LINE
  5
DF
100
AcDbEntity
  8
M1
  6
CONTINUOUS
370
25
100
AcDbLine
 10
140.756166
 20
136.381168
 11
127.4153
 21
136.381168
  0
ARC
  5
E0
100
AcDbEntity
  8
M1
  6
CONTINUOUS
370
25
100
AcDbCircle
 10
97.65
 20
136.381168
 40
36.45
100
AcDbArc
 50
347.961386
 51
373.177139
  0
LINE
  5
E1
100
AcDbEntity
  8
M1
  6
CONTINUOUS
370
25
100
AcDbLine
 10
352.350723
 20
160.881168
 11
340.350723
 21
160.881168
  0
LINE
  5
E2
100
AcDbEntity
  8
M1
  6
CONTINUOUS
370
25
100
AcDbLine
 10
352.350723
 20
160.881168
 11
352.350723
 21
156.505779
  0
LINE
  5
E3
100
AcDbEntity
  8
M1
  6
CONTINUOUS
370
25
100
AcDbLine
 10
340.350723
 20
160.881168
 11
340.350723
 21
156.505779
  0
LINE
  5
E4
100
AcDbEntity
  8
M1
  6
CONTINUOUS
370
25
100
AcDbLine
 10
243.99177
 20
136.381168
 11
255.99177
 21
136.381168
  0
LINE
  5
E5
100
AcDbEntity
  8
M1
  6
CONTINUOUS
370
25
100
AcDbLine
 10
139.269717
 20
94.685766
 11
145.632983
 21
88.320924
  0
LINE
  5
E6
100
AcDbEntity
  8
M1
  6
CONTINUOUS
370
25
100
AcDbLine
 10
142.451901
 20
91.503027
 11
145.679525
 21
93.366701
  0
LINE
  5
E7
100
AcDbEntity
  8
M1
  6
CONTINUOUS
370
25
100
AcDbLine
 10
142.451901
 20
91.503027
 11
144.315036
 21
94.731344
  0
LINE
  5
E8
100
AcDbEntity
  8
M1
  6
CONTINUOUS
370
25
100
AcDbLine
 10
142.451901
 20
91.503027
 11
148.815408
 21
97.867798
  0
LINE
  5
E9
100
AcDbEntity
  8
M1
  6
CONTINUOUS
370
25
100
AcDbLine
 10
97.65
 20
195.338503
 11
97.65
 21
204.338503
  0
LINE
  5
EA
100
AcDbEntity
  8
M1
  6
CONTINUOUS
370
25
100
AcDbLine
 10
97.65
 20
199.838503
 11
101.25
 21
200.803303
  0
LINE
  5
EB
100
AcDbEntity
  8
M1
  6
CONTINUOUS
370
25
100
AcDbLine
 10
97.65
 20
199.838503
 11
101.25
 21
198.873703
  0
LINE
  5
EC
100
AcDbEntity
  8
M1
  6
CONTINUOUS
370
25
100
AcDbLine
 10
97.65
 20
199.838503
 11
106.65
 21
199.838503
  0
LINE
  5
ED
100
AcDbEntity
  8
M1
  6
CONTINUOUS
370
25
100
AcDbLine
 10
209.29177
 20
105.181168
 11
216.19177
 21
105.181168
  0
LINE
  5
EE
100
AcDbEntity
  8
M1
  6
CONTINUOUS
370
25
100
AcDbLine
 10
209.29177
 20
94.681168
 11
215.654497
 21
94.681168
  0
LINE
  5
EF
100
AcDbEntity
  8
M1
  6
CONTINUOUS
370
25
100
AcDbLine
 10
219.49177
 20
185.681168
 11
219.49177
 21
181.881168
  0
ARC
  5
F0
100
AcDbEntity
  8
M1
  6
CONTINUOUS
370
25
100
AcDbCircle
 10
175.04177
 20
181.881168
 40
44.45
100
AcDbArc
 50
348.450624
 51
360.0
  0
LINE
  5
F1
100
AcDbEntity
  8
M1
  6
CONTINUOUS
370
25
100
AcDbLine
 10
215.49177
 20
185.681168
 11
215.49177
 21
181.881168
  0
ARC
  5
F2
100
AcDbEntity
  8
M1
  6
CONTINUOUS
370
25
100
AcDbCircle
 10
259.94177
 20
181.881168
 40
44.45
100
AcDbArc
 50
180.0
 51
190.181748
  0
LINE
  5
F3
100
AcDbEntity
  8
M1
  6
CONTINUOUS
370
25
100
AcDbLine
 10
215.49177
 20
87.081168
 11
215.49177
 21
90.881168
  0
ARC
  5
F4
100
AcDbEntity
  8
M1
  6
CONTINUOUS
370
25
100
AcDbCircle
 10
259.94177
 20
90.881168
 40
44.45
100
AcDbArc
 50
169.818252
 51
180.0
  0
TEXT
  5
F5
100
AcDbEntity
  8
M1
100
AcDbText
 10
349.55072
 20
37.497646
 40
6.0
  1
ＴＲ－１５
 41
1.0
  7
STANDARD
100
AcDbText
  0
TEXT
  5
F6
100
AcDbEntity
  8
M1
100
AcDbText
 10
344.244324
 20
28.46558
 40
5.0
  1
（ＳＤＫ３１０４）
  7
STANDARD
100
AcDbText
  0
ENDSEC
  0
SECTION
  2
OBJECTS
  0
DICTIONARY
  5
C
100
AcDbDictionary
  3
ACAD_GROUP
350
D
  3
ACAD_MLINESTYLE
350
E
  0
DICTIONARY
  5
D
102
{ACAD_REACTORS
330
C
102
}
100
AcDbDictionary
  0
DICTIONARY
  5
E
102
{ACAD_REACTORS
330
C
102
}
100
AcDbDictionary
  3
STANDARD
350
13
  0
MLINESTYLE
  5
13
102
{ACAD_REACTORS
330
E
102
}
100
AcDbMlineStyle
  2
STANDARD
 70
     0
  3

 62
     0
 51
90.0
 52
90.0
 71
     2
 49
0.5
 62
   256
  6
BYLAYER
 49
-0.5
 62
   256
  6
BYLAYER
  0
ENDSEC
  0
EOF
