  0
SECTION
  2
HEADER
  9
$ACADVER
  1
AC1015
  9
$INSBASE
 10
0.0
 20
0.0
  9
$VIEWCTR
 10
7.531722
 20
4.5
  9
$VIEWSIZE
 40
9.0
  9
$SNAPMODE
 70
     0
  9
$SNAPUNIT
 10
1.0
 20
1.0
  9
$SNAPBASE
 10
0.0
 20
0.0
  9
$SNAPANG
 50
0.0
  9
$SNAPSTYLE
 70
     0
  9
$SNAPISOPAIR
 70
     0
  9
$GRIDMODE
 70
     0
  9
$GRIDUNIT
 10
0.0
 20
0.0
  9
$ORTHOMODE
 70
     0
  9
$REGENMODE
 70
     1
  9
$FILLMODE
 70
     1
  9
$QTEXTMODE
 70
     0
  9
$DRAGMODE
 70
     2
  9
$LTSCALE
 40
1.0
  9
$OSMODE
 70
     0
  9
$ATTMODE
 70
     1
  9
$TEXTSIZE
 40
0.2
  9
$TRACEWID
 40
0.05
  9
$TEXTSTYLE
  7
STANDARD
  9
$CELTYPE
  6
BYLAYER
  9
$CECOLOR
 62
   256
  9
$DIMSCALE
 40
1.0
  9
$DIMASZ
 40
0.18
  9
$DIMEXO
 40
0.0625
  9
$DIMDLI
 40
0.38
  9
$DIMRND
 40
0.0
  9
$DIMDLE
 40
0.0
  9
$DIMEXE
 40
0.18
  9
$DIMTP
 40
0.0
  9
$DIMTM
 40
0.0
  9
$DIMTXT
 40
0.18
  9
$DIMCEN
 40
0.09
  9
$DIMTSZ
 40
0.0
  9
$DIMADEC
 70
     0
  9
$DIMALTRND
 40
0.000000
  9
$DIMAZIN
 70
     0
  9
$DIMDSEP
 70
    46
  9
$DIMATFIT
 70
     3
  9
$DIMFRAC
 70
     0
  9
$DIMLDRBLK
  1

  9
$DIMLUNIT
 70
     2
  9
$DIMLWD
 70
   13
  9
$DIMLWE
 70
   13
  9
$DIMTMOVE
 70
     0
  9
$CELWEIGHT
370
    25
  9
$LWDISPLAY
290
    1
  9
$EXTNAMES
290
    1
  9
$DIMTOL
 70
     0
  9
$DIMLIM
 70
     0
  9
$DIMTIH
 70
     1
  9
$DIMTOH
 70
     1
  9
$DIMSE1
 70
     0
  9
$DIMSE2
 70
     0
  9
$DIMTAD
 70
     0
  9
$DIMZIN
 70
     0
  9
$DIMBLK
  1

  9
$LUNITS
 70
     2
  9
$LUPREC
 70
     4
  9
$AXISMODE
 70
     0
  9
$AXISUNIT
 10
0.0
 20
0.0
  9
$SKETCHINC
 40
0.1
  9
$FILLETRAD
 40
0.0
  9
$AUNITS
 70
     0
  9
$AUPREC
 70
     0
  9
$MENU
  1
ACAD
  9
$ELEVATION
 40
0.0
  9
$THICKNESS
 40
0.0
  9
$VIEWDIR
 10
0.0
 20
0.0
 30
1.0
  9
$LIMCHECK
 70
     0
  9
$BLIPMODE
 70
     1
  9
$CHAMFERA
 40
0.0
  9
$CHAMFERB
 40
0.0
  9
$FASTZOOM
 70
     1
  9
$SKPOLY
 70
     0
  9
$TDCREATE
 40
0000000.0000000000
  9
$TDUPDATE
 40
0000000.0000000000
  9
$TDINDWG
 40
0.0000000000
  9
$TDUSRTIMER
 40
0.0000000000
  9
$USRTIMER
 70
     1
  9
$ANGBASE
 50
0.0
  9
$ANGDIR
 70
     0
  9
$PDMODE
 70
     0
  9
$PDSIZE
 40
0.0
  9
$PLINEWID
 40
0.0
  9
$COORDS
 70
     0
  9
$USERI1
 70
     0
  9
$USERI2
 70
     0
  9
$USERI3
 70
     0
  9
$USERI4
 70
     0
  9
$USERI5
 70
     0
  9
$USERR1
 40
0.0
  9
$USERR2
 40
0.0
  9
$USERR3
 40
0.0
  9
$USERR4
 40
0.0
  9
$USERR5
 40
0.0
  9
$CLAYER
  8
M1
  9
$EXTMIN
 10
0.0
 20
0.0
  9
$EXTMAX
 10
841.0
 20
594.0
  9
$LIMMIN
 10
0.0
 20
0.0
  9
$LIMMAX
 10
841.0
 20
594.0
  9
$HANDSEED
  5
F0
  0
ENDSEC
  0
SECTION
  2
CLASSES
  0
ENDSEC
  0
SECTION
  2
TABLES
  0
TABLE
  2
VPORT
  5
8
100
AcDbSymbolTable
 70
     2
  0
VPORT
  5
14
100
AcDbSymbolTableRecord
100
AcDbViewportTableRecord
  2
*ACTIVE
 70
     0
 10
0.0
 20
0.0
 11
1.0
 21
1.0
 12
484.0
 22
297.0
 13
0.0
 23
0.0
 14
1.0
 24
1.0
 15
0.0
 25
0.0
 16
0.0
 26
0.0
 36
1.0
 17
0.0
 27
0.0
 37
0.0
 40
594.0
 41
2.0
 42
50.0
 43
0.0
 44
0.0
 50
0.0
 51
0.0
 71
     0
 72
   100
 73
     1
 74
     1
 75
     0
 76
     0
 77
     0
 78
     0
  0
ENDTAB
  0
TABLE
  2
LTYPE
  5
5
100
AcDbSymbolTable
 70
     5
  0
LTYPE
  5
15
100
AcDbSymbolTableRecord
100
AcDbLinetypeTableRecord
  2
BYBLOCK
 70
     0
  3

 72
    65
 73
     0
 40
0.0
  0
LTYPE
  5
16
100
AcDbSymbolTableRecord
100
AcDbLinetypeTableRecord
  2
BYLAYER
 70
     0
  3

 72
    65
 73
     0
 40
0.0
  0
LTYPE
  5
17
100
AcDbSymbolTableRecord
100
AcDbLinetypeTableRecord
  2
CONTINUOUS
 70
    64
  3
Solid line
 72
    65
 73
     0
 40
0.0
  0
LTYPE
  5
18
100
AcDbSymbolTableRecord
100
AcDbLinetypeTableRecord
  2
DASHED
 70
    64
  3
__ __ __ __ __ __ __ __ __ __ __ __ __ __ __ __
 72
    65
 73
     2
 40
0.75
 49
0.5
 74
     0
 49
-0.25
 74
     0
  0
LTYPE
  5
19
100
AcDbSymbolTableRecord
100
AcDbLinetypeTableRecord
  2
DASHDOT
 70
    64
  3
__ . __ . __ . __ . __ . __ . __ . __ . __ . __
 72
    65
 73
     4
 40
1.0
 49
0.5
 74
     0
 49
-0.25
 74
     0
 49
0.0
 74
     0
 49
-0.25
 74
     0
  0
LTYPE
  5
1A
100
AcDbSymbolTableRecord
100
AcDbLinetypeTableRecord
  2
DIVIDE
 70
    64
  3
____ . . ____ . . ____ . . ____ . . ____ . . __
 72
    65
 73
     6
 40
1.25
 49
0.5
 74
     0
 49
-0.25
 74
     0
 49
0.0
 74
     0
 49
-0.25
 74
     0
 49
0.0
 74
     0
 49
-0.25
 74
     0
  0
LTYPE
  5
1B
100
AcDbSymbolTableRecord
100
AcDbLinetypeTableRecord
  2
DOT
 70
    64
  3
. . . . . . . . . . . . . . . . . . . . . . . .
 72
    65
 73
     2
 40
0.25
 49
0.0
 74
     0
 49
-0.25
 74
     0
  0
ENDTAB
  0
TABLE
  2
LAYER
  5
2
100
AcDbSymbolTable
 70
   102
  0
LAYER
  5
F
100
AcDbSymbolTableRecord
100
AcDbLayerTableRecord
  2
0
 70
     0
 62
     7
  6
CONTINUOUS
370
     -3
390
F
  0
LAYER
  5
1C
100
AcDbSymbolTableRecord
100
AcDbLayerTableRecord
  2
M1
 70
     0
 62
     7
  6
CONTINUOUS
370
     -3
390
F
  0
ENDTAB
  0
TABLE
  2
STYLE
  5
3
100
AcDbSymbolTable
 70
     2
  0
STYLE
  5
10
100
AcDbSymbolTableRecord
100
AcDbTextStyleTableRecord
  2
STANDARD
 70
     0
 40
0.0
 41
1.0
 50
0.0
 71
     0
 42
0.2
  3
txt
  4
BIGFONT
  0
ENDTAB
  0
TABLE
  2
VIEW
  5
6
100
AcDbSymbolTable
 70
     0
  0
ENDTAB
  0
TABLE
  2
UCS
  5
7
100
AcDbSymbolTable
 70
     0
  0
ENDTAB
  0
TABLE
  2
APPID
  5
9
100
AcDbSymbolTable
 70
     1
  0
APPID
  5
11
100
AcDbSymbolTableRecord
100
AcDbRegAppTableRecord
  2
ACAD
 70
     0
  0
ENDTAB
  0
TABLE
  2
DIMSTYLE
  5
A
100
AcDbSymbolTable
 70
     2
100
AcDbDimStyleTable
 71
     1
  0
DIMSTYLE
105
23
100
AcDbSymbolTableRecord
100
AcDbDimStyleTableRecord
  2
STANDARD
 70
     0
  3

  4

  5

  6
_OPEN
  7
_OPEN
 40
1.0
 41
3.0
 42
0.5
 43
8.0
 44
1.5
 45
0.0
 46
0.0
 47
0.0
 48
0.0
140
3.15
141
0.09
142
0.0
143
0.03937
144
1.0
145
0.0
146
1.0
147
1.0
148
0.000000
 71
     0
 72
     0
 73
     0
 74
     0
 75
     0
 76
     0
 77
     3
 78
     8
170
     0
171
     2
172
     0
173
     1
174
     0
175
     0
176
     0
177
     0
178
     0
270
     2
271
     2
272
     4
273
     2
274
     2
340
10
275
     0
278
    46
280
     0
281
     0
282
     0
283
     1
284
     0
285
     0
286
     0
287
     3
288
     0
371
   13
372
   13
  0
DIMSTYLE
105
24
100
AcDbSymbolTableRecord
100
AcDbDimStyleTableRecord
  2
LEADSTYL
 70
     0
  3

  4

  5

  6
_OPEN
  7
_OPEN
 40
1.0
 41
3.0
 42
0.0625
 43
0.38
 44
0.18
 45
0.0
 46
0.0
 47
0.0
 48
0.0
140
3.15
141
0.09
142
0.0
143
25.4
144
1.0
145
0.0
146
1.0
147
1.0
 71
     0
 72
     0
 73
     1
 74
     1
 75
     0
 76
     0
 77
     0
 78
     0
170
     0
171
     2
172
     0
173
     1
174
     0
175
     0
176
     0
177
     0
178
     0
270
     2
271
     4
272
     4
273
     2
274
     2
340
10
275
     0
280
     0
281
     0
282
     0
283
     1
284
     0
285
     0
286
     0
287
     3
288
     0
  0
ENDTAB
  0
TABLE
  2
BLOCK_RECORD
  5
1
100
AcDbSymbolTable
 70
     6
  0
BLOCK_RECORD
  5
1D
100
AcDbSymbolTableRecord
100
AcDbBlockTableRecord
  2
*MODEL_SPACE
  0
BLOCK_RECORD
  5
20
100
AcDbSymbolTableRecord
100
AcDbBlockTableRecord
  2
*PAPER_SPACE
  0
BLOCK_RECORD
  5
25
100
AcDbSymbolTableRecord
100
AcDbBlockTableRecord
  2
_NONE
  0
BLOCK_RECORD
  5
29
100
AcDbSymbolTableRecord
100
AcDbBlockTableRecord
  2
_OPEN
  0
BLOCK_RECORD
  5
2F
100
AcDbSymbolTableRecord
100
AcDbBlockTableRecord
  2
_CLOSED
  0
BLOCK_RECORD
  5
36
100
AcDbSymbolTableRecord
100
AcDbBlockTableRecord
  2
_ORIGIN
  0
BLOCK_RECORD
  5
3B
100
AcDbSymbolTableRecord
100
AcDbBlockTableRecord
  2
_DOT
  0
BLOCK_RECORD
  5
43
100
AcDbSymbolTableRecord
100
AcDbBlockTableRecord
  2
_OBLIQUE
  0
ENDTAB
  0
ENDSEC
  0
SECTION
  2
BLOCKS
  0
BLOCK
  5
1E
100
AcDbEntity
  8
0
100
AcDbBlockBegin
  2
*MODEL_SPACE
 70
     0
 10
0.0
 20
0.0
 30
0.0
  3
*MODEL_SPACE
  1

  0
ENDBLK
  5
1F
100
AcDbEntity
  8
0
100
AcDbBlockEnd
  0
BLOCK
  5
21
100
AcDbEntity
 67
     1
  8
0
100
AcDbBlockBegin
  2
*PAPER_SPACE
 70
     0
 10
0.0
 20
0.0
 30
0.0
  3
*PAPER_SPACE
  1

  0
ENDBLK
  5
22
100
AcDbEntity
 67
     1
  8
0
100
AcDbBlockEnd
  0
BLOCK
  5
26
100
AcDbEntity
  8
0
100
AcDbBlockBegin
  2
_NONE
 70
     0
 10
0.0
 20
0.0
  0
CIRCLE
  5
27
100
AcDbEntity
  8
0
 62
     0
370
13
100
AcDbCircle
 10
0.0
 20
0.0
 40
0.25
  0
ENDBLK
  5
28
100
AcDbEntity
  8
0
100
AcDbBlockEnd
  0
BLOCK
  5
2A
100
AcDbEntity
  8
0
100
AcDbBlockBegin
  2
_OPEN
 70
     0
 10
0.0
 20
0.0
  0
LINE
  5
2B
100
AcDbEntity
  8
0
 62
     0
370
13
100
AcDbLine
 10
-0.965926
 20
0.258819
 11
0.0
 21
0.0
  0
LINE
  5
2C
100
AcDbEntity
  8
0
 62
     0
370
13
100
AcDbLine
 10
0.0
 20
0.0
 11
-0.965926
 21
-0.258819
  0
LINE
  5
2D
100
AcDbEntity
  8
0
 62
     0
370
13
100
AcDbLine
 10
0.0
 20
0.0
 11
-1.0
 21
0.0
  0
ENDBLK
  5
2E
100
AcDbEntity
  8
0
100
AcDbBlockEnd
  0
BLOCK
  5
30
100
AcDbEntity
  8
0
100
AcDbBlockBegin
  2
_CLOSED
 70
     0
 10
0.0
 20
0.0
  0
LINE
  5
31
100
AcDbEntity
  8
0
 62
     0
370
13
100
AcDbLine
 10
-0.965926
 20
0.258819
 11
0.0
 21
0.0
  0
LINE
  5
32
100
AcDbEntity
  8
0
 62
     0
370
13
100
AcDbLine
 10
0.0
 20
0.0
 11
-0.965926
 21
-0.258819
  0
LINE
  5
33
100
AcDbEntity
  8
0
 62
     0
370
13
100
AcDbLine
 10
-0.965926
 20
0.258819
 11
-0.965926
 21
-0.258819
  0
LINE
  5
34
100
AcDbEntity
  8
0
 62
     0
370
13
100
AcDbLine
 10
0.0
 20
0.0
 11
-1.0
 21
0.0
  0
ENDBLK
  5
35
100
AcDbEntity
  8
0
100
AcDbBlockEnd
  0
BLOCK
  5
37
100
AcDbEntity
  8
0
100
AcDbBlockBegin
  2
_ORIGIN
 70
     0
 10
0.0
 20
0.0
  0
CIRCLE
  5
38
100
AcDbEntity
  8
0
 62
     0
370
13
100
AcDbCircle
 10
0.0
 20
0.0
 40
0.5
  0
LINE
  5
39
100
AcDbEntity
  8
0
 62
     0
370
13
100
AcDbLine
 10
0.0
 20
0.0
 11
-1.0
 21
0.0
  0
ENDBLK
  5
3A
100
AcDbEntity
  8
0
100
AcDbBlockEnd
  0
BLOCK
  5
3C
100
AcDbEntity
  8
0
100
AcDbBlockBegin
  2
_DOT
 70
     0
 10
0.0
 20
0.0
  0
POLYLINE
  5
3D
100
AcDbEntity
  8
0
 62
     0
100
AcDb2dPolyline
 66
     1
 70
     1
 40
0.5
 41
0.5
  0
VERTEX
  5
3E
100
AcDbEntity
  8
0
 62
     0
100
AcDbVertex
100
AcDb2dVertex
 10
-0.25
 20
0.0
 42
1.0
  0
VERTEX
  5
3F
100
AcDbEntity
  8
0
 62
     0
100
AcDbVertex
100
AcDb2dVertex
 10
0.25
 20
0.0
 42
1.0
  0
SEQEND
  5
40
100
AcDbEntity
  8
0
 62
     0
  0
LINE
  5
41
100
AcDbEntity
  8
0
 62
     0
370
13
100
AcDbLine
 10
-0.5
 20
0.0
 11
-1.0
 21
0.0
  0
ENDBLK
  5
42
100
AcDbEntity
  8
0
100
AcDbBlockEnd
  0
BLOCK
  5
44
100
AcDbEntity
  8
0
100
AcDbBlockBegin
  2
_OBLIQUE
 70
     0
 10
0.0
 20
0.0
  0
LINE
  5
45
100
AcDbEntity
  8
0
 62
     0
370
13
100
AcDbLine
 10
-0.353553
 20
-0.353553
 11
0.353553
 21
0.353553
  0
ENDBLK
  5
46
100
AcDbEntity
  8
0
100
AcDbBlockEnd
  0
ENDSEC
  0
SECTION
  2
ENTITIES
  0
CIRCLE
  5
47
100
AcDbEntity
  8
M1
  6
CONTINUOUS
370
25
100
AcDbCircle
 10
161.682651
 20
308.554678
 40
152.4
  0
CIRCLE
  5
48
100
AcDbEntity
  8
M1
  6
CONTINUOUS
370
25
100
AcDbCircle
 10
161.682651
 20
308.554678
 40
151.5
  0
CIRCLE
  5
49
100
AcDbEntity
  8
M1
  6
CONTINUOUS
370
25
100
AcDbCircle
 10
161.682651
 20
308.554678
 40
141.25
  0
CIRCLE
  5
4A
100
AcDbEntity
  8
M1
  6
CONTINUOUS
370
25
100
AcDbCircle
 10
161.682651
 20
308.554678
 40
127.05
  0
CIRCLE
  5
4B
100
AcDbEntity
  8
M1
  6
CONTINUOUS
370
25
100
AcDbCircle
 10
161.682651
 20
308.554678
 40
74.0
  0
CIRCLE
  5
4C
100
AcDbEntity
  8
M1
  6
CONTINUOUS
370
25
100
AcDbCircle
 10
161.682651
 20
308.554678
 40
125.0
  0
CIRCLE
  5
4D
100
AcDbEntity
  8
M1
  6
CONTINUOUS
370
25
100
AcDbCircle
 10
161.682651
 20
308.554678
 40
86.0
  0
ARC
  5
4E
100
AcDbEntity
  8
M1
  6
CONTINUOUS
370
25
100
AcDbCircle
 10
161.682651
 20
308.554678
 40
107.0
100
AcDbArc
 50
353.149662
 51
366.939274
  0
CIRCLE
  5
4F
100
AcDbEntity
  8
M1
  6
CONTINUOUS
370
25
100
AcDbCircle
 10
696.52305
 20
308.554678
 40
133.0
  0
ARC
  5
50
100
AcDbEntity
  8
M1
  6
CONTINUOUS
370
25
100
AcDbCircle
 10
696.52305
 20
308.554678
 40
63.5
100
AcDbArc
 50
105.99721
 51
434.00279
  0
CIRCLE
  5
51
100
AcDbEntity
  8
M1
  6
CONTINUOUS
370
25
100
AcDbCircle
 10
696.52305
 20
308.554678
 40
152.4
  0
LINE
  5
52
100
AcDbEntity
  8
M1
  6
CONTINUOUS
370
25
100
AcDbLine
 10
721.52305
 20
308.554678
 11
671.52305
 21
308.554678
  0
LINE
  5
53
100
AcDbEntity
  8
M1
  6
CONTINUOUS
370
25
100
AcDbLine
 10
696.52305
 20
333.554678
 11
696.52305
 21
283.554678
  0
LINE
  5
54
100
AcDbEntity
  8
M1
  6
CONTINUOUS
370
25
100
AcDbLine
 10
186.682651
 20
308.554678
 11
136.682651
 21
308.554678
  0
LINE
  5
55
100
AcDbEntity
  8
M1
  6
CONTINUOUS
370
25
100
AcDbLine
 10
161.682651
 20
333.554678
 11
161.682651
 21
283.554678
  0
LINE
  5
56
100
AcDbEntity
  8
M1
  6
CONTINUOUS
370
25
100
AcDbLine
 10
714.02305
 20
383.054678
 11
679.02305
 21
383.054678
  0
LINE
  5
57
100
AcDbEntity
  8
M1
  6
CONTINUOUS
370
25
100
AcDbLine
 10
714.02305
 20
383.054678
 11
714.02305
 21
369.595647
  0
LINE
  5
58
100
AcDbEntity
  8
M1
  6
CONTINUOUS
370
25
100
AcDbLine
 10
679.02305
 20
383.054678
 11
679.02305
 21
369.595647
  0
CIRCLE
  5
59
100
AcDbEntity
  8
M1
  6
CONTINUOUS
370
25
100
AcDbCircle
 10
268.682651
 20
308.554678
 40
8.0
  0
CIRCLE
  5
5A
100
AcDbEntity
  8
M1
  6
CONTINUOUS
370
25
100
AcDbCircle
 10
108.182651
 20
401.219395
 40
8.0
  0
CIRCLE
  5
5B
100
AcDbEntity
  8
M1
  6
CONTINUOUS
370
25
100
AcDbCircle
 10
108.182651
 20
215.889958
 40
8.0
  0
CIRCLE
  5
5C
100
AcDbEntity
  8
M1
  6
DASHED
370
25
100
AcDbCircle
 10
161.682651
 20
201.554678
 40
13.0
  0
CIRCLE
  5
5D
100
AcDbEntity
  8
M1
  6
DASHED
370
25
100
AcDbCircle
 10
215.182651
 20
215.889958
 40
13.0
  0
CIRCLE
  5
5E
100
AcDbEntity
  8
M1
  6
CONTINUOUS
370
25
100
AcDbCircle
 10
254.34737
 20
255.054678
 40
9.0
  0
CIRCLE
  5
5F
100
AcDbEntity
  8
M1
  6
DASHED
370
25
100
AcDbCircle
 10
254.34737
 20
255.054678
 40
13.0
  0
CIRCLE
  5
60
100
AcDbEntity
  8
M1
  6
CONTINUOUS
370
25
100
AcDbCircle
 10
254.34737
 20
362.054678
 40
9.0
  0
CIRCLE
  5
61
100
AcDbEntity
  8
M1
  6
DASHED
370
25
100
AcDbCircle
 10
254.34737
 20
362.054678
 40
13.0
  0
CIRCLE
  5
62
100
AcDbEntity
  8
M1
  6
CONTINUOUS
370
25
100
AcDbCircle
 10
215.182651
 20
401.219395
 40
9.0
  0
CIRCLE
  5
63
100
AcDbEntity
  8
M1
  6
DASHED
370
25
100
AcDbCircle
 10
215.182651
 20
401.219395
 40
13.0
  0
CIRCLE
  5
64
100
AcDbEntity
  8
M1
  6
CONTINUOUS
370
25
100
AcDbCircle
 10
161.682651
 20
415.554678
 40
9.0
  0
CIRCLE
  5
65
100
AcDbEntity
  8
M1
  6
DASHED
370
25
100
AcDbCircle
 10
161.682651
 20
415.554678
 40
13.0
  0
CIRCLE
  5
66
100
AcDbEntity
  8
M1
  6
CONTINUOUS
370
25
100
AcDbCircle
 10
69.017934
 20
362.054678
 40
9.0
  0
CIRCLE
  5
67
100
AcDbEntity
  8
M1
  6
DASHED
370
25
100
AcDbCircle
 10
69.017934
 20
362.054678
 40
13.0
  0
CIRCLE
  5
68
100
AcDbEntity
  8
M1
  6
CONTINUOUS
370
25
100
AcDbCircle
 10
54.682651
 20
308.554678
 40
9.0
  0
CIRCLE
  5
69
100
AcDbEntity
  8
M1
  6
DASHED
370
25
100
AcDbCircle
 10
54.682651
 20
308.554678
 40
13.0
  0
CIRCLE
  5
6A
100
AcDbEntity
  8
M1
  6
DASHED
370
25
100
AcDbCircle
 10
69.017934
 20
255.054678
 40
13.0
  0
CIRCLE
  5
6B
100
AcDbEntity
  8
M1
  6
CONTINUOUS
370
25
100
AcDbCircle
 10
69.017934
 20
255.054678
 40
9.0
  0
CIRCLE
  5
6C
100
AcDbEntity
  8
M1
  6
CONTINUOUS
370
25
100
AcDbCircle
 10
215.182651
 20
215.889958
 40
9.0
  0
CIRCLE
  5
6D
100
AcDbEntity
  8
M1
  6
CONTINUOUS
370
25
100
AcDbCircle
 10
161.682651
 20
201.554678
 40
9.0
  0
ARC
  5
6E
100
AcDbEntity
  8
M1
  6
CONTINUOUS
370
25
100
AcDbCircle
 10
161.682651
 20
308.554678
 40
107.0
100
AcDbArc
 50
19.319152
 51
40.476402
  0
LINE
  5
6F
100
AcDbEntity
  8
M1
  6
CONTINUOUS
370
25
100
AcDbLine
 10
240.00007
 20
353.771261
 11
268.490257
 21
370.220078
  0
LINE
  5
70
100
AcDbEntity
  8
M1
  6
CONTINUOUS
370
25
100
AcDbLine
 10
256.552653
 20
308.554678
 11
280.472153
 21
308.554678
  0
LINE
  5
71
100
AcDbEntity
  8
M1
  6
CONTINUOUS
370
25
100
AcDbLine
 10
325.285837
 20
308.554678
 11
361.285837
 21
308.554678
  0
ARC
  5
72
100
AcDbEntity
  8
M1
  6
CONTINUOUS
370
25
100
AcDbCircle
 10
161.682651
 20
308.554678
 40
107.0
100
AcDbArc
 50
49.319152
 51
70.476402
  0
LINE
  5
73
100
AcDbEntity
  8
M1
  6
CONTINUOUS
370
25
100
AcDbLine
 10
206.899234
 20
386.872097
 11
223.348051
 21
415.362284
  0
ARC
  5
74
100
AcDbEntity
  8
M1
  6
CONTINUOUS
370
25
100
AcDbCircle
 10
161.682651
 20
308.554678
 40
107.0
100
AcDbArc
 50
79.319152
 51
100.476402
  0
LINE
  5
75
100
AcDbEntity
  8
M1
  6
CONTINUOUS
370
25
100
AcDbLine
 10
161.682651
 20
398.987844
 11
161.682651
 21
431.885478
  0
ARC
  5
76
100
AcDbEntity
  8
M1
  6
CONTINUOUS
370
25
100
AcDbCircle
 10
161.682651
 20
308.554678
 40
107.0
100
AcDbArc
 50
139.319152
 51
160.476402
  0
LINE
  5
77
100
AcDbEntity
  8
M1
  6
CONTINUOUS
370
25
100
AcDbLine
 10
83.365233
 20
353.771261
 11
54.875044
 21
370.220078
  0
ARC
  5
78
100
AcDbEntity
  8
M1
  6
CONTINUOUS
370
25
100
AcDbCircle
 10
161.682651
 20
308.554678
 40
107.0
100
AcDbArc
 50
169.319152
 51
190.476402
  0
LINE
  5
79
100
AcDbEntity
  8
M1
  6
CONTINUOUS
370
25
100
AcDbLine
 10
71.249486
 20
308.554678
 11
38.35185
 21
308.554678
  0
ARC
  5
7A
100
AcDbEntity
  8
M1
  6
CONTINUOUS
370
25
100
AcDbCircle
 10
161.682651
 20
308.554678
 40
107.0
100
AcDbArc
 50
199.319152
 51
220.476402
  0
LINE
  5
7B
100
AcDbEntity
  8
M1
  6
CONTINUOUS
370
25
100
AcDbLine
 10
83.365233
 20
263.338094
 11
54.875044
 21
246.889277
  0
ARC
  5
7C
100
AcDbEntity
  8
M1
  6
CONTINUOUS
370
25
100
AcDbCircle
 10
161.682651
 20
308.554678
 40
107.0
100
AcDbArc
 50
259.319152
 51
280.476402
  0
LINE
  5
7D
100
AcDbEntity
  8
M1
  6
CONTINUOUS
370
25
100
AcDbLine
 10
161.682651
 20
218.121511
 11
161.682651
 21
185.223877
  0
ARC
  5
7E
100
AcDbEntity
  8
M1
  6
CONTINUOUS
370
25
100
AcDbCircle
 10
161.682651
 20
308.554678
 40
107.0
100
AcDbArc
 50
289.319152
 51
310.476402
  0
LINE
  5
7F
100
AcDbEntity
  8
M1
  6
CONTINUOUS
370
25
100
AcDbLine
 10
206.899234
 20
230.237258
 11
223.348051
 21
201.747071
  0
ARC
  5
80
100
AcDbEntity
  8
M1
  6
CONTINUOUS
370
25
100
AcDbCircle
 10
161.682651
 20
308.554678
 40
107.0
100
AcDbArc
 50
319.319152
 51
340.476402
  0
LINE
  5
81
100
AcDbEntity
  8
M1
  6
CONTINUOUS
370
25
100
AcDbLine
 10
240.00007
 20
263.338094
 11
268.490257
 21
246.889277
  0
ARC
  5
82
100
AcDbEntity
  8
M1
  6
CONTINUOUS
370
25
100
AcDbCircle
 10
161.682651
 20
308.554678
 40
107.0
100
AcDbArc
 50
113.149662
 51
126.939274
  0
LINE
  5
83
100
AcDbEntity
  8
M1
  6
CONTINUOUS
370
25
100
AcDbLine
 10
114.24765
 20
390.714508
 11
102.2879
 21
411.429402
  0
ARC
  5
84
100
AcDbEntity
  8
M1
  6
CONTINUOUS
370
25
100
AcDbCircle
 10
161.682651
 20
308.554678
 40
107.0
100
AcDbArc
 50
233.149662
 51
246.939274
  0
LINE
  5
85
100
AcDbEntity
  8
M1
  6
CONTINUOUS
370
25
100
AcDbLine
 10
114.24765
 20
226.394845
 11
102.2879
 21
205.679952
  0
LINE
  5
86
100
AcDbEntity
  8
M1
  6
CONTINUOUS
370
25
100
AcDbLine
 10
349.285837
 20
432.554678
 11
349.285837
 21
308.554678
  0
LINE
  5
87
100
AcDbEntity
  8
M1
  6
CONTINUOUS
370
25
100
AcDbLine
 10
394.285837
 20
440.904678
 11
394.285837
 21
308.554678
  0
LINE
  5
88
100
AcDbEntity
  8
M1
  6
CONTINUOUS
370
25
100
AcDbLine
 10
350.885837
 20
394.554678
 11
392.685837
 21
394.554678
  0
LINE
  5
89
100
AcDbEntity
  8
M1
  6
CONTINUOUS
370
25
100
AcDbLine
 10
350.285837
 20
433.554678
 11
372.885837
 21
433.554678
  0
LINE
  5
8A
100
AcDbEntity
  8
M1
  6
CONTINUOUS
370
25
100
AcDbLine
 10
345.990197
 20
415.554678
 11
399.949291
 21
415.554678
  0
LINE
  5
8B
100
AcDbEntity
  8
M1
  6
CONTINUOUS
370
25
100
AcDbLine
 10
372.885837
 20
434.804678
 11
394.285837
 21
434.804678
  0
LINE
  5
8C
100
AcDbEntity
  8
M1
  6
CONTINUOUS
370
25
100
AcDbLine
 10
375.285837
 20
428.554678
 11
375.285837
 21
402.554678
  0
LINE
  5
8D
100
AcDbEntity
  8
M1
  6
CONTINUOUS
370
25
100
AcDbLine
 10
372.885837
 20
435.604678
 11
372.885837
 21
433.554678
  0
ARC
  5
8E
100
AcDbEntity
  8
M1
  6
CONTINUOUS
370
25
100
AcDbCircle
 10
383.585837
 20
395.254678
 40
44.5
100
AcDbArc
 50
76.086932
 51
80.297097
  0
LINE
  5
8F
100
AcDbEntity
  8
M1
  6
CONTINUOUS
370
25
100
AcDbLine
 10
349.285837
 20
432.554678
 11
350.285837
 21
433.554678
  0
LINE
  5
90
100
AcDbEntity
  8
M1
  6
CONTINUOUS
370
25
100
AcDbLine
 10
349.285837
 20
396.154678
 11
350.885837
 21
394.554678
  0
LINE
  5
91
100
AcDbEntity
  8
M1
  6
CONTINUOUS
370
25
100
AcDbLine
 10
392.685837
 20
394.554678
 11
394.285837
 21
396.154678
  0
LINE
  5
92
100
AcDbEntity
  8
M1
  6
CONTINUOUS
370
25
100
AcDbLine
 10
349.285837
 20
424.554678
 11
375.285837
 21
424.554678
  0
LINE
  5
93
100
AcDbEntity
  8
M1
  6
CONTINUOUS
370
25
100
AcDbLine
 10
349.285837
 20
406.554678
 11
375.285837
 21
406.554678
  0
LINE
  5
94
100
AcDbEntity
  8
M1
  6
CONTINUOUS
370
25
100
AcDbLine
 10
375.285837
 20
428.554678
 11
394.285837
 21
428.554678
  0
LINE
  5
95
100
AcDbEntity
  8
M1
  6
CONTINUOUS
370
25
100
AcDbLine
 10
375.285837
 20
402.554678
 11
394.285837
 21
402.554678
  0
LINE
  5
96
100
AcDbEntity
  8
M1
  6
CONTINUOUS
370
25
100
AcDbLine
 10
369.685837
 20
449.854678
 11
418.185837
 21
449.854678
  0
LINE
  5
97
100
AcDbEntity
  8
M1
  6
CONTINUOUS
370
25
100
AcDbLine
 10
395.885837
 20
382.554678
 11
415.535837
 21
382.554678
  0
LINE
  5
98
100
AcDbEntity
  8
M1
  6
CONTINUOUS
370
25
100
AcDbLine
 10
369.685837
 20
449.854678
 11
369.685837
 21
436.404678
  0
LINE
  5
99
100
AcDbEntity
  8
M1
  6
CONTINUOUS
370
25
100
AcDbLine
 10
418.185837
 20
449.854678
 11
418.185837
 21
441.904678
  0
LINE
  5
9A
100
AcDbEntity
  8
M1
  6
CONTINUOUS
370
25
100
AcDbLine
 10
392.485837
 20
442.304678
 11
392.885837
 21
442.304678
  0
LINE
  5
9B
100
AcDbEntity
  8
M1
  6
CONTINUOUS
370
25
100
AcDbLine
 10
391.085837
 20
440.904678
 11
391.085837
 21
436.404678
  0
LINE
  5
9C
100
AcDbEntity
  8
M1
  6
CONTINUOUS
370
25
100
AcDbLine
 10
417.135837
 20
441.304678
 11
417.135837
 21
384.154678
  0
LINE
  5
9D
100
AcDbEntity
  8
M1
  6
CONTINUOUS
370
25
100
AcDbLine
 10
417.735837
 20
441.904678
 11
418.185837
 21
441.904678
  0
LINE
  5
9E
100
AcDbEntity
  8
M1
  6
CONTINUOUS
370
25
100
AcDbLine
 10
369.685837
 20
440.404678
 11
391.085837
 21
440.404678
  0
LINE
  5
9F
100
AcDbEntity
  8
M1
  6
CONTINUOUS
370
25
100
AcDbLine
 10
370.485837
 20
435.604678
 11
390.285837
 21
435.604678
  0
LINE
  5
A0
100
AcDbEntity
  8
M1
  6
CONTINUOUS
370
25
100
AcDbLine
 10
394.285837
 20
384.154678
 11
395.885837
 21
382.554678
  0
LINE
  5
A1
100
AcDbEntity
  8
M1
  6
CONTINUOUS
370
25
100
AcDbLine
 10
415.535837
 20
382.554678
 11
417.135837
 21
384.154678
  0
LINE
  5
A2
100
AcDbEntity
  8
M1
  6
CONTINUOUS
370
25
100
AcDbLine
 10
369.685837
 20
436.404678
 11
370.485837
 21
435.604678
  0
LINE
  5
A3
100
AcDbEntity
  8
M1
  6
CONTINUOUS
370
25
100
AcDbLine
 10
390.285837
 20
435.604678
 11
391.085837
 21
436.404678
  0
ARC
  5
A4
100
AcDbEntity
  8
M1
  6
CONTINUOUS
370
25
100
AcDbCircle
 10
392.485837
 20
440.904678
 40
1.4
100
AcDbArc
 50
90.0
 51
180.0
  0
ARC
  5
A5
100
AcDbEntity
  8
M1
  6
CONTINUOUS
370
25
100
AcDbCircle
 10
392.885837
 20
440.904678
 40
1.4
100
AcDbArc
 50
0.0
 51
90.0
  0
ARC
  5
A6
100
AcDbEntity
  8
M1
  6
CONTINUOUS
370
25
100
AcDbCircle
 10
417.735837
 20
441.304678
 40
0.6
100
AcDbArc
 50
90.0
 51
180.0
  0
ARC
  5
A7
100
AcDbEntity
  8
M1
  6
CONTINUOUS
370
25
100
AcDbCircle
 10
417.735837
 20
175.804678
 40
0.6
100
AcDbArc
 50
180.0
 51
270.0
  0
ARC
  5
A8
100
AcDbEntity
  8
M1
  6
CONTINUOUS
370
25
100
AcDbCircle
 10
392.885837
 20
176.204678
 40
1.4
100
AcDbArc
 50
270.0
 51
360.0
  0
ARC
  5
A9
100
AcDbEntity
  8
M1
  6
CONTINUOUS
370
25
100
AcDbCircle
 10
392.485837
 20
176.204678
 40
1.4
100
AcDbArc
 50
180.0
 51
270.0
  0
LINE
  5
AA
100
AcDbEntity
  8
M1
  6
CONTINUOUS
370
25
100
AcDbLine
 10
390.285837
 20
181.504678
 11
391.085837
 21
180.704678
  0
LINE
  5
AB
100
AcDbEntity
  8
M1
  6
CONTINUOUS
370
25
100
AcDbLine
 10
369.685837
 20
180.704678
 11
370.485837
 21
181.504678
  0
LINE
  5
AC
100
AcDbEntity
  8
M1
  6
CONTINUOUS
370
25
100
AcDbLine
 10
415.535837
 20
234.554678
 11
417.135837
 21
232.954678
  0
LINE
  5
AD
100
AcDbEntity
  8
M1
  6
CONTINUOUS
370
25
100
AcDbLine
 10
394.285837
 20
232.954678
 11
395.885837
 21
234.554678
  0
LINE
  5
AE
100
AcDbEntity
  8
M1
  6
CONTINUOUS
370
25
100
AcDbLine
 10
370.485837
 20
181.504678
 11
390.285837
 21
181.504678
  0
LINE
  5
AF
100
AcDbEntity
  8
M1
  6
CONTINUOUS
370
25
100
AcDbLine
 10
369.685837
 20
176.704678
 11
391.085837
 21
176.704678
  0
LINE
  5
B0
100
AcDbEntity
  8
M1
  6
CONTINUOUS
370
25
100
AcDbLine
 10
417.735837
 20
175.204678
 11
418.185837
 21
175.204678
  0
LINE
  5
B1
100
AcDbEntity
  8
M1
  6
CONTINUOUS
370
25
100
AcDbLine
 10
417.135837
 20
175.804678
 11
417.135837
 21
308.554678
  0
LINE
  5
B2
100
AcDbEntity
  8
M1
  6
CONTINUOUS
370
25
100
AcDbLine
 10
391.085837
 20
176.204678
 11
391.085837
 21
180.704678
  0
LINE
  5
B3
100
AcDbEntity
  8
M1
  6
CONTINUOUS
370
25
100
AcDbLine
 10
392.485837
 20
174.804678
 11
392.885837
 21
174.804678
  0
LINE
  5
B4
100
AcDbEntity
  8
M1
  6
CONTINUOUS
370
25
100
AcDbLine
 10
418.185837
 20
167.254678
 11
418.185837
 21
175.204678
  0
LINE
  5
B5
100
AcDbEntity
  8
M1
  6
CONTINUOUS
370
25
100
AcDbLine
 10
369.685837
 20
167.254678
 11
369.685837
 21
180.704678
  0
LINE
  5
B6
100
AcDbEntity
  8
M1
  6
CONTINUOUS
370
25
100
AcDbLine
 10
395.885837
 20
234.554678
 11
415.535837
 21
234.554678
  0
LINE
  5
B7
100
AcDbEntity
  8
M1
  6
CONTINUOUS
370
25
100
AcDbLine
 10
369.685837
 20
167.254678
 11
418.185837
 21
167.254678
  0
LINE
  5
B8
100
AcDbEntity
  8
M1
  6
CONTINUOUS
370
25
100
AcDbLine
 10
392.685837
 20
222.554678
 11
394.285837
 21
220.954678
  0
LINE
  5
B9
100
AcDbEntity
  8
M1
  6
CONTINUOUS
370
25
100
AcDbLine
 10
349.285837
 20
220.954678
 11
350.885837
 21
222.554678
  0
LINE
  5
BA
100
AcDbEntity
  8
M1
  6
CONTINUOUS
370
25
100
AcDbLine
 10
349.285837
 20
184.554678
 11
350.285837
 21
183.554678
  0
ARC
  5
BB
100
AcDbEntity
  8
M1
  6
CONTINUOUS
370
25
100
AcDbCircle
 10
383.585837
 20
221.854678
 40
44.5
100
AcDbArc
 50
279.702903
 51
283.913068
  0
LINE
  5
BC
100
AcDbEntity
  8
M1
  6
CONTINUOUS
370
25
100
AcDbLine
 10
372.885837
 20
181.504678
 11
372.885837
 21
183.554678
  0
LINE
  5
BD
100
AcDbEntity
  8
M1
  6
CONTINUOUS
370
25
100
AcDbLine
 10
372.885837
 20
182.304678
 11
394.285837
 21
182.304678
  0
LINE
  5
BE
100
AcDbEntity
  8
M1
  6
CONTINUOUS
370
25
100
AcDbLine
 10
345.990197
 20
201.554678
 11
399.949291
 21
201.554678
  0
LINE
  5
BF
100
AcDbEntity
  8
M1
  6
CONTINUOUS
370
25
100
AcDbLine
 10
350.285837
 20
183.554678
 11
372.885837
 21
183.554678
  0
LINE
  5
C0
100
AcDbEntity
  8
M1
  6
CONTINUOUS
370
25
100
AcDbLine
 10
350.885837
 20
222.554678
 11
392.685837
 21
222.554678
  0
LINE
  5
C1
100
AcDbEntity
  8
M1
  6
CONTINUOUS
370
25
100
AcDbLine
 10
394.285837
 20
176.204678
 11
394.285837
 21
308.554678
  0
LINE
  5
C2
100
AcDbEntity
  8
M1
  6
CONTINUOUS
370
25
100
AcDbLine
 10
349.285837
 20
184.554678
 11
349.285837
 21
308.554678
  0
LINE
  5
C3
100
AcDbEntity
  8
M1
  6
CONTINUOUS
370
25
100
AcDbLine
 10
394.285837
 20
193.554678
 11
349.285837
 21
193.554678
  0
LINE
  5
C4
100
AcDbEntity
  8
M1
  6
CONTINUOUS
370
25
100
AcDbLine
 10
394.285837
 20
209.554678
 11
349.285837
 21
209.554678
  0
LINE
  5
C5
100
AcDbEntity
  8
M1
  6
CONTINUOUS
370
25
100
AcDbLine
 10
419.085837
 20
449.854678
 11
419.085837
 21
441.904678
  0
LINE
  5
C6
100
AcDbEntity
  8
M1
  6
CONTINUOUS
370
25
100
AcDbLine
 10
514.885837
 20
445.554678
 11
514.885837
 21
308.554678
  0
LINE
  5
C7
100
AcDbEntity
  8
M1
  6
CONTINUOUS
370
25
100
AcDbLine
 10
420.135837
 20
441.304678
 11
420.135837
 21
308.554678
  0
LINE
  5
C8
100
AcDbEntity
  8
M1
  6
CONTINUOUS
370
25
100
AcDbLine
 10
419.085837
 20
449.854678
 11
489.485837
 21
449.854678
  0
LINE
  5
C9
100
AcDbEntity
  8
M1
  6
CONTINUOUS
370
25
100
AcDbLine
 10
419.085837
 20
441.904678
 11
419.535837
 21
441.904678
  0
LINE
  5
CA
100
AcDbEntity
  8
M1
  6
CONTINUOUS
370
25
100
AcDbLine
 10
489.785837
 20
441.554678
 11
514.885837
 21
441.554678
  0
LINE
  5
CB
100
AcDbEntity
  8
M1
  6
CONTINUOUS
370
25
100
AcDbLine
 10
489.485837
 20
460.054678
 11
489.485837
 21
441.854678
  0
LINE
  5
CC
100
AcDbEntity
  8
M1
  6
CONTINUOUS
370
25
100
AcDbLine
 10
420.135837
 20
372.054678
 11
514.885837
 21
372.054678
  0
LINE
  5
CD
100
AcDbEntity
  8
M1
  6
CONTINUOUS
370
25
100
AcDbLine
 10
420.135837
 20
383.054678
 11
514.885837
 21
383.054678
  0
ARC
  5
CE
100
AcDbEntity
  8
M1
  6
CONTINUOUS
370
25
100
AcDbCircle
 10
489.785837
 20
441.854678
 40
0.3
100
AcDbArc
 50
180.0
 51
270.0
  0
ARC
  5
CF
100
AcDbEntity
  8
M1
  6
CONTINUOUS
370
25
100
AcDbCircle
 10
419.535837
 20
441.304678
 40
0.6
100
AcDbArc
 50
0.0
 51
90.0
  0
LINE
  5
D0
100
AcDbEntity
  8
M1
  6
CONTINUOUS
370
25
100
AcDbLine
 10
489.485837
 20
460.054678
 11
492.485837
 21
460.054678
  0
LINE
  5
D1
100
AcDbEntity
  8
M1
  6
CONTINUOUS
370
25
100
AcDbLine
 10
489.485837
 20
445.554678
 11
514.885837
 21
445.554678
  0
LINE
  5
D2
100
AcDbEntity
  8
M1
  6
CONTINUOUS
370
25
100
AcDbLine
 10
492.485837
 20
460.954678
 11
492.485837
 21
445.554678
  0
LINE
  5
D3
100
AcDbEntity
  8
M1
  6
CONTINUOUS
370
25
100
AcDbLine
 10
501.985837
 20
460.954678
 11
501.985837
 21
445.554678
  0
LINE
  5
D4
100
AcDbEntity
  8
M1
  6
CONTINUOUS
370
25
100
AcDbLine
 10
492.485837
 20
460.954678
 11
501.985837
 21
460.954678
  0
LINE
  5
D5
100
AcDbEntity
  8
M1
  6
CONTINUOUS
370
25
100
AcDbLine
 10
419.085837
 20
167.254678
 11
489.485837
 21
167.254678
  0
LINE
  5
D6
100
AcDbEntity
  8
M1
  6
CONTINUOUS
370
25
100
AcDbLine
 10
489.485837
 20
157.054678
 11
489.485837
 21
308.554678
  0
LINE
  5
D7
100
AcDbEntity
  8
M1
  6
CONTINUOUS
370
25
100
AcDbLine
 10
492.485837
 20
156.154678
 11
501.985837
 21
156.154678
  0
LINE
  5
D8
100
AcDbEntity
  8
M1
  6
CONTINUOUS
370
25
100
AcDbLine
 10
501.985837
 20
156.154678
 11
501.985837
 21
308.554678
  0
LINE
  5
D9
100
AcDbEntity
  8
M1
  6
CONTINUOUS
370
25
100
AcDbLine
 10
492.485837
 20
156.154678
 11
492.485837
 21
308.554678
  0
LINE
  5
DA
100
AcDbEntity
  8
M1
  6
CONTINUOUS
370
25
100
AcDbLine
 10
489.485837
 20
157.054678
 11
492.485837
 21
157.054678
  0
LINE
  5
DB
100
AcDbEntity
  8
M1
  6
CONTINUOUS
370
25
100
AcDbLine
 10
501.985837
 20
171.554678
 11
514.885837
 21
171.554678
  0
LINE
  5
DC
100
AcDbEntity
  8
M1
  6
CONTINUOUS
370
25
100
AcDbLine
 10
514.885837
 20
171.554678
 11
514.885837
 21
308.554678
  0
LINE
  5
DD
100
AcDbEntity
  8
M1
  6
CONTINUOUS
370
25
100
AcDbLine
 10
419.085837
 20
167.254678
 11
419.085837
 21
308.554678
  0
LINE
  5
DE
100
AcDbEntity
  8
M1
  6
CONTINUOUS
370
25
100
AcDbLine
 10
502.885837
 20
308.554678
 11
538.885837
 21
308.554678
  0
LINE
  5
DF
100
AcDbEntity
  8
M1
  6
CONTINUOUS
370
25
100
AcDbLine
 10
70.51203
 20
150.910112
 11
59.259451
 21
131.425651
  0
LINE
  5
E0
100
AcDbEntity
  8
M1
  6
CONTINUOUS
370
25
100
AcDbLine
 10
64.88533
 20
141.166345
 11
71.474183
 21
134.578117
  0
LINE
  5
E1
100
AcDbEntity
  8
M1
  6
CONTINUOUS
370
25
100
AcDbLine
 10
64.88533
 20
141.166345
 11
73.886654
 21
138.756095
  0
LINE
  5
E2
100
AcDbEntity
  8
M1
  6
CONTINUOUS
370
25
100
AcDbLine
 10
64.88533
 20
141.166345
 11
84.372564
 21
129.917965
  0
LINE
  5
E3
100
AcDbEntity
  8
M1
  6
CONTINUOUS
370
25
100
AcDbLine
 10
161.682651
 20
485.019445
 11
161.682651
 21
507.519445
  0
LINE
  5
E4
100
AcDbEntity
  8
M1
  6
CONTINUOUS
370
25
100
AcDbLine
 10
161.682651
 20
496.269445
 11
170.682651
 21
498.681445
  0
LINE
  5
E5
100
AcDbEntity
  8
M1
  6
CONTINUOUS
370
25
100
AcDbLine
 10
161.682651
 20
496.269445
 11
170.682651
 21
493.857445
  0
LINE
  5
E6
100
AcDbEntity
  8
M1
  6
CONTINUOUS
370
25
100
AcDbLine
 10
161.682651
 20
496.269445
 11
184.182651
 21
496.269445
  0
LINE
  5
E7
100
AcDbEntity
  8
M1
  6
CONTINUOUS
370
25
100
AcDbLine
 10
420.885837
 20
449.854678
 11
420.885837
 21
440.304678
  0
ARC
  5
E8
100
AcDbEntity
  8
M1
  6
CONTINUOUS
370
25
100
AcDbCircle
 10
376.435837
 20
440.304678
 40
44.45
100
AcDbArc
 50
349.459895
 51
360.0
  0
LINE
  5
E9
100
AcDbEntity
  8
M1
  6
CONTINUOUS
370
25
100
AcDbLine
 10
416.385837
 20
449.854678
 11
416.385837
 21
440.304678
  0
ARC
  5
EA
100
AcDbEntity
  8
M1
  6
CONTINUOUS
370
25
100
AcDbCircle
 10
460.835837
 20
440.304678
 40
44.45
100
AcDbArc
 50
180.0
 51
190.540105
  0
LINE
  5
EB
100
AcDbEntity
  8
M1
  6
CONTINUOUS
370
25
100
AcDbLine
 10
416.385837
 20
167.254678
 11
416.385837
 21
176.804678
  0
ARC
  5
EC
100
AcDbEntity
  8
M1
  6
CONTINUOUS
370
25
100
AcDbCircle
 10
460.835837
 20
176.804678
 40
44.45
100
AcDbArc
 50
169.459895
 51
180.0
  0
TEXT
  5
ED
100
AcDbEntity
  8
M1
100
AcDbText
 10
663.203511
 20
29.021091
 40
12.6
  1
ＴＲ－１１２０
 41
1.0
  7
STANDARD
100
AcDbText
  0
TEXT
  5
EE
100
AcDbEntity
  8
M1
100
AcDbText
 10
662.748189
 20
9.039691
 40
10.5
  1
（ＳＤＫ３１１０）
 41
1.0
  7
STANDARD
100
AcDbText
  0
ENDSEC
  0
SECTION
  2
OBJECTS
  0
DICTIONARY
  5
C
100
AcDbDictionary
  3
ACAD_GROUP
350
D
  3
ACAD_MLINESTYLE
350
E
  0
DICTIONARY
  5
D
102
{ACAD_REACTORS
330
C
102
}
100
AcDbDictionary
  0
DICTIONARY
  5
E
102
{ACAD_REACTORS
330
C
102
}
100
AcDbDictionary
  3
STANDARD
350
13
  0
MLINESTYLE
  5
13
102
{ACAD_REACTORS
330
E
102
}
100
AcDbMlineStyle
  2
STANDARD
 70
     0
  3

 62
     0
 51
90.0
 52
90.0
 71
     2
 49
0.5
 62
   256
  6
BYLAYER
 49
-0.5
 62
   256
  6
BYLAYER
  0
ENDSEC
  0
EOF
