  0
SECTION
  2
HEADER
  9
$ACADVER
  1
AC1015
  9
$INSBASE
 10
0.0
 20
0.0
  9
$VIEWCTR
 10
7.531722
 20
4.5
  9
$VIEWSIZE
 40
9.0
  9
$SNAPMODE
 70
     0
  9
$SNAPUNIT
 10
1.0
 20
1.0
  9
$SNAPBASE
 10
0.0
 20
0.0
  9
$SNAPANG
 50
0.0
  9
$SNAPSTYLE
 70
     0
  9
$SNAPISOPAIR
 70
     0
  9
$GRIDMODE
 70
     0
  9
$GRIDUNIT
 10
0.0
 20
0.0
  9
$ORTHOMODE
 70
     0
  9
$REGENMODE
 70
     1
  9
$FILLMODE
 70
     1
  9
$QTEXTMODE
 70
     0
  9
$DRAGMODE
 70
     2
  9
$LTSCALE
 40
1.0
  9
$OSMODE
 70
     0
  9
$ATTMODE
 70
     1
  9
$TEXTSIZE
 40
0.2
  9
$TRACEWID
 40
0.05
  9
$TEXTSTYLE
  7
STANDARD
  9
$CELTYPE
  6
BYLAYER
  9
$CECOLOR
 62
   256
  9
$DIMSCALE
 40
1.0
  9
$DIMASZ
 40
0.18
  9
$DIMEXO
 40
0.0625
  9
$DIMDLI
 40
0.38
  9
$DIMRND
 40
0.0
  9
$DIMDLE
 40
0.0
  9
$DIMEXE
 40
0.18
  9
$DIMTP
 40
0.0
  9
$DIMTM
 40
0.0
  9
$DIMTXT
 40
0.18
  9
$DIMCEN
 40
0.09
  9
$DIMTSZ
 40
0.0
  9
$DIMADEC
 70
     0
  9
$DIMALTRND
 40
0.000000
  9
$DIMAZIN
 70
     0
  9
$DIMDSEP
 70
    46
  9
$DIMATFIT
 70
     3
  9
$DIMFRAC
 70
     0
  9
$DIMLDRBLK
  1

  9
$DIMLUNIT
 70
     2
  9
$DIMLWD
 70
   13
  9
$DIMLWE
 70
   13
  9
$DIMTMOVE
 70
     0
  9
$CELWEIGHT
370
    25
  9
$LWDISPLAY
290
    1
  9
$EXTNAMES
290
    1
  9
$DIMTOL
 70
     0
  9
$DIMLIM
 70
     0
  9
$DIMTIH
 70
     1
  9
$DIMTOH
 70
     1
  9
$DIMSE1
 70
     0
  9
$DIMSE2
 70
     0
  9
$DIMTAD
 70
     0
  9
$DIMZIN
 70
     0
  9
$DIMBLK
  1

  9
$LUNITS
 70
     2
  9
$LUPREC
 70
     4
  9
$AXISMODE
 70
     0
  9
$AXISUNIT
 10
0.0
 20
0.0
  9
$SKETCHINC
 40
0.1
  9
$FILLETRAD
 40
0.0
  9
$AUNITS
 70
     0
  9
$AUPREC
 70
     0
  9
$MENU
  1
ACAD
  9
$ELEVATION
 40
0.0
  9
$THICKNESS
 40
0.0
  9
$VIEWDIR
 10
0.0
 20
0.0
 30
1.0
  9
$LIMCHECK
 70
     0
  9
$BLIPMODE
 70
     1
  9
$CHAMFERA
 40
0.0
  9
$CHAMFERB
 40
0.0
  9
$FASTZOOM
 70
     1
  9
$SKPOLY
 70
     0
  9
$TDCREATE
 40
0000000.0000000000
  9
$TDUPDATE
 40
0000000.0000000000
  9
$TDINDWG
 40
0.0000000000
  9
$TDUSRTIMER
 40
0.0000000000
  9
$USRTIMER
 70
     1
  9
$ANGBASE
 50
0.0
  9
$ANGDIR
 70
     0
  9
$PDMODE
 70
     0
  9
$PDSIZE
 40
0.0
  9
$PLINEWID
 40
0.0
  9
$COORDS
 70
     0
  9
$USERI1
 70
     0
  9
$USERI2
 70
     0
  9
$USERI3
 70
     0
  9
$USERI4
 70
     0
  9
$USERI5
 70
     0
  9
$USERR1
 40
0.0
  9
$USERR2
 40
0.0
  9
$USERR3
 40
0.0
  9
$USERR4
 40
0.0
  9
$USERR5
 40
0.0
  9
$CLAYER
  8
M1
  9
$EXTMIN
 10
0.0
 20
0.0
  9
$EXTMAX
 10
1189.0
 20
841.0
  9
$LIMMIN
 10
0.0
 20
0.0
  9
$LIMMAX
 10
1189.0
 20
841.0
  9
$HANDSEED
  5
157
  0
ENDSEC
  0
SECTION
  2
CLASSES
  0
ENDSEC
  0
SECTION
  2
TABLES
  0
TABLE
  2
VPORT
  5
8
100
AcDbSymbolTable
 70
     2
  0
VPORT
  5
14
100
AcDbSymbolTableRecord
100
AcDbViewportTableRecord
  2
*ACTIVE
 70
     0
 10
0.0
 20
0.0
 11
1.0
 21
1.0
 12
484.0
 22
297.0
 13
0.0
 23
0.0
 14
1.0
 24
1.0
 15
0.0
 25
0.0
 16
0.0
 26
0.0
 36
1.0
 17
0.0
 27
0.0
 37
0.0
 40
594.0
 41
2.0
 42
50.0
 43
0.0
 44
0.0
 50
0.0
 51
0.0
 71
     0
 72
   100
 73
     1
 74
     1
 75
     0
 76
     0
 77
     0
 78
     0
  0
ENDTAB
  0
TABLE
  2
LTYPE
  5
5
100
AcDbSymbolTable
 70
     5
  0
LTYPE
  5
15
100
AcDbSymbolTableRecord
100
AcDbLinetypeTableRecord
  2
BYBLOCK
 70
     0
  3

 72
    65
 73
     0
 40
0.0
  0
LTYPE
  5
16
100
AcDbSymbolTableRecord
100
AcDbLinetypeTableRecord
  2
BYLAYER
 70
     0
  3

 72
    65
 73
     0
 40
0.0
  0
LTYPE
  5
17
100
AcDbSymbolTableRecord
100
AcDbLinetypeTableRecord
  2
CONTINUOUS
 70
    64
  3
Solid line
 72
    65
 73
     0
 40
0.0
  0
LTYPE
  5
18
100
AcDbSymbolTableRecord
100
AcDbLinetypeTableRecord
  2
DASHED
 70
    64
  3
__ __ __ __ __ __ __ __ __ __ __ __ __ __ __ __
 72
    65
 73
     2
 40
0.75
 49
0.5
 74
     0
 49
-0.25
 74
     0
  0
LTYPE
  5
19
100
AcDbSymbolTableRecord
100
AcDbLinetypeTableRecord
  2
DASHDOT
 70
    64
  3
__ . __ . __ . __ . __ . __ . __ . __ . __ . __
 72
    65
 73
     4
 40
1.0
 49
0.5
 74
     0
 49
-0.25
 74
     0
 49
0.0
 74
     0
 49
-0.25
 74
     0
  0
LTYPE
  5
1A
100
AcDbSymbolTableRecord
100
AcDbLinetypeTableRecord
  2
DIVIDE
 70
    64
  3
____ . . ____ . . ____ . . ____ . . ____ . . __
 72
    65
 73
     6
 40
1.25
 49
0.5
 74
     0
 49
-0.25
 74
     0
 49
0.0
 74
     0
 49
-0.25
 74
     0
 49
0.0
 74
     0
 49
-0.25
 74
     0
  0
LTYPE
  5
1B
100
AcDbSymbolTableRecord
100
AcDbLinetypeTableRecord
  2
DOT
 70
    64
  3
. . . . . . . . . . . . . . . . . . . . . . . .
 72
    65
 73
     2
 40
0.25
 49
0.0
 74
     0
 49
-0.25
 74
     0
  0
ENDTAB
  0
TABLE
  2
LAYER
  5
2
100
AcDbSymbolTable
 70
   102
  0
LAYER
  5
F
100
AcDbSymbolTableRecord
100
AcDbLayerTableRecord
  2
0
 70
     0
 62
     7
  6
CONTINUOUS
370
     -3
390
F
  0
LAYER
  5
1C
100
AcDbSymbolTableRecord
100
AcDbLayerTableRecord
  2
M1
 70
     0
 62
     7
  6
CONTINUOUS
370
     -3
390
F
  0
ENDTAB
  0
TABLE
  2
STYLE
  5
3
100
AcDbSymbolTable
 70
     2
  0
STYLE
  5
10
100
AcDbSymbolTableRecord
100
AcDbTextStyleTableRecord
  2
STANDARD
 70
     0
 40
0.0
 41
1.0
 50
0.0
 71
     0
 42
0.2
  3
txt
  4
BIGFONT
  0
ENDTAB
  0
TABLE
  2
VIEW
  5
6
100
AcDbSymbolTable
 70
     0
  0
ENDTAB
  0
TABLE
  2
UCS
  5
7
100
AcDbSymbolTable
 70
     0
  0
ENDTAB
  0
TABLE
  2
APPID
  5
9
100
AcDbSymbolTable
 70
     1
  0
APPID
  5
11
100
AcDbSymbolTableRecord
100
AcDbRegAppTableRecord
  2
ACAD
 70
     0
  0
ENDTAB
  0
TABLE
  2
DIMSTYLE
  5
A
100
AcDbSymbolTable
 70
     2
100
AcDbDimStyleTable
 71
     1
  0
DIMSTYLE
105
23
100
AcDbSymbolTableRecord
100
AcDbDimStyleTableRecord
  2
STANDARD
 70
     0
  3

  4

  5

  6
_OPEN
  7
_OPEN
 40
1.0
 41
3.0
 42
0.5
 43
8.0
 44
1.5
 45
0.0
 46
0.0
 47
0.0
 48
0.0
140
3.15
141
0.09
142
0.0
143
0.03937
144
1.0
145
0.0
146
1.0
147
1.0
148
0.000000
 71
     0
 72
     0
 73
     0
 74
     0
 75
     0
 76
     0
 77
     3
 78
     8
170
     0
171
     2
172
     0
173
     1
174
     0
175
     0
176
     0
177
     0
178
     0
270
     2
271
     2
272
     4
273
     2
274
     2
340
10
275
     0
278
    46
280
     0
281
     0
282
     0
283
     1
284
     0
285
     0
286
     0
287
     3
288
     0
371
   13
372
   13
  0
DIMSTYLE
105
24
100
AcDbSymbolTableRecord
100
AcDbDimStyleTableRecord
  2
LEADSTYL
 70
     0
  3

  4

  5

  6
_OPEN
  7
_OPEN
 40
1.0
 41
3.0
 42
0.0625
 43
0.38
 44
0.18
 45
0.0
 46
0.0
 47
0.0
 48
0.0
140
3.15
141
0.09
142
0.0
143
25.4
144
1.0
145
0.0
146
1.0
147
1.0
 71
     0
 72
     0
 73
     1
 74
     1
 75
     0
 76
     0
 77
     0
 78
     0
170
     0
171
     2
172
     0
173
     1
174
     0
175
     0
176
     0
177
     0
178
     0
270
     2
271
     4
272
     4
273
     2
274
     2
340
10
275
     0
280
     0
281
     0
282
     0
283
     1
284
     0
285
     0
286
     0
287
     3
288
     0
  0
ENDTAB
  0
TABLE
  2
BLOCK_RECORD
  5
1
100
AcDbSymbolTable
 70
     6
  0
BLOCK_RECORD
  5
1D
100
AcDbSymbolTableRecord
100
AcDbBlockTableRecord
  2
*MODEL_SPACE
  0
BLOCK_RECORD
  5
20
100
AcDbSymbolTableRecord
100
AcDbBlockTableRecord
  2
*PAPER_SPACE
  0
BLOCK_RECORD
  5
25
100
AcDbSymbolTableRecord
100
AcDbBlockTableRecord
  2
_NONE
  0
BLOCK_RECORD
  5
29
100
AcDbSymbolTableRecord
100
AcDbBlockTableRecord
  2
_OPEN
  0
BLOCK_RECORD
  5
2F
100
AcDbSymbolTableRecord
100
AcDbBlockTableRecord
  2
_CLOSED
  0
BLOCK_RECORD
  5
36
100
AcDbSymbolTableRecord
100
AcDbBlockTableRecord
  2
_ORIGIN
  0
BLOCK_RECORD
  5
3B
100
AcDbSymbolTableRecord
100
AcDbBlockTableRecord
  2
_DOT
  0
BLOCK_RECORD
  5
43
100
AcDbSymbolTableRecord
100
AcDbBlockTableRecord
  2
_OBLIQUE
  0
ENDTAB
  0
ENDSEC
  0
SECTION
  2
BLOCKS
  0
BLOCK
  5
1E
100
AcDbEntity
  8
0
100
AcDbBlockBegin
  2
*MODEL_SPACE
 70
     0
 10
0.0
 20
0.0
 30
0.0
  3
*MODEL_SPACE
  1

  0
ENDBLK
  5
1F
100
AcDbEntity
  8
0
100
AcDbBlockEnd
  0
BLOCK
  5
21
100
AcDbEntity
 67
     1
  8
0
100
AcDbBlockBegin
  2
*PAPER_SPACE
 70
     0
 10
0.0
 20
0.0
 30
0.0
  3
*PAPER_SPACE
  1

  0
ENDBLK
  5
22
100
AcDbEntity
 67
     1
  8
0
100
AcDbBlockEnd
  0
BLOCK
  5
26
100
AcDbEntity
  8
0
100
AcDbBlockBegin
  2
_NONE
 70
     0
 10
0.0
 20
0.0
  0
CIRCLE
  5
27
100
AcDbEntity
  8
0
 62
     0
370
13
100
AcDbCircle
 10
0.0
 20
0.0
 40
0.25
  0
ENDBLK
  5
28
100
AcDbEntity
  8
0
100
AcDbBlockEnd
  0
BLOCK
  5
2A
100
AcDbEntity
  8
0
100
AcDbBlockBegin
  2
_OPEN
 70
     0
 10
0.0
 20
0.0
  0
LINE
  5
2B
100
AcDbEntity
  8
0
 62
     0
370
13
100
AcDbLine
 10
-0.965926
 20
0.258819
 11
0.0
 21
0.0
  0
LINE
  5
2C
100
AcDbEntity
  8
0
 62
     0
370
13
100
AcDbLine
 10
0.0
 20
0.0
 11
-0.965926
 21
-0.258819
  0
LINE
  5
2D
100
AcDbEntity
  8
0
 62
     0
370
13
100
AcDbLine
 10
0.0
 20
0.0
 11
-1.0
 21
0.0
  0
ENDBLK
  5
2E
100
AcDbEntity
  8
0
100
AcDbBlockEnd
  0
BLOCK
  5
30
100
AcDbEntity
  8
0
100
AcDbBlockBegin
  2
_CLOSED
 70
     0
 10
0.0
 20
0.0
  0
LINE
  5
31
100
AcDbEntity
  8
0
 62
     0
370
13
100
AcDbLine
 10
-0.965926
 20
0.258819
 11
0.0
 21
0.0
  0
LINE
  5
32
100
AcDbEntity
  8
0
 62
     0
370
13
100
AcDbLine
 10
0.0
 20
0.0
 11
-0.965926
 21
-0.258819
  0
LINE
  5
33
100
AcDbEntity
  8
0
 62
     0
370
13
100
AcDbLine
 10
-0.965926
 20
0.258819
 11
-0.965926
 21
-0.258819
  0
LINE
  5
34
100
AcDbEntity
  8
0
 62
     0
370
13
100
AcDbLine
 10
0.0
 20
0.0
 11
-1.0
 21
0.0
  0
ENDBLK
  5
35
100
AcDbEntity
  8
0
100
AcDbBlockEnd
  0
BLOCK
  5
37
100
AcDbEntity
  8
0
100
AcDbBlockBegin
  2
_ORIGIN
 70
     0
 10
0.0
 20
0.0
  0
CIRCLE
  5
38
100
AcDbEntity
  8
0
 62
     0
370
13
100
AcDbCircle
 10
0.0
 20
0.0
 40
0.5
  0
LINE
  5
39
100
AcDbEntity
  8
0
 62
     0
370
13
100
AcDbLine
 10
0.0
 20
0.0
 11
-1.0
 21
0.0
  0
ENDBLK
  5
3A
100
AcDbEntity
  8
0
100
AcDbBlockEnd
  0
BLOCK
  5
3C
100
AcDbEntity
  8
0
100
AcDbBlockBegin
  2
_DOT
 70
     0
 10
0.0
 20
0.0
  0
POLYLINE
  5
3D
100
AcDbEntity
  8
0
 62
     0
100
AcDb2dPolyline
 66
     1
 70
     1
 40
0.5
 41
0.5
  0
VERTEX
  5
3E
100
AcDbEntity
  8
0
 62
     0
100
AcDbVertex
100
AcDb2dVertex
 10
-0.25
 20
0.0
 42
1.0
  0
VERTEX
  5
3F
100
AcDbEntity
  8
0
 62
     0
100
AcDbVertex
100
AcDb2dVertex
 10
0.25
 20
0.0
 42
1.0
  0
SEQEND
  5
40
100
AcDbEntity
  8
0
 62
     0
  0
LINE
  5
41
100
AcDbEntity
  8
0
 62
     0
370
13
100
AcDbLine
 10
-0.5
 20
0.0
 11
-1.0
 21
0.0
  0
ENDBLK
  5
42
100
AcDbEntity
  8
0
100
AcDbBlockEnd
  0
BLOCK
  5
44
100
AcDbEntity
  8
0
100
AcDbBlockBegin
  2
_OBLIQUE
 70
     0
 10
0.0
 20
0.0
  0
LINE
  5
45
100
AcDbEntity
  8
0
 62
     0
370
13
100
AcDbLine
 10
-0.353553
 20
-0.353553
 11
0.353553
 21
0.353553
  0
ENDBLK
  5
46
100
AcDbEntity
  8
0
100
AcDbBlockEnd
  0
ENDSEC
  0
SECTION
  2
ENTITIES
  0
CIRCLE
  5
47
100
AcDbEntity
  8
M1
  6
CONTINUOUS
370
25
100
AcDbCircle
 10
222.629637
 20
445.906082
 40
209.999
  0
CIRCLE
  5
48
100
AcDbEntity
  8
M1
  6
CONTINUOUS
370
25
100
AcDbCircle
 10
222.629637
 20
445.906082
 40
182.499
  0
CIRCLE
  5
49
100
AcDbEntity
  8
M1
  6
CONTINUOUS
370
25
100
AcDbCircle
 10
222.629637
 20
445.906082
 40
127.499
  0
CIRCLE
  5
4A
100
AcDbEntity
  8
M1
  6
CONTINUOUS
370
25
100
AcDbCircle
 10
222.629637
 20
445.906082
 40
104.999
  0
CIRCLE
  5
4B
100
AcDbEntity
  8
M1
  6
CONTINUOUS
370
25
100
AcDbCircle
 10
222.629637
 20
445.906082
 40
187.499
  0
LINE
  5
4C
100
AcDbEntity
  8
M1
  6
DASHDOT
370
25
100
AcDbLine
 10
364.128637
 20
445.906082
 11
396.128637
 21
445.906082
  0
CIRCLE
  5
4D
100
AcDbEntity
  8
M1
  6
DASHED
370
25
100
AcDbCircle
 10
359.027637
 20
524.655082
 40
21.0
  0
CIRCLE
  5
4E
100
AcDbEntity
  8
M1
  6
CONTINUOUS
370
25
100
AcDbCircle
 10
359.027637
 20
524.655082
 40
13.0
  0
ARC
  5
4F
100
AcDbEntity
  8
M1
  6
CONTINUOUS
370
25
100
AcDbCircle
 10
222.629637
 20
445.906082
 40
157.499476
100
AcDbArc
 50
19.354031
 51
41.052699
  0
LINE
  5
50
100
AcDbEntity
  8
M1
  6
CONTINUOUS
370
25
100
AcDbLine
 10
380.680637
 20
537.153082
 11
335.970637
 21
511.340082
  0
CIRCLE
  5
51
100
AcDbEntity
  8
M1
  6
CONTINUOUS
370
25
100
AcDbCircle
 10
143.878665
 20
582.304066
 40
10.0
  0
LINE
  5
52
100
AcDbEntity
  8
M1
  6
CONTINUOUS
370
25
100
AcDbLine
 10
151.879637
 20
568.447082
 11
135.878637
 21
596.160082
  0
ARC
  5
53
100
AcDbEntity
  8
M1
  6
CONTINUOUS
370
25
100
AcDbCircle
 10
222.629637
 20
445.906082
 40
157.499324
100
AcDbArc
 50
114.006074
 51
125.96666
  0
CIRCLE
  5
54
100
AcDbEntity
  8
M1
  6
DASHED
370
25
100
AcDbCircle
 10
301.379637
 20
582.305082
 40
20.999
  0
CIRCLE
  5
55
100
AcDbEntity
  8
M1
  6
CONTINUOUS
370
25
100
AcDbCircle
 10
301.379637
 20
582.305082
 40
13.0
  0
ARC
  5
56
100
AcDbEntity
  8
M1
  6
CONTINUOUS
370
25
100
AcDbCircle
 10
222.628637
 20
445.906082
 40
157.500128
100
AcDbArc
 50
49.354
 51
71.052663
  0
LINE
  5
57
100
AcDbEntity
  8
M1
  6
CONTINUOUS
370
25
100
AcDbLine
 10
313.881637
 20
603.954082
 11
288.067637
 21
559.245082
  0
CIRCLE
  5
58
100
AcDbEntity
  8
M1
  6
DASHED
370
25
100
AcDbCircle
 10
222.628637
 20
603.406082
 40
21.0
  0
CIRCLE
  5
59
100
AcDbEntity
  8
M1
  6
CONTINUOUS
370
25
100
AcDbCircle
 10
222.628637
 20
603.406082
 40
13.0
  0
ARC
  5
5A
100
AcDbEntity
  8
M1
  6
CONTINUOUS
370
25
100
AcDbCircle
 10
222.628637
 20
445.906082
 40
157.500062
100
AcDbArc
 50
79.353864
 51
101.052523
  0
LINE
  5
5B
100
AcDbEntity
  8
M1
  6
CONTINUOUS
370
25
100
AcDbLine
 10
222.631637
 20
628.406082
 11
222.631637
 21
576.780082
  0
CIRCLE
  5
5C
100
AcDbEntity
  8
M1
  6
CONTINUOUS
370
25
100
AcDbCircle
 10
143.879605
 20
309.507027
 40
10.0
  0
LINE
  5
5D
100
AcDbEntity
  8
M1
  6
CONTINUOUS
370
25
100
AcDbLine
 10
151.879637
 20
323.364082
 11
135.879637
 21
295.650082
  0
ARC
  5
5E
100
AcDbEntity
  8
M1
  6
CONTINUOUS
370
25
100
AcDbCircle
 10
222.628637
 20
445.906082
 40
157.500202
100
AcDbArc
 50
234.005979
 51
245.966556
  0
CIRCLE
  5
5F
100
AcDbEntity
  8
M1
  6
CONTINUOUS
370
25
100
AcDbCircle
 10
380.128646
 20
445.906082
 40
10.0
  0
LINE
  5
60
100
AcDbEntity
  8
M1
  6
CONTINUOUS
370
25
100
AcDbLine
 10
364.127637
 20
445.906082
 11
396.128637
 21
445.906082
  0
ARC
  5
61
100
AcDbEntity
  8
M1
  6
CONTINUOUS
370
25
100
AcDbCircle
 10
222.628637
 20
445.905082
 40
157.500096
100
AcDbArc
 50
354.005941
 51
365.96662
  0
CIRCLE
  5
62
100
AcDbEntity
  8
M1
  6
DASHED
370
25
100
AcDbCircle
 10
86.229637
 20
367.156082
 40
21.0
  0
CIRCLE
  5
63
100
AcDbEntity
  8
M1
  6
CONTINUOUS
370
25
100
AcDbCircle
 10
86.229637
 20
367.156082
 40
13.0
  0
ARC
  5
64
100
AcDbEntity
  8
M1
  6
CONTINUOUS
370
25
100
AcDbCircle
 10
222.628637
 20
445.905082
 40
157.499476
100
AcDbArc
 50
199.354031
 51
221.05246
  0
LINE
  5
65
100
AcDbEntity
  8
M1
  6
CONTINUOUS
370
25
100
AcDbLine
 10
64.577637
 20
354.658082
 11
109.287637
 21
380.471082
  0
CIRCLE
  5
66
100
AcDbEntity
  8
M1
  6
DASHED
370
25
100
AcDbCircle
 10
359.027637
 20
367.155082
 40
21.0
  0
CIRCLE
  5
67
100
AcDbEntity
  8
M1
  6
CONTINUOUS
370
25
100
AcDbCircle
 10
359.027637
 20
367.155082
 40
13.0
  0
ARC
  5
68
100
AcDbEntity
  8
M1
  6
CONTINUOUS
370
25
100
AcDbCircle
 10
222.628637
 20
445.905082
 40
157.499478
100
AcDbArc
 50
319.354276
 51
341.053126
  0
LINE
  5
69
100
AcDbEntity
  8
M1
  6
CONTINUOUS
370
25
100
AcDbLine
 10
380.676637
 20
354.653082
 11
335.967637
 21
380.466082
  0
CIRCLE
  5
6A
100
AcDbEntity
  8
M1
  6
DASHED
370
25
100
AcDbCircle
 10
65.128637
 20
445.906082
 40
21.0
  0
CIRCLE
  5
6B
100
AcDbEntity
  8
M1
  6
CONTINUOUS
370
25
100
AcDbCircle
 10
65.128637
 20
445.906082
 40
13.0
  0
ARC
  5
6C
100
AcDbEntity
  8
M1
  6
CONTINUOUS
370
25
100
AcDbCircle
 10
222.628637
 20
445.906082
 40
157.499878
100
AcDbArc
 50
169.354221
 51
191.05281
  0
LINE
  5
6D
100
AcDbEntity
  8
M1
  6
CONTINUOUS
370
25
100
AcDbLine
 10
40.128637
 20
445.909082
 11
91.754637
 21
445.908082
  0
CIRCLE
  5
6E
100
AcDbEntity
  8
M1
  6
DASHED
370
25
100
AcDbCircle
 10
301.378637
 20
309.506082
 40
21.0
  0
CIRCLE
  5
6F
100
AcDbEntity
  8
M1
  6
CONTINUOUS
370
25
100
AcDbCircle
 10
301.378637
 20
309.506082
 40
13.0
  0
ARC
  5
70
100
AcDbEntity
  8
M1
  6
CONTINUOUS
370
25
100
AcDbCircle
 10
222.628637
 20
445.905082
 40
157.499476
100
AcDbArc
 50
289.354031
 51
311.052973
  0
LINE
  5
71
100
AcDbEntity
  8
M1
  6
CONTINUOUS
370
25
100
AcDbLine
 10
313.875637
 20
287.854082
 11
288.063637
 21
332.564082
  0
CIRCLE
  5
72
100
AcDbEntity
  8
M1
  6
DASHED
370
25
100
AcDbCircle
 10
86.229637
 20
524.656082
 40
21.0
  0
CIRCLE
  5
73
100
AcDbEntity
  8
M1
  6
CONTINUOUS
370
25
100
AcDbCircle
 10
86.229637
 20
524.656082
 40
13.0
  0
ARC
  5
74
100
AcDbEntity
  8
M1
  6
CONTINUOUS
370
25
100
AcDbCircle
 10
222.628637
 20
445.906082
 40
157.500128
100
AcDbArc
 50
139.354
 51
161.052663
  0
LINE
  5
75
100
AcDbEntity
  8
M1
  6
CONTINUOUS
370
25
100
AcDbLine
 10
64.580637
 20
537.159082
 11
109.289637
 21
511.345082
  0
CIRCLE
  5
76
100
AcDbEntity
  8
M1
  6
DASHED
370
25
100
AcDbCircle
 10
222.628637
 20
288.405082
 40
21.0
  0
CIRCLE
  5
77
100
AcDbEntity
  8
M1
  6
CONTINUOUS
370
25
100
AcDbCircle
 10
222.628637
 20
288.405082
 40
13.0
  0
ARC
  5
78
100
AcDbEntity
  8
M1
  6
CONTINUOUS
370
25
100
AcDbCircle
 10
222.628637
 20
445.905082
 40
157.500062
100
AcDbArc
 50
259.353864
 51
281.05288
  0
LINE
  5
79
100
AcDbEntity
  8
M1
  6
CONTINUOUS
370
25
100
AcDbLine
 10
222.625637
 20
263.405082
 11
222.626637
 21
315.032082
  0
LINE
  5
7A
100
AcDbEntity
  8
M1
  6
CONTINUOUS
370
25
100
AcDbLine
 10
562.517876
 20
445.906082
 11
562.517876
 21
235.907082
  0
LINE
  5
7B
100
AcDbEntity
  8
M1
  6
CONTINUOUS
370
25
100
AcDbLine
 10
474.416876
 20
298.407082
 11
529.417876
 21
298.407082
  0
LINE
  5
7C
100
AcDbEntity
  8
M1
  6
CONTINUOUS
370
25
100
AcDbLine
 10
474.416876
 20
278.407082
 11
529.417876
 21
278.407082
  0
LINE
  5
7D
100
AcDbEntity
  8
M1
  6
CONTINUOUS
370
25
100
AcDbLine
 10
454.416876
 20
445.907082
 11
484.416876
 21
445.907082
  0
LINE
  5
7E
100
AcDbEntity
  8
M1
  6
CONTINUOUS
370
25
100
AcDbLine
 10
743.717876
 20
445.907082
 11
743.717876
 21
560.907082
  0
LINE
  5
7F
100
AcDbEntity
  8
M1
  6
CONTINUOUS
370
25
100
AcDbLine
 10
693.717876
 20
655.906082
 11
562.517876
 21
655.906082
  0
LINE
  5
80
100
AcDbEntity
  8
M1
  6
CONTINUOUS
370
25
100
AcDbLine
 10
562.517876
 20
655.907082
 11
562.517876
 21
645.907082
  0
LINE
  5
81
100
AcDbEntity
  8
M1
  6
CONTINUOUS
370
25
100
AcDbLine
 10
693.717876
 20
560.907082
 11
743.717876
 21
560.907082
  0
LINE
  5
82
100
AcDbEntity
  8
M1
  6
CONTINUOUS
370
25
100
AcDbLine
 10
562.517876
 20
645.907082
 11
563.717876
 21
645.907082
  0
LINE
  5
83
100
AcDbEntity
  8
M1
  6
CONTINUOUS
370
25
100
AcDbLine
 10
563.717876
 20
645.907082
 11
563.717876
 21
445.907082
  0
LINE
  5
84
100
AcDbEntity
  8
M1
  6
CONTINUOUS
370
25
100
AcDbLine
 10
564.717876
 20
530.906082
 11
742.717884
 21
530.907091
  0
LINE
  5
85
100
AcDbEntity
  8
M1
  6
CONTINUOUS
370
25
100
AcDbLine
 10
563.717876
 20
531.906082
 11
564.717876
 21
530.907082
  0
LINE
  5
86
100
AcDbEntity
  8
M1
  6
CONTINUOUS
370
25
100
AcDbLine
 10
742.717876
 20
530.907082
 11
743.717876
 21
531.906082
  0
ARC
  5
87
100
AcDbEntity
  8
M1
  6
CONTINUOUS
370
25
100
AcDbCircle
 10
521.967876
 20
655.907082
 40
44.450062
100
AcDbArc
 50
339.927031
 51
359.998711
  0
LINE
  5
88
100
AcDbEntity
  8
M1
  6
CONTINUOUS
370
25
100
AcDbLine
 10
563.717876
 20
543.906082
 11
743.717876
 21
543.907091
  0
LINE
  5
89
100
AcDbEntity
  8
M1
  6
CONTINUOUS
370
25
100
AcDbLine
 10
693.717876
 20
235.907094
 11
562.517876
 21
235.906082
  0
LINE
  5
8A
100
AcDbEntity
  8
M1
  6
CONTINUOUS
370
25
100
AcDbLine
 10
693.717876
 20
235.907082
 11
693.717876
 21
445.907082
  0
LINE
  5
8B
100
AcDbEntity
  8
M1
  6
CONTINUOUS
370
25
100
AcDbLine
 10
693.717876
 20
307.406082
 11
693.717876
 21
316.156082
  0
LINE
  5
8C
100
AcDbEntity
  8
M1
  6
CONTINUOUS
370
25
100
AcDbLine
 10
693.717876
 20
317.656082
 11
693.717876
 21
326.406082
  0
LINE
  5
8D
100
AcDbEntity
  8
M1
  6
CONTINUOUS
370
25
100
AcDbLine
 10
560.617876
 20
645.907082
 11
560.617876
 21
655.907082
  0
LINE
  5
8E
100
AcDbEntity
  8
M1
  6
CONTINUOUS
370
25
100
AcDbLine
 10
560.617876
 20
655.907082
 11
500.417876
 21
655.906082
  0
LINE
  5
8F
100
AcDbEntity
  8
M1
  6
CONTINUOUS
370
25
100
AcDbLine
 10
499.417876
 20
654.906082
 11
499.417876
 21
634.406082
  0
LINE
  5
90
100
AcDbEntity
  8
M1
  6
CONTINUOUS
370
25
100
AcDbLine
 10
559.417876
 20
645.907082
 11
560.617876
 21
645.907082
  0
LINE
  5
91
100
AcDbEntity
  8
M1
  6
CONTINUOUS
370
25
100
AcDbLine
 10
526.917876
 20
641.907082
 11
527.417876
 21
641.907082
  0
LINE
  5
92
100
AcDbEntity
  8
M1
  6
CONTINUOUS
370
25
100
AcDbLine
 10
531.417876
 20
550.907082
 11
557.417876
 21
550.907082
  0
LINE
  5
93
100
AcDbEntity
  8
M1
  6
CONTINUOUS
370
25
100
AcDbLine
 10
500.417876
 20
633.407082
 11
523.917876
 21
633.407082
  0
LINE
  5
94
100
AcDbEntity
  8
M1
  6
CONTINUOUS
370
25
100
AcDbLine
 10
499.417876
 20
639.157082
 11
524.917876
 21
639.157082
  0
LINE
  5
95
100
AcDbEntity
  8
M1
  6
CONTINUOUS
370
25
100
AcDbLine
 10
559.417876
 20
645.907082
 11
559.417876
 21
552.906082
  0
LINE
  5
96
100
AcDbEntity
  8
M1
  6
CONTINUOUS
370
25
100
AcDbLine
 10
529.417876
 20
639.907082
 11
529.417876
 21
445.907082
  0
LINE
  5
97
100
AcDbEntity
  8
M1
  6
CONTINUOUS
370
25
100
AcDbLine
 10
524.917876
 20
639.907082
 11
524.917876
 21
634.406082
  0
LINE
  5
98
100
AcDbEntity
  8
M1
  6
CONTINUOUS
370
25
100
AcDbLine
 10
529.417876
 20
552.906082
 11
531.417876
 21
550.907082
  0
LINE
  5
99
100
AcDbEntity
  8
M1
  6
CONTINUOUS
370
25
100
AcDbLine
 10
557.417876
 20
550.907082
 11
559.417876
 21
552.906082
  0
LINE
  5
9A
100
AcDbEntity
  8
M1
  6
CONTINUOUS
370
25
100
AcDbLine
 10
499.417876
 20
634.406082
 11
500.417876
 21
633.407082
  0
LINE
  5
9B
100
AcDbEntity
  8
M1
  6
CONTINUOUS
370
25
100
AcDbLine
 10
524.917876
 20
634.406082
 11
523.917876
 21
633.407082
  0
LINE
  5
9C
100
AcDbEntity
  8
M1
  6
CONTINUOUS
370
25
100
AcDbLine
 10
500.417876
 20
655.906082
 11
499.417876
 21
654.906082
  0
ARC
  5
9D
100
AcDbEntity
  8
M1
  6
CONTINUOUS
370
25
100
AcDbCircle
 10
527.417876
 20
639.907082
 40
2.0
100
AcDbArc
 50
0.0
 51
90.0
  0
ARC
  5
9E
100
AcDbEntity
  8
M1
  6
CONTINUOUS
370
25
100
AcDbCircle
 10
526.917876
 20
639.907082
 40
2.0
100
AcDbArc
 50
90.0
 51
180.0
  0
ARC
  5
9F
100
AcDbEntity
  8
M1
  6
CONTINUOUS
370
25
100
AcDbCircle
 10
601.167876
 20
655.906082
 40
44.45
100
AcDbArc
 50
180.0
 51
200.071759
  0
LINE
  5
A0
100
AcDbEntity
  8
M1
  6
CONTINUOUS
370
25
100
AcDbLine
 10
499.416876
 20
236.907082
 11
499.416876
 21
257.407082
  0
LINE
  5
A1
100
AcDbEntity
  8
M1
  6
CONTINUOUS
370
25
100
AcDbLine
 10
500.416876
 20
235.907082
 11
499.416876
 21
236.907082
  0
LINE
  5
A2
100
AcDbEntity
  8
M1
  6
CONTINUOUS
370
25
100
AcDbLine
 10
499.417876
 20
252.657082
 11
524.917876
 21
252.657082
  0
LINE
  5
A3
100
AcDbEntity
  8
M1
  6
CONTINUOUS
370
25
100
AcDbLine
 10
500.417876
 20
258.407082
 11
523.917876
 21
258.407082
  0
LINE
  5
A4
100
AcDbEntity
  8
M1
  6
CONTINUOUS
370
25
100
AcDbLine
 10
499.417876
 20
257.407082
 11
500.417876
 21
258.407082
  0
LINE
  5
A5
100
AcDbEntity
  8
M1
  6
CONTINUOUS
370
25
100
AcDbLine
 10
524.917876
 20
257.407082
 11
523.917876
 21
258.407082
  0
LINE
  5
A6
100
AcDbEntity
  8
M1
  6
CONTINUOUS
370
25
100
AcDbLine
 10
524.917876
 20
251.907082
 11
524.917876
 21
257.407082
  0
ARC
  5
A7
100
AcDbEntity
  8
M1
  6
CONTINUOUS
370
25
100
AcDbCircle
 10
526.917876
 20
251.907082
 40
2.0
100
AcDbArc
 50
180.0
 51
270.0
  0
ARC
  5
A8
100
AcDbEntity
  8
M1
  6
CONTINUOUS
370
25
100
AcDbCircle
 10
527.417876
 20
251.907082
 40
2.0
100
AcDbArc
 50
270.0
 51
360.0
  0
LINE
  5
A9
100
AcDbEntity
  8
M1
  6
CONTINUOUS
370
25
100
AcDbLine
 10
560.617876
 20
235.907082
 11
500.416876
 21
235.907082
  0
LINE
  5
AA
100
AcDbEntity
  8
M1
  6
CONTINUOUS
370
25
100
AcDbLine
 10
560.617876
 20
245.907082
 11
560.617876
 21
235.907082
  0
ARC
  5
AB
100
AcDbEntity
  8
M1
  6
CONTINUOUS
370
25
100
AcDbCircle
 10
601.166876
 20
235.907082
 40
44.44972
100
AcDbArc
 50
159.928241
 51
180.0
  0
LINE
  5
AC
100
AcDbEntity
  8
M1
  6
CONTINUOUS
370
25
100
AcDbLine
 10
559.416876
 20
245.907082
 11
559.416876
 21
445.907082
  0
LINE
  5
AD
100
AcDbEntity
  8
M1
  6
CONTINUOUS
370
25
100
AcDbLine
 10
529.417876
 20
251.907082
 11
529.417876
 21
445.907082
  0
LINE
  5
AE
100
AcDbEntity
  8
M1
  6
CONTINUOUS
370
25
100
AcDbLine
 10
526.917876
 20
249.907082
 11
527.417876
 21
249.907082
  0
LINE
  5
AF
100
AcDbEntity
  8
M1
  6
CONTINUOUS
370
25
100
AcDbLine
 10
559.416876
 20
245.907082
 11
560.617876
 21
245.907082
  0
LINE
  5
B0
100
AcDbEntity
  8
M1
  6
CONTINUOUS
370
25
100
AcDbLine
 10
529.417876
 20
288.407082
 11
529.417876
 21
296.907082
  0
LINE
  5
B1
100
AcDbEntity
  8
M1
  6
CONTINUOUS
370
25
100
AcDbLine
 10
529.417876
 20
575.406082
 11
529.417876
 21
636.467082
  0
LINE
  5
B2
100
AcDbEntity
  8
M1
  6
CONTINUOUS
370
25
100
AcDbLine
 10
693.717876
 20
655.906082
 11
693.717876
 21
578.905082
  0
LINE
  5
B3
100
AcDbEntity
  8
M1
  6
CONTINUOUS
370
25
100
AcDbLine
 10
693.717876
 20
570.905082
 11
693.717876
 21
560.907082
  0
LINE
  5
B4
100
AcDbEntity
  8
M1
  6
CONTINUOUS
370
25
100
AcDbLine
 10
474.416876
 20
626.406082
 11
474.416876
 21
445.907082
  0
LINE
  5
B5
100
AcDbEntity
  8
M1
  6
CONTINUOUS
370
25
100
AcDbLine
 10
476.416876
 20
573.406082
 11
527.417876
 21
573.406082
  0
LINE
  5
B6
100
AcDbEntity
  8
M1
  6
CONTINUOUS
370
25
100
AcDbLine
 10
476.417876
 20
628.406082
 11
504.417876
 21
628.406082
  0
LINE
  5
B7
100
AcDbEntity
  8
M1
  6
CONTINUOUS
370
25
100
AcDbLine
 10
504.417876
 20
632.406082
 11
529.417876
 21
632.406082
  0
LINE
  5
B8
100
AcDbEntity
  8
M1
  6
CONTINUOUS
370
25
100
AcDbLine
 10
504.417876
 20
633.407082
 11
504.417876
 21
628.406082
  0
ARC
  5
B9
100
AcDbEntity
  8
M1
  6
CONTINUOUS
370
25
100
AcDbCircle
 10
516.917876
 20
582.906082
 40
55.00028
100
AcDbArc
 50
76.863509
 51
81.636387
  0
LINE
  5
BA
100
AcDbEntity
  8
M1
  6
CONTINUOUS
370
25
100
AcDbLine
 10
476.417876
 20
628.406082
 11
474.416876
 21
626.406082
  0
LINE
  5
BB
100
AcDbEntity
  8
M1
  6
CONTINUOUS
370
25
100
AcDbLine
 10
474.416876
 20
575.406082
 11
476.416876
 21
573.406082
  0
LINE
  5
BC
100
AcDbEntity
  8
M1
  6
CONTINUOUS
370
25
100
AcDbLine
 10
527.417876
 20
573.406082
 11
529.417876
 21
575.406082
  0
LINE
  5
BD
100
AcDbEntity
  8
M1
  6
CONTINUOUS
370
25
100
AcDbLine
 10
464.920876
 20
603.406082
 11
538.590876
 21
603.406082
  0
LINE
  5
BE
100
AcDbEntity
  8
M1
  6
CONTINUOUS
370
25
100
AcDbLine
 10
497.417876
 20
582.406082
 11
497.417876
 21
624.406082
  0
LINE
  5
BF
100
AcDbEntity
  8
M1
  6
CONTINUOUS
370
25
100
AcDbLine
 10
497.417876
 20
624.406082
 11
529.417876
 21
624.406082
  0
LINE
  5
C0
100
AcDbEntity
  8
M1
  6
CONTINUOUS
370
25
100
AcDbLine
 10
474.416876
 20
616.406082
 11
497.417876
 21
616.406082
  0
LINE
  5
C1
100
AcDbEntity
  8
M1
  6
CONTINUOUS
370
25
100
AcDbLine
 10
474.416876
 20
590.406082
 11
497.416876
 21
590.406082
  0
LINE
  5
C2
100
AcDbEntity
  8
M1
  6
CONTINUOUS
370
25
100
AcDbLine
 10
497.416876
 20
582.406082
 11
529.416876
 21
582.406082
  0
LINE
  5
C3
100
AcDbEntity
  8
M1
  6
CONTINUOUS
370
25
100
AcDbLine
 10
476.416876
 20
263.407082
 11
474.416876
 21
265.407082
  0
LINE
  5
C4
100
AcDbEntity
  8
M1
  6
CONTINUOUS
370
25
100
AcDbLine
 10
474.416876
 20
265.407082
 11
474.416876
 21
445.907082
  0
LINE
  5
C5
100
AcDbEntity
  8
M1
  6
CONTINUOUS
370
25
100
AcDbLine
 10
476.416876
 20
263.407082
 11
504.416876
 21
263.407082
  0
LINE
  5
C6
100
AcDbEntity
  8
M1
  6
CONTINUOUS
370
25
100
AcDbLine
 10
504.416876
 20
259.407082
 11
529.416876
 21
259.407082
  0
LINE
  5
C7
100
AcDbEntity
  8
M1
  6
CONTINUOUS
370
25
100
AcDbLine
 10
504.416876
 20
258.407082
 11
504.416876
 21
263.407082
  0
ARC
  5
C8
100
AcDbEntity
  8
M1
  6
CONTINUOUS
370
25
100
AcDbCircle
 10
516.916876
 20
308.907082
 40
55.000076
100
AcDbArc
 50
278.364643
 51
283.136491
  0
LINE
  5
C9
100
AcDbEntity
  8
M1
  6
CONTINUOUS
370
25
100
AcDbLine
 10
476.416876
 20
318.407082
 11
527.416876
 21
318.407082
  0
LINE
  5
CA
100
AcDbEntity
  8
M1
  6
CONTINUOUS
370
25
100
AcDbLine
 10
474.416876
 20
316.407082
 11
476.416876
 21
318.407082
  0
LINE
  5
CB
100
AcDbEntity
  8
M1
  6
CONTINUOUS
370
25
100
AcDbLine
 10
527.416876
 20
318.407082
 11
529.416876
 21
316.407082
  0
LINE
  5
CC
100
AcDbEntity
  8
M1
  6
CONTINUOUS
370
25
100
AcDbLine
 10
529.416876
 20
284.406082
 11
529.416876
 21
292.406082
  0
LINE
  5
CD
100
AcDbEntity
  8
M1
  6
CONTINUOUS
370
25
100
AcDbLine
 10
793.717876
 20
445.907082
 11
793.717876
 21
585.407082
  0
LINE
  5
CE
100
AcDbEntity
  8
M1
  6
CONTINUOUS
370
25
100
AcDbLine
 10
793.717876
 20
585.407082
 11
788.717876
 21
585.406082
  0
LINE
  5
CF
100
AcDbEntity
  8
M1
  6
CONTINUOUS
370
25
100
AcDbLine
 10
693.717876
 20
585.407082
 11
693.717876
 21
579.407082
  0
LINE
  5
D0
100
AcDbEntity
  8
M1
  6
CONTINUOUS
370
25
100
AcDbLine
 10
728.717876
 20
583.907082
 11
788.717876
 21
583.907082
  0
LINE
  5
D1
100
AcDbEntity
  8
M1
  6
CONTINUOUS
370
25
100
AcDbLine
 10
788.717876
 20
585.907082
 11
788.717876
 21
583.907082
  0
LINE
  5
D2
100
AcDbEntity
  8
M1
  6
CONTINUOUS
370
25
100
AcDbLine
 10
728.717876
 20
585.907082
 11
728.717876
 21
583.907082
  0
LINE
  5
D3
100
AcDbEntity
  8
M1
  6
CONTINUOUS
370
25
100
AcDbLine
 10
743.717876
 20
561.407082
 11
791.717876
 21
561.407082
  0
LINE
  5
D4
100
AcDbEntity
  8
M1
  6
CONTINUOUS
370
25
100
AcDbLine
 10
695.717876
 20
560.907082
 11
743.717876
 21
560.907082
  0
LINE
  5
D5
100
AcDbEntity
  8
M1
  6
CONTINUOUS
370
25
100
AcDbLine
 10
743.717876
 20
561.407082
 11
743.717876
 21
560.907082
  0
LINE
  5
D6
100
AcDbEntity
  8
M1
  6
CONTINUOUS
370
25
100
AcDbLine
 10
728.717876
 20
585.406082
 11
693.717876
 21
585.407082
  0
LINE
  5
D7
100
AcDbEntity
  8
M1
  6
CONTINUOUS
370
25
100
AcDbLine
 10
778.717876
 20
566.407082
 11
778.717876
 21
583.407082
  0
LINE
  5
D8
100
AcDbEntity
  8
M1
  6
CONTINUOUS
370
25
100
AcDbLine
 10
778.716876
 20
583.407082
 11
793.717876
 21
583.407082
  0
LINE
  5
D9
100
AcDbEntity
  8
M1
  6
CONTINUOUS
370
25
100
AcDbLine
 10
778.717876
 20
566.407082
 11
793.717876
 21
566.407082
  0
LINE
  5
DA
100
AcDbEntity
  8
M1
  6
CONTINUOUS
370
25
100
AcDbLine
 10
693.717876
 20
562.906082
 11
695.717876
 21
560.907082
  0
LINE
  5
DB
100
AcDbEntity
  8
M1
  6
CONTINUOUS
370
25
100
AcDbLine
 10
791.717876
 20
561.407082
 11
793.717876
 21
563.406082
  0
LINE
  5
DC
100
AcDbEntity
  8
M1
  6
CONTINUOUS
370
25
100
AcDbLine
 10
778.716876
 20
566.407082
 11
778.716876
 21
583.407082
  0
LINE
  5
DD
100
AcDbEntity
  8
M1
  6
CONTINUOUS
370
25
100
AcDbLine
 10
748.716876
 20
570.906082
 11
778.716876
 21
570.906082
  0
LINE
  5
DE
100
AcDbEntity
  8
M1
  6
CONTINUOUS
370
25
100
AcDbLine
 10
778.716876
 20
578.906082
 11
748.716876
 21
578.906082
  0
LINE
  5
DF
100
AcDbEntity
  8
M1
  6
CONTINUOUS
370
25
100
AcDbLine
 10
779.717876
 20
586.906082
 11
779.717876
 21
604.906082
  0
LINE
  5
E0
100
AcDbEntity
  8
M1
  6
CONTINUOUS
370
25
100
AcDbLine
 10
778.717876
 20
605.906082
 11
768.717876
 21
605.906082
  0
LINE
  5
E1
100
AcDbEntity
  8
M1
  6
CONTINUOUS
370
25
100
AcDbLine
 10
767.717876
 20
604.906082
 11
767.717876
 21
586.906082
  0
LINE
  5
E2
100
AcDbEntity
  8
M1
  6
CONTINUOUS
370
25
100
AcDbLine
 10
768.717876
 20
585.906082
 11
778.717876
 21
585.906082
  0
LINE
  5
E3
100
AcDbEntity
  8
M1
  6
CONTINUOUS
370
25
100
AcDbLine
 10
767.717876
 20
586.906082
 11
768.717876
 21
585.906082
  0
LINE
  5
E4
100
AcDbEntity
  8
M1
  6
CONTINUOUS
370
25
100
AcDbLine
 10
779.717876
 20
586.906082
 11
778.717876
 21
585.906082
  0
LINE
  5
E5
100
AcDbEntity
  8
M1
  6
CONTINUOUS
370
25
100
AcDbLine
 10
768.717876
 20
605.906082
 11
767.717876
 21
604.906082
  0
LINE
  5
E6
100
AcDbEntity
  8
M1
  6
CONTINUOUS
370
25
100
AcDbLine
 10
779.717876
 20
604.906082
 11
778.717876
 21
605.906082
  0
LINE
  5
E7
100
AcDbEntity
  8
M1
  6
CONTINUOUS
370
25
100
AcDbLine
 10
752.717876
 20
587.407082
 11
767.717876
 21
587.407082
  0
LINE
  5
E8
100
AcDbEntity
  8
M1
  6
CONTINUOUS
370
25
100
AcDbLine
 10
728.717876
 20
585.907082
 11
741.716876
 21
585.907082
  0
LINE
  5
E9
100
AcDbEntity
  8
M1
  6
CONTINUOUS
370
25
100
AcDbLine
 10
778.718876
 20
585.907082
 11
788.717876
 21
585.907082
  0
LINE
  5
EA
100
AcDbEntity
  8
M1
  6
CONTINUOUS
370
25
100
AcDbLine
 10
740.716876
 20
586.906082
 11
740.717849
 21
604.906055
  0
LINE
  5
EB
100
AcDbEntity
  8
M1
  6
CONTINUOUS
370
25
100
AcDbLine
 10
741.716876
 20
605.906082
 11
751.717876
 21
605.906082
  0
LINE
  5
EC
100
AcDbEntity
  8
M1
  6
CONTINUOUS
370
25
100
AcDbLine
 10
752.717849
 20
604.906109
 11
752.716876
 21
586.906082
  0
LINE
  5
ED
100
AcDbEntity
  8
M1
  6
CONTINUOUS
370
25
100
AcDbLine
 10
751.716876
 20
585.906082
 11
741.716876
 21
585.906082
  0
LINE
  5
EE
100
AcDbEntity
  8
M1
  6
CONTINUOUS
370
25
100
AcDbLine
 10
752.716876
 20
586.906082
 11
751.716876
 21
585.906082
  0
LINE
  5
EF
100
AcDbEntity
  8
M1
  6
CONTINUOUS
370
25
100
AcDbLine
 10
740.716876
 20
586.906082
 11
741.716876
 21
585.906082
  0
LINE
  5
F0
100
AcDbEntity
  8
M1
  6
CONTINUOUS
370
25
100
AcDbLine
 10
751.717876
 20
605.906082
 11
752.717876
 21
604.906082
  0
LINE
  5
F1
100
AcDbEntity
  8
M1
  6
CONTINUOUS
370
25
100
AcDbLine
 10
740.717876
 20
604.906082
 11
741.716876
 21
605.906082
  0
LINE
  5
F2
100
AcDbEntity
  8
M1
  6
CONTINUOUS
370
25
100
AcDbLine
 10
728.717876
 20
306.407082
 11
693.717876
 21
306.407082
  0
LINE
  5
F3
100
AcDbEntity
  8
M1
  6
CONTINUOUS
370
25
100
AcDbLine
 10
728.717876
 20
305.907082
 11
740.716631
 21
305.907082
  0
LINE
  5
F4
100
AcDbEntity
  8
M1
  6
CONTINUOUS
370
25
100
AcDbLine
 10
740.714876
 20
445.907082
 11
740.716869
 21
286.907089
  0
LINE
  5
F5
100
AcDbEntity
  8
M1
  6
CONTINUOUS
370
25
100
AcDbLine
 10
740.716876
 20
286.907082
 11
741.716876
 21
285.907082
  0
LINE
  5
F6
100
AcDbEntity
  8
M1
  6
CONTINUOUS
370
25
100
AcDbLine
 10
741.716876
 20
285.907082
 11
751.716876
 21
285.908082
  0
LINE
  5
F7
100
AcDbEntity
  8
M1
  6
CONTINUOUS
370
25
100
AcDbLine
 10
751.716876
 20
285.908082
 11
752.716876
 21
286.907082
  0
LINE
  5
F8
100
AcDbEntity
  8
M1
  6
CONTINUOUS
370
25
100
AcDbLine
 10
752.716876
 20
286.907082
 11
752.716876
 21
445.907082
  0
LINE
  5
F9
100
AcDbEntity
  8
M1
  6
CONTINUOUS
370
25
100
AcDbLine
 10
767.717876
 20
286.907082
 11
767.717876
 21
445.907082
  0
LINE
  5
FA
100
AcDbEntity
  8
M1
  6
CONTINUOUS
370
25
100
AcDbLine
 10
752.716876
 20
304.407082
 11
767.717876
 21
304.407082
  0
LINE
  5
FB
100
AcDbEntity
  8
M1
  6
CONTINUOUS
370
25
100
AcDbLine
 10
768.717876
 20
285.907082
 11
767.717876
 21
286.907082
  0
LINE
  5
FC
100
AcDbEntity
  8
M1
  6
CONTINUOUS
370
25
100
AcDbLine
 10
778.717876
 20
285.907082
 11
768.717876
 21
285.907082
  0
LINE
  5
FD
100
AcDbEntity
  8
M1
  6
CONTINUOUS
370
25
100
AcDbLine
 10
779.717876
 20
286.907082
 11
778.717876
 21
285.907082
  0
LINE
  5
FE
100
AcDbEntity
  8
M1
  6
CONTINUOUS
370
25
100
AcDbLine
 10
779.719876
 20
445.907082
 11
779.717882
 21
286.907089
  0
LINE
  5
FF
100
AcDbEntity
  8
M1
  6
CONTINUOUS
370
25
100
AcDbLine
 10
779.71812
 20
305.907082
 11
788.717876
 21
305.907082
  0
LINE
  5
100
100
AcDbEntity
  8
M1
  6
CONTINUOUS
370
25
100
AcDbLine
 10
793.717876
 20
306.407082
 11
788.717876
 21
306.407082
  0
LINE
  5
101
100
AcDbEntity
  8
M1
  6
CONTINUOUS
370
25
100
AcDbLine
 10
793.717876
 20
445.907082
 11
793.717876
 21
306.407082
  0
LINE
  5
102
100
AcDbEntity
  8
M1
  6
CONTINUOUS
370
25
100
AcDbLine
 10
728.717876
 20
305.907082
 11
728.717876
 21
445.907082
  0
LINE
  5
103
100
AcDbEntity
  8
M1
  6
CONTINUOUS
370
25
100
AcDbLine
 10
788.717876
 20
305.907082
 11
788.717876
 21
445.907082
  0
LINE
  5
104
100
AcDbEntity
  8
M1
  6
CONTINUOUS
370
25
100
AcDbLine
 10
693.717876
 20
570.407082
 11
693.717876
 21
562.906082
  0
LINE
  5
105
100
AcDbEntity
  8
M1
  6
CONTINUOUS
370
25
100
AcDbLine
 10
780.716876
 20
582.606082
 11
778.716876
 21
582.606082
  0
LINE
  5
106
100
AcDbEntity
  8
M1
  6
CONTINUOUS
370
25
100
AcDbLine
 10
778.716876
 20
582.606082
 11
778.715876
 21
567.206082
  0
LINE
  5
107
100
AcDbEntity
  8
M1
  6
CONTINUOUS
370
25
100
AcDbLine
 10
778.715876
 20
567.206082
 11
780.715876
 21
567.206082
  0
LINE
  5
108
100
AcDbEntity
  8
M1
  6
CONTINUOUS
370
25
100
AcDbLine
 10
780.715876
 20
567.206082
 11
780.716876
 21
582.606082
  0
LINE
  5
109
100
AcDbEntity
  8
M1
  6
CONTINUOUS
370
25
100
AcDbLine
 10
780.715876
 20
574.906082
 11
778.715876
 21
572.906082
  0
LINE
  5
10A
100
AcDbEntity
  8
M1
  6
CONTINUOUS
370
25
100
AcDbLine
 10
780.716876
 20
576.906082
 11
778.716876
 21
574.906082
  0
LINE
  5
10B
100
AcDbEntity
  8
M1
  6
CONTINUOUS
370
25
100
AcDbLine
 10
788.152876
 20
581.405082
 11
780.715876
 21
581.405082
  0
LINE
  5
10C
100
AcDbEntity
  8
M1
  6
CONTINUOUS
370
25
100
AcDbLine
 10
780.715876
 20
581.405082
 11
780.715876
 21
568.405082
  0
LINE
  5
10D
100
AcDbEntity
  8
M1
  6
CONTINUOUS
370
25
100
AcDbLine
 10
780.715876
 20
568.405082
 11
788.152876
 21
568.405082
  0
LINE
  5
10E
100
AcDbEntity
  8
M1
  6
CONTINUOUS
370
25
100
AcDbLine
 10
788.715876
 20
569.380082
 11
788.715876
 21
580.430082
  0
LINE
  5
10F
100
AcDbEntity
  8
M1
  6
CONTINUOUS
370
25
100
AcDbLine
 10
788.152876
 20
568.405082
 11
788.715876
 21
569.380082
  0
LINE
  5
110
100
AcDbEntity
  8
M1
  6
CONTINUOUS
370
25
100
AcDbLine
 10
788.715876
 20
580.430082
 11
788.152876
 21
581.405082
  0
LINE
  5
111
100
AcDbEntity
  8
M1
  6
CONTINUOUS
370
25
100
AcDbLine
 10
681.787876
 20
570.905082
 11
681.787876
 21
578.905082
  0
LINE
  5
112
100
AcDbEntity
  8
M1
  6
CONTINUOUS
370
25
100
AcDbLine
 10
681.787876
 20
570.905082
 11
680.715876
 21
571.977082
  0
LINE
  5
113
100
AcDbEntity
  8
M1
  6
CONTINUOUS
370
25
100
AcDbLine
 10
681.787876
 20
578.905082
 11
680.715876
 21
577.834082
  0
LINE
  5
114
100
AcDbEntity
  8
M1
  6
CONTINUOUS
370
25
100
AcDbLine
 10
680.987876
 20
571.705082
 11
702.715876
 21
571.705082
  0
LINE
  5
115
100
AcDbEntity
  8
M1
  6
CONTINUOUS
370
25
100
AcDbLine
 10
702.715876
 20
578.105082
 11
680.987876
 21
578.105082
  0
LINE
  5
116
100
AcDbEntity
  8
M1
  6
CONTINUOUS
370
25
100
AcDbLine
 10
702.715876
 20
578.105082
 11
704.101876
 21
578.905082
  0
LINE
  5
117
100
AcDbEntity
  8
M1
  6
CONTINUOUS
370
25
100
AcDbLine
 10
704.101876
 20
570.905082
 11
702.715876
 21
571.705082
  0
LINE
  5
118
100
AcDbEntity
  8
M1
  6
CONTINUOUS
370
25
100
AcDbLine
 10
788.152876
 20
568.405082
 11
788.152876
 21
581.405082
  0
LINE
  5
119
100
AcDbEntity
  8
M1
  6
CONTINUOUS
370
25
100
AcDbLine
 10
778.717876
 20
578.905082
 11
681.787876
 21
578.905082
  0
LINE
  5
11A
100
AcDbEntity
  8
M1
  6
CONTINUOUS
370
25
100
AcDbLine
 10
680.715876
 20
577.834082
 11
680.715876
 21
571.977082
  0
LINE
  5
11B
100
AcDbEntity
  8
M1
  6
CONTINUOUS
370
25
100
AcDbLine
 10
681.787876
 20
570.905082
 11
778.717876
 21
570.905082
  0
LINE
  5
11C
100
AcDbEntity
  8
M1
  6
CONTINUOUS
370
25
100
AcDbLine
 10
702.715876
 20
578.905082
 11
702.715876
 21
570.905082
  0
LINE
  5
11D
100
AcDbEntity
  8
M1
  6
CONTINUOUS
370
25
100
AcDbLine
 10
464.920876
 20
288.407082
 11
538.590876
 21
288.407082
  0
LINE
  5
11E
100
AcDbEntity
  8
M1
  6
CONTINUOUS
370
25
100
AcDbLine
 10
529.417876
 20
338.907082
 11
531.417876
 21
340.907082
  0
LINE
  5
11F
100
AcDbEntity
  8
M1
  6
CONTINUOUS
370
25
100
AcDbLine
 10
531.417876
 20
340.907082
 11
557.416876
 21
340.907082
  0
LINE
  5
120
100
AcDbEntity
  8
M1
  6
CONTINUOUS
370
25
100
AcDbLine
 10
557.416876
 20
340.907082
 11
559.416876
 21
338.907082
  0
LINE
  5
121
100
AcDbEntity
  8
M1
  6
CONTINUOUS
370
25
100
AcDbLine
 10
783.717876
 20
445.907082
 11
813.717876
 21
445.907082
  0
CIRCLE
  5
122
100
AcDbEntity
  8
M1
  6
CONTINUOUS
370
25
100
AcDbCircle
 10
1054.5707
 20
445.907082
 40
210.0
  0
LINE
  5
123
100
AcDbEntity
  8
M1
  6
CONTINUOUS
370
25
100
AcDbLine
 10
1034.5707
 20
445.907082
 11
1074.5707
 21
445.907082
  0
LINE
  5
124
100
AcDbEntity
  8
M1
  6
CONTINUOUS
370
25
100
AcDbLine
 10
1054.5707
 20
425.907082
 11
1054.5707
 21
465.907082
  0
CIRCLE
  5
125
100
AcDbEntity
  8
M1
  6
CONTINUOUS
370
25
100
AcDbCircle
 10
1054.5707
 20
445.907082
 40
139.5
  0
CIRCLE
  5
126
100
AcDbEntity
  8
M1
  6
CONTINUOUS
370
25
100
AcDbCircle
 10
1054.5707
 20
445.907082
 40
115.0
  0
CIRCLE
  5
127
100
AcDbEntity
  8
M1
  6
CONTINUOUS
370
25
100
AcDbCircle
 10
1054.5707
 20
445.907082
 40
115.5
  0
CIRCLE
  5
128
100
AcDbEntity
  8
M1
  6
CONTINUOUS
370
25
100
AcDbCircle
 10
1054.5707
 20
445.907082
 40
140.0
  0
CIRCLE
  5
129
100
AcDbEntity
  8
M1
  6
CONTINUOUS
370
25
100
AcDbCircle
 10
1054.5707
 20
445.907082
 40
160.0
  0
LINE
  5
12A
100
AcDbEntity
  8
M1
  6
CONTINUOUS
370
25
100
AcDbLine
 10
1075.5707
 20
528.272082
 11
1075.5707
 21
543.912082
  0
LINE
  5
12B
100
AcDbEntity
  8
M1
  6
CONTINUOUS
370
25
100
AcDbLine
 10
1075.5707
 20
543.912082
 11
1033.5707
 21
543.912082
  0
LINE
  5
12C
100
AcDbEntity
  8
M1
  6
CONTINUOUS
370
25
100
AcDbLine
 10
1033.5707
 20
543.912082
 11
1033.5707
 21
528.272082
  0
ARC
  5
12D
100
AcDbEntity
  8
M1
  6
CONTINUOUS
370
25
100
AcDbCircle
 10
1054.5707
 20
445.907082
 40
84.99996
100
AcDbArc
 50
104.303543
 51
435.696457
  0
LINE
  5
12E
100
AcDbEntity
  8
M1
  6
CONTINUOUS
370
25
100
AcDbLine
 10
960.9047
 20
539.573082
 11
964.2507
 21
540.469082
  0
LINE
  5
12F
100
AcDbEntity
  8
M1
  6
CONTINUOUS
370
25
100
AcDbLine
 10
964.2507
 20
540.469082
 11
966.6997
 21
538.020082
  0
LINE
  5
130
100
AcDbEntity
  8
M1
  6
CONTINUOUS
370
25
100
AcDbLine
 10
966.6997
 20
538.020082
 11
965.8037
 21
534.674082
  0
LINE
  5
131
100
AcDbEntity
  8
M1
  6
CONTINUOUS
370
25
100
AcDbLine
 10
965.8037
 20
534.674082
 11
962.4577
 21
533.777082
  0
LINE
  5
132
100
AcDbEntity
  8
M1
  6
CONTINUOUS
370
25
100
AcDbLine
 10
962.4577
 20
533.777082
 11
960.0077
 21
536.227082
  0
LINE
  5
133
100
AcDbEntity
  8
M1
  6
CONTINUOUS
370
25
100
AcDbLine
 10
960.0077
 20
536.227082
 11
960.9047
 21
539.573082
  0
CIRCLE
  5
134
100
AcDbEntity
  8
M1
  6
CONTINUOUS
370
25
100
AcDbCircle
 10
963.3537
 20
537.124082
 40
6.5
  0
LINE
  5
135
100
AcDbEntity
  8
M1
  6
CONTINUOUS
370
25
100
AcDbLine
 10
960.9047
 20
352.240082
 11
960.0077
 21
355.586082
  0
LINE
  5
136
100
AcDbEntity
  8
M1
  6
CONTINUOUS
370
25
100
AcDbLine
 10
960.0077
 20
355.586082
 11
962.4577
 21
358.036082
  0
LINE
  5
137
100
AcDbEntity
  8
M1
  6
CONTINUOUS
370
25
100
AcDbLine
 10
962.4577
 20
358.036082
 11
965.8037
 21
357.139082
  0
LINE
  5
138
100
AcDbEntity
  8
M1
  6
CONTINUOUS
370
25
100
AcDbLine
 10
965.8037
 20
357.139082
 11
966.6997
 21
353.793082
  0
LINE
  5
139
100
AcDbEntity
  8
M1
  6
CONTINUOUS
370
25
100
AcDbLine
 10
966.6997
 20
353.793082
 11
964.2507
 21
351.344082
  0
LINE
  5
13A
100
AcDbEntity
  8
M1
  6
CONTINUOUS
370
25
100
AcDbLine
 10
964.2507
 20
351.344082
 11
960.9047
 21
352.240082
  0
CIRCLE
  5
13B
100
AcDbEntity
  8
M1
  6
CONTINUOUS
370
25
100
AcDbCircle
 10
963.3537
 20
354.690082
 40
6.5
  0
LINE
  5
13C
100
AcDbEntity
  8
M1
  6
CONTINUOUS
370
25
100
AcDbLine
 10
1148.2367
 20
352.240082
 11
1144.8907
 21
351.344082
  0
LINE
  5
13D
100
AcDbEntity
  8
M1
  6
CONTINUOUS
370
25
100
AcDbLine
 10
1144.8907
 20
351.344082
 11
1142.4417
 21
353.794082
  0
LINE
  5
13E
100
AcDbEntity
  8
M1
  6
CONTINUOUS
370
25
100
AcDbLine
 10
1142.4417
 20
353.794082
 11
1143.3377
 21
357.139082
  0
LINE
  5
13F
100
AcDbEntity
  8
M1
  6
CONTINUOUS
370
25
100
AcDbLine
 10
1143.3377
 20
357.139082
 11
1146.6837
 21
358.036082
  0
LINE
  5
140
100
AcDbEntity
  8
M1
  6
CONTINUOUS
370
25
100
AcDbLine
 10
1146.6837
 20
358.036082
 11
1149.1337
 21
355.586082
  0
LINE
  5
141
100
AcDbEntity
  8
M1
  6
CONTINUOUS
370
25
100
AcDbLine
 10
1149.1337
 20
355.586082
 11
1148.2367
 21
352.240082
  0
CIRCLE
  5
142
100
AcDbEntity
  8
M1
  6
CONTINUOUS
370
25
100
AcDbCircle
 10
1145.7877
 20
354.690082
 40
6.5
  0
LINE
  5
143
100
AcDbEntity
  8
M1
  6
CONTINUOUS
370
25
100
AcDbLine
 10
1148.2367
 20
539.573082
 11
1149.1337
 21
536.227082
  0
LINE
  5
144
100
AcDbEntity
  8
M1
  6
CONTINUOUS
370
25
100
AcDbLine
 10
1149.1337
 20
536.227082
 11
1146.6837
 21
533.778082
  0
LINE
  5
145
100
AcDbEntity
  8
M1
  6
CONTINUOUS
370
25
100
AcDbLine
 10
1146.6837
 20
533.778082
 11
1143.3377
 21
534.674082
  0
LINE
  5
146
100
AcDbEntity
  8
M1
  6
CONTINUOUS
370
25
100
AcDbLine
 10
1143.3377
 20
534.674082
 11
1142.4417
 21
538.020082
  0
LINE
  5
147
100
AcDbEntity
  8
M1
  6
CONTINUOUS
370
25
100
AcDbLine
 10
1142.4417
 20
538.020082
 11
1144.8907
 21
540.470082
  0
LINE
  5
148
100
AcDbEntity
  8
M1
  6
CONTINUOUS
370
25
100
AcDbLine
 10
1144.8907
 20
540.470082
 11
1148.2367
 21
539.573082
  0
CIRCLE
  5
149
100
AcDbEntity
  8
M1
  6
CONTINUOUS
370
25
100
AcDbCircle
 10
1145.7877
 20
537.124082
 40
6.5
  0
LINE
  5
14A
100
AcDbEntity
  8
M1
  6
CONTINUOUS
370
25
100
AcDbLine
 10
103.870637
 20
240.229082
 11
121.190637
 21
230.229082
  0
LINE
  5
14B
100
AcDbEntity
  8
M1
  6
CONTINUOUS
370
25
100
AcDbLine
 10
103.870637
 20
240.229082
 11
112.699637
 21
237.864082
  0
LINE
  5
14C
100
AcDbEntity
  8
M1
  6
CONTINUOUS
370
25
100
AcDbLine
 10
103.870637
 20
240.229082
 11
110.334637
 21
233.766082
  0
LINE
  5
14D
100
AcDbEntity
  8
M1
  6
CONTINUOUS
370
25
100
AcDbLine
 10
108.871637
 20
248.889082
 11
98.869637
 21
231.570082
  0
LINE
  5
14E
100
AcDbEntity
  8
M1
  6
CONTINUOUS
370
25
100
AcDbLine
 10
222.628637
 20
683.406082
 11
231.458637
 21
685.771082
  0
LINE
  5
14F
100
AcDbEntity
  8
M1
  6
CONTINUOUS
370
25
100
AcDbLine
 10
222.628637
 20
683.406082
 11
242.628637
 21
683.406082
  0
LINE
  5
150
100
AcDbEntity
  8
M1
  6
CONTINUOUS
370
25
100
AcDbLine
 10
222.628637
 20
683.406082
 11
231.458637
 21
681.040082
  0
LINE
  5
151
100
AcDbEntity
  8
M1
  6
CONTINUOUS
370
25
100
AcDbLine
 10
222.628637
 20
673.406082
 11
222.628637
 21
693.406082
  0
LINE
  5
152
100
AcDbEntity
  8
M1
  6
CONTINUOUS
370
25
100
AcDbLine
 10
202.629637
 20
445.906082
 11
242.629637
 21
445.906082
  0
LINE
  5
153
100
AcDbEntity
  8
M1
  6
CONTINUOUS
370
25
100
AcDbLine
 10
222.629637
 20
425.906082
 11
222.629637
 21
465.906082
  0
TEXT
  5
154
100
AcDbEntity
  8
M1
100
AcDbText
 10
993.877955
 20
69.99141
 40
18.0
  1
ＴＲ－２５００
 41
1.0
  7
STANDARD
100
AcDbText
  0
TEXT
  5
155
100
AcDbEntity
  8
M1
100
AcDbText
 10
998.798365
 20
43.117982
 40
15.0
  1
（ＳＤＫ３１１６）
  7
STANDARD
100
AcDbText
  0
ENDSEC
  0
SECTION
  2
OBJECTS
  0
DICTIONARY
  5
C
100
AcDbDictionary
  3
ACAD_GROUP
350
D
  3
ACAD_MLINESTYLE
350
E
  0
DICTIONARY
  5
D
102
{ACAD_REACTORS
330
C
102
}
100
AcDbDictionary
  0
DICTIONARY
  5
E
102
{ACAD_REACTORS
330
C
102
}
100
AcDbDictionary
  3
STANDARD
350
13
  0
MLINESTYLE
  5
13
102
{ACAD_REACTORS
330
E
102
}
100
AcDbMlineStyle
  2
STANDARD
 70
     0
  3

 62
     0
 51
90.0
 52
90.0
 71
     2
 49
0.5
 62
   256
  6
BYLAYER
 49
-0.5
 62
   256
  6
BYLAYER
  0
ENDSEC
  0
EOF
